  0
SECTION
  2
HEADER
  9
$ACADVER
  1
AC1014
  9
$ACADMAINTVER
 70
       0
  9
$DWGCODEPAGE
  3
ANSI_932
  9
$INSBASE
 10
0.0
 20
0.0
 30
0.0
  9
$EXTMIN
 10
-416.52
 20
-288.08
 30
0.0
  9
$EXTMAX
 10
416.52
 20
288.08
 30
0.0
  9
$LIMMIN
 10
-442.5525
 20
-306.085
  9
$LIMMAX
 10
442.5525
 20
306.085
  9
$ORTHOMODE
 70
       0
  9
$REGENMODE
 70
       1
  9
$FILLMODE
 70
       1
  9
$QTEXTMODE
 70
       0
  9
$MIRRTEXT
 70
       1
  9
$DRAGMODE
 70
       2
  9
$LTSCALE
 40
1.0
  9
$OSMODE
 70
       0
  9
$ATTMODE
 70
       1
  9
$TEXTSIZE
 40
0.2
  9
$TRACEWID
 40
0.05
  9
$TEXTSTYLE
  7
STANDARD
  9
$CLAYER
  8
0
  9
$CELTYPE
  6
CONTINUOUS
  9
$CECOLOR
 62
     256
  9
$CELTSCALE
 40
1.0
  9
$DELOBJ
 70
       1
  9
$DISPSILH
 70
       0
  9
$DIMSCALE
 40
1.0
  9
$DIMASZ
 40
0.18
  9
$DIMEXO
 40
0.0625
  9
$DIMDLI
 40
0.38
  9
$DIMRND
 40
0.0
  9
$DIMDLE
 40
0.0
  9
$DIMEXE
 40
0.18
  9
$DIMTP
 40
0.0
  9
$DIMTM
 40
0.0
  9
$DIMTXT
 40
0.18
  9
$DIMCEN
 40
0.09
  9
$DIMTSZ
 40
0.0
  9
$DIMTOL
 70
       0
  9
$DIMLIM
 70
       0
  9
$DIMTIH
 70
       1
  9
$DIMTOH
 70
       1
  9
$DIMSE1
 70
       0
  9
$DIMSE2
 70
       0
  9
$DIMTAD
 70
       0
  9
$DIMZIN
 70
       0
  9
$DIMBLK
  1

  9
$DIMASO
 70
       1
  9
$DIMSHO
 70
       1
  9
$DIMPOST
  1

  9
$DIMAPOST
  1

  9
$DIMALT
 70
       0
  9
$DIMALTD
 70
       2
  9
$DIMALTF
 40
25.4
  9
$DIMLFAC
 40
1.0
  9
$DIMTOFL
 70
       0
  9
$DIMTVP
 40
0.0
  9
$DIMTIX
 70
       0
  9
$DIMSOXD
 70
       0
  9
$DIMSAH
 70
       0
  9
$DIMBLK1
  1

  9
$DIMBLK2
  1

  9
$DIMSTYLE
  2
STANDARD
  9
$DIMCLRD
 70
       0
  9
$DIMCLRE
 70
       0
  9
$DIMCLRT
 70
       0
  9
$DIMTFAC
 40
1.0
  9
$DIMGAP
 40
0.09
  9
$DIMJUST
 70
       0
  9
$DIMSD1
 70
       0
  9
$DIMSD2
 70
       0
  9
$DIMTOLJ
 70
       1
  9
$DIMTZIN
 70
       0
  9
$DIMALTZ
 70
       0
  9
$DIMALTTZ
 70
       0
  9
$DIMFIT
 70
       3
  9
$DIMUPT
 70
       0
  9
$DIMUNIT
 70
       2
  9
$DIMDEC
 70
       4
  9
$DIMTDEC
 70
       4
  9
$DIMALTU
 70
       2
  9
$DIMALTTD
 70
       2
  9
$DIMTXSTY
  7
STANDARD
  9
$DIMAUNIT
 70
       0
  9
$LUNITS
 70
       2
  9
$LUPREC
 70
       4
  9
$SKETCHINC
 40
0.1
  9
$FILLETRAD
 40
0.0
  9
$AUNITS
 70
       0
  9
$AUPREC
 70
       0
  9
$MENU
  1
acad
  9
$ELEVATION
 40
0.0
  9
$PELEVATION
 40
0.0
  9
$THICKNESS
 40
0.0
  9
$LIMCHECK
 70
       0
  9
$BLIPMODE
 70
       1
  9
$CHAMFERA
 40
0.0
  9
$CHAMFERB
 40
0.0
  9
$CHAMFERC
 40
0.0
  9
$CHAMFERD
 40
0.0
  9
$SKPOLY
 70
       0
  9
$TDCREATE
 40
0.000000000
  9
$TDUPDATE
 40
0.000000000
  9
$TDINDWG
 40
0.0000000000
  9
$TDUSRTIMER
 40
0.0000000000
  9
$USRTIMER
 70
       1
  9
$ANGBASE
 50
0.0
  9
$ANGDIR
 70
       0
  9
$PDMODE
 70
       0
  9
$PDSIZE
 40
1.0
  9
$PLINEWID
 40
0.0
  9
$COORDS
 70
       1
  9
$SPLFRAME
 70
       0
  9
$SPLINETYPE
 70
       6
  9
$SPLINESEGS
 70
       8
  9
$ATTDIA
 70
       0
  9
$ATTREQ
 70
       1
  9
$HANDLING
 70
       1
  9
$HANDSEED
  5
206
  9
$SURFTAB1
 70
       6
  9
$SURFTAB2
 70
       6
  9
$SURFTYPE
 70
       6
  9
$SURFU
 70
       6
  9
$SURFV
 70
       6
  9
$UCSNAME
  2

  9
$UCSORG
 10
0.0
 20
0.0
 30
0.0
  9
$UCSXDIR
 10
1.0
 20
0.0
 30
0.0
  9
$UCSYDIR
 10
0.0
 20
1.0
 30
0.0
  9
$PUCSNAME
  2

  9
$PUCSORG
 10
0.0
 20
0.0
 30
0.0
  9
$PUCSXDIR
 10
1.0
 20
0.0
 30
0.0
  9
$PUCSYDIR
 10
0.0
 20
1.0
 30
0.0
  9
$USERI1
 70
       0
  9
$USERI2
 70
       0
  9
$USERI3
 70
       0
  9
$USERI4
 70
       0
  9
$USERI5
 70
       0
  9
$USERR1
 40
0.0
  9
$USERR2
 40
0.0
  9
$USERR3
 40
0.0
  9
$USERR4
 40
0.0
  9
$USERR5
 40
0.0
  9
$WORLDVIEW
 70
       1
  9
$SHADEDGE
 70
       3
  9
$SHADEDIF
 70
      70
  9
$TILEMODE
 70
       1
  9
$MAXACTVP
 70
      16
  9
$PINSBASE
 10
0.0
 20
0.0
 30
0.0
  9
$PLIMCHECK
 70
       0
  9
$PEXTMIN
 10
1.00000000E+20
 20
1.00000000E+20
 30
1.00000000E+20
  9
$PEXTMAX
 10
-1.00000000E+20
 20
-1.00000000E+20
 30
-1.00000000E+20
  9
$PLIMMIN
 10
0.0
 20
0.0
  9
$PLIMMAX
 10
12.0
 20
9.0
  9
$UNITMODE
 70
       0
  9
$VISRETAIN
 70
       0
  9
$PLINEGEN
 70
       1
  9
$PSLTSCALE
 70
       0
  9
$TREEDEPTH
 70
    3020
  9
$PICKSTYLE
 70
       1
  9
$CMLSTYLE
  2
STANDARD
  9
$CMLJUST
 70
       0
  9
$CMLSCALE
 40
1.0
  9
$PROXYGRAPHICS
 70
       0
  9
$MEASUREMENT
 70
       0
  0
ENDSEC
  0
SECTION
  2
CLASSES
  0
CLASS
  1
LWPOLYLINE
  2
AcDbPolyline
  3
"AutoCAD"
 90
        0
280
       0
281
       1
  0
CLASS
  1
IMAGE
  2
AcDbRasterImage
  3
ISM
 90
      127
280
       0
281
       1
  0
CLASS
  1
OLE2FRAME
  2
AcDbOle2Frame
  3
""
 90
        0
280
       0
281
       1
  0
CLASS
  1
HATCH
  2
AcDbHatch
  3
"ACAD_SEDONA"
 90
        0
280
       0
281
       1
  0
CLASS
  1
DICTIONARYVAR
  2
AcDbDictionaryVar
  3
"AutoCAD"
 90
        0
280
       0
281
       0
  0
CLASS
  1
RASTERVARIABLES
  2
AcDbRasterVariables
  3
ISM
 90
        0
280
       0
281
       0
  0
CLASS
  1
IMAGEDEF
  2
AcDbRasterImageDef
  3
ISM
 90
        0
280
       0
281
       0
  0
CLASS
  1
IMAGEDEF_REACTOR
  2
AcDbRasterImageDefReactor
  3
ISM
 90
        1
280
       0
281
       0
  0
CLASS
  1
IDBUFFER
  2
AcDbIdBuffer
  3
"Acad"
 90
        0
280
       0
281
       0
  0
CLASS
  1
SPATIAL_FILTER
  2
AcDbSpatialFilter
  3
"Acad"
 90
        0
280
       0
281
       0
  0
CLASS
  1
XRECORD
  2
AcDbXrecord
  3
"<Built In>"
 90
        0
280
       0
281
       0
  0
CLASS
  1
SORTENTSTABLE
  2
AcDbSortentsTable
  3
"AutoCAD"
 90
        0
280
       0
281
       0
  0
CLASS
  1
LAYER_INDEX
  2
AcDbLayerIndex
  3
"Acad"
 90
        0
280
       0
281
       0
  0
CLASS
  1
SPATIAL_INDEX
  2
AcDbSpatialIndex
  3
"Acad"
 90
        0
280
       0
281
       0
  0
CLASS
  1
OBJECT_PTR
  2
CAseDLPNTableRecord
  3
"ASE-LPNTableRecord"
 90
        1
280
       0
281
       0
  0
CLASS
  1
LAYOUT
  2
AcDbLayout
  3
"AutoCAD 2000"
 90
        1
280
       0
281
       0
  0
CLASS
  1
PLOTSETTINGS
  2
AcDbPlotSettings
  3
"AutoCAD 2000"
 90
        1
280
       0
281
       0
  0
CLASS
  1
ACDBDICTIONARYWDFLT
  2
AcDbDictionaryWithDefault
  3
"AutoCAD 2000"
 90
        1
280
       0
281
       0
  0
CLASS
  1
ACDBPLACEHOLDER
  2
AcDbPlaceHolder
  3
"AutoCAD 2000"
 90
        1
280
       0
281
       0
  0
CLASS
  1
VBA_PROJECT
  2
AcDbVbaProject
  3
"acadvba"
 90
        1
280
       0
281
       0
  0
CLASS
  1
WIPEOUT
  2
AcDbWipeout
  3
WipeOut|AutoCAD Express Tool|expresstools@autodesk.com
 90
      127
280
       0
281
       1
  0
CLASS
  1
WIPEOUTVARIABLES
  2
AcDbWipeoutVariables
  3
WipeOut|AutoCAD Express Tool|expresstools@autodesk.com
 90
        0
280
       0
281
       0
  0
CLASS
  1
RTEXT
  2
RText
  3
RText|AutoCAD Express Tool|expresstools@autodesk.com
 90
        0
280
       0
281
       1
  0
CLASS
  1
ARCALIGNEDTEXT
  2
AcDbArcAlignedText
  3
ATEXT|AutoCAD Express Tool|expresstools@autodesk.com
 90
        0
280
       0
281
       1
  0
ENDSEC
  0
SECTION
  2
TABLES
  0
TABLE
  2
VPORT
  5
7
100
AcDbSymbolTable
 70
       1
  0
VPORT
  5
15
100
AcDbSymbolTableRecord
100
AcDbViewportTableRecord
  2
*ACTIVE
 70
       0
 10
0.0
 20
0.0
 11
1.0
 21
1.0
 12
0.0
 22
0.0
 13
0.0
 23
0.0
 14
1.0
 24
1.0
 15
0.0
 25
0.0
 16
0.0
 26
0.0
 36
1.0
 17
0.0
 27
0.0
 37
0.0
 40
612.17
 41
1.44584838
 42
50.0
 43
0.0
 44
0.0
 50
0.0
 51
0.0
 71
       0
 72
     100
 73
       1
 74
       1
 75
       0
 76
       0
 77
       0
 78
       0
  0
ENDTAB
  0
TABLE
  2
LTYPE
  5
4
100
AcDbSymbolTable
 70
      30
  0
LTYPE
  5
11
100
AcDbSymbolTableRecord
100
AcDbLinetypeTableRecord
  2
BYBLOCK
 70
      64
  3

 72
      65
 73
       0
 40
0.0
  0
LTYPE
  5
12
100
AcDbSymbolTableRecord
100
AcDbLinetypeTableRecord
  2
BYLAYER
 70
      64
  3

 72
      65
 73
       0
 40
0.0
  0
LTYPE
  5
13
100
AcDbSymbolTableRecord
100
AcDbLinetypeTableRecord
  2
CONTINUOUS
 70
      64
  3
Solid line
 72
      65
 73
       0
 40
0.0
  0
LTYPE
  5
1D
100
AcDbSymbolTableRecord
100
AcDbLinetypeTableRecord
  2
HIDDENX2
 70
      64
  3
CADPAC LINETYPE
 72
      65
 73
       2
 40
33.64
 49
25.23
 74
       0
 49
-8.41
 74
       0
  0
LTYPE
  5
1E
100
AcDbSymbolTableRecord
100
AcDbLinetypeTableRecord
  2
HIDDEN
 70
      64
  3
CADPAC LINETYPE
 72
      65
 73
       2
 40
25.23
 49
16.82
 74
       0
 49
-8.41
 74
       0
  0
LTYPE
  5
1F
100
AcDbSymbolTableRecord
100
AcDbLinetypeTableRecord
  2
HIDDEN2
 70
      64
  3
CADPAC LINETYPE
 72
      65
 73
       2
 40
21.025
 49
12.615
 74
       0
 49
-8.41
 74
       0
  0
LTYPE
  5
20
100
AcDbSymbolTableRecord
100
AcDbLinetypeTableRecord
  2
DASHED
 70
      64
  3
CADPAC LINETYPE
 72
      65
 73
       2
 40
25.23
 49
16.82
 74
       0
 49
-8.41
 74
       0
  0
LTYPE
  5
21
100
AcDbSymbolTableRecord
100
AcDbLinetypeTableRecord
  2
DASHED2
 70
      64
  3
CADPAC LINETYPE
 72
      65
 73
       2
 40
18.9225
 49
12.615
 74
       0
 49
-6.3075
 74
       0
  0
LTYPE
  5
22
100
AcDbSymbolTableRecord
100
AcDbLinetypeTableRecord
  2
DASHEDX2
 70
      64
  3
CADPAC LINETYPE
 72
      65
 73
       2
 40
37.845
 49
25.23
 74
       0
 49
-12.615
 74
       0
  0
LTYPE
  5
23
100
AcDbSymbolTableRecord
100
AcDbLinetypeTableRecord
  2
DOTX2
 70
      64
  3
CADPAC LINETYPE
 72
      65
 73
       2
 40
10.5125
 49
0.0
 74
       0
 49
-10.5125
 74
       0
  0
LTYPE
  5
24
100
AcDbSymbolTableRecord
100
AcDbLinetypeTableRecord
  2
DOT
 70
      64
  3
CADPAC LINETYPE
 72
      65
 73
       2
 40
8.41
 49
0.0
 74
       0
 49
-8.41
 74
       0
  0
LTYPE
  5
25
100
AcDbSymbolTableRecord
100
AcDbLinetypeTableRecord
  2
DOT2
 70
      64
  3
CADPAC LINETYPE
 72
      65
 73
       2
 40
6.3075
 49
0.0
 74
       0
 49
-6.3075
 74
       0
  0
LTYPE
  5
26
100
AcDbSymbolTableRecord
100
AcDbLinetypeTableRecord
  2
CENTERX2
 70
      64
  3
CADPAC LINETYPE
 72
      65
 73
       4
 40
50.46
 49
21.025
 74
       0
 49
-10.5125
 74
       0
 49
8.41
 74
       0
 49
-10.5125
 74
       0
  0
LTYPE
  5
27
100
AcDbSymbolTableRecord
100
AcDbLinetypeTableRecord
  2
CENTER
 70
      64
  3
CADPAC LINETYPE
 72
      65
 73
       4
 40
38.686
 49
16.82
 74
       0
 49
-8.41
 74
       0
 49
5.046
 74
       0
 49
-8.41
 74
       0
  0
LTYPE
  5
28
100
AcDbSymbolTableRecord
100
AcDbLinetypeTableRecord
  2
CENTER2
 70
      64
  3
CADPAC LINETYPE
 72
      65
 73
       4
 40
26.912
 49
12.615
 74
       0
 49
-6.3075
 74
       0
 49
1.682
 74
       0
 49
-6.3075
 74
       0
  0
LTYPE
  5
29
100
AcDbSymbolTableRecord
100
AcDbLinetypeTableRecord
  2
DASHDOTX2
 70
      64
  3
CADPAC LINETYPE
 72
      65
 73
       4
 40
42.05
 49
21.025
 74
       0
 49
-10.5125
 74
       0
 49
0.0
 74
       0
 49
-10.5125
 74
       0
  0
LTYPE
  5
2A
100
AcDbSymbolTableRecord
100
AcDbLinetypeTableRecord
  2
DASHDOT
 70
      64
  3
CADPAC LINETYPE
 72
      65
 73
       4
 40
33.64
 49
16.82
 74
       0
 49
-8.41
 74
       0
 49
0.0
 74
       0
 49
-8.41
 74
       0
  0
LTYPE
  5
2B
100
AcDbSymbolTableRecord
100
AcDbLinetypeTableRecord
  2
DASHDOT2
 70
      64
  3
CADPAC LINETYPE
 72
      65
 73
       4
 40
25.23
 49
12.615
 74
       0
 49
-6.3075
 74
       0
 49
0.0
 74
       0
 49
-6.3075
 74
       0
  0
LTYPE
  5
2C
100
AcDbSymbolTableRecord
100
AcDbLinetypeTableRecord
  2
DIVIDEX2
 70
      64
  3
CADPAC LINETYPE
 72
      65
 73
       6
 40
52.5625
 49
21.025
 74
       0
 49
-10.5125
 74
       0
 49
0.0
 74
       0
 49
-10.5125
 74
       0
 49
0.0
 74
       0
 49
-10.5125
 74
       0
  0
LTYPE
  5
2D
100
AcDbSymbolTableRecord
100
AcDbLinetypeTableRecord
  2
DIVIDE
 70
      64
  3
CADPAC LINETYPE
 72
      65
 73
       6
 40
42.05
 49
16.82
 74
       0
 49
-8.41
 74
       0
 49
0.0
 74
       0
 49
-8.41
 74
       0
 49
0.0
 74
       0
 49
-8.41
 74
       0
  0
LTYPE
  5
2E
100
AcDbSymbolTableRecord
100
AcDbLinetypeTableRecord
  2
DIVIDE2
 70
      64
  3
CADPAC LINETYPE
 72
      65
 73
       6
 40
31.5375
 49
12.615
 74
       0
 49
-6.3075
 74
       0
 49
0.0
 74
       0
 49
-6.3075
 74
       0
 49
0.0
 74
       0
 49
-6.3075
 74
       0
  0
LTYPE
  5
2F
100
AcDbSymbolTableRecord
100
AcDbLinetypeTableRecord
  2
BORDERX2
 70
      64
  3
CADPAC LINETYPE
 72
      65
 73
       6
 40
73.5875
 49
21.025
 74
       0
 49
-10.5125
 74
       0
 49
21.025
 74
       0
 49
-10.5125
 74
       0
 49
0.0
 74
       0
 49
-10.5125
 74
       0
  0
LTYPE
  5
30
100
AcDbSymbolTableRecord
100
AcDbLinetypeTableRecord
  2
BORDER
 70
      64
  3
CADPAC LINETYPE
 72
      65
 73
       6
 40
58.87
 49
16.82
 74
       0
 49
-8.41
 74
       0
 49
16.82
 74
       0
 49
-8.41
 74
       0
 49
0.0
 74
       0
 49
-8.41
 74
       0
  0
LTYPE
  5
31
100
AcDbSymbolTableRecord
100
AcDbLinetypeTableRecord
  2
BORDER2
 70
      64
  3
CADPAC LINETYPE
 72
      65
 73
       6
 40
44.1525
 49
12.615
 74
       0
 49
-6.3075
 74
       0
 49
12.615
 74
       0
 49
-6.3075
 74
       0
 49
0.0
 74
       0
 49
-6.3075
 74
       0
  0
LTYPE
  5
32
100
AcDbSymbolTableRecord
100
AcDbLinetypeTableRecord
  2
PHANTOMX2
 70
      64
  3
CADPAC LINETYPE
 72
      65
 73
       6
 40
63.075
 49
21.025
 74
       0
 49
-8.41
 74
       0
 49
8.41
 74
       0
 49
-8.41
 74
       0
 49
8.41
 74
       0
 49
-8.41
 74
       0
  0
LTYPE
  5
33
100
AcDbSymbolTableRecord
100
AcDbLinetypeTableRecord
  2
PHANTOM
 70
      64
  3
CADPAC LINETYPE
 72
      65
 73
       6
 40
52.142
 49
16.82
 74
       0
 49
-8.41
 74
       0
 49
5.046
 74
       0
 49
-8.41
 74
       0
 49
5.046
 74
       0
 49
-8.41
 74
       0
  0
LTYPE
  5
34
100
AcDbSymbolTableRecord
100
AcDbLinetypeTableRecord
  2
PHANTOM2
 70
      64
  3
CADPAC LINETYPE
 72
      65
 73
       6
 40
44.573
 49
12.615
 74
       0
 49
-8.41
 74
       0
 49
3.364
 74
       0
 49
-8.41
 74
       0
 49
3.364
 74
       0
 49
-8.41
 74
       0
  0
LTYPE
  5
35
100
AcDbSymbolTableRecord
100
AcDbLinetypeTableRecord
  2
ACAD_ISO06W100
 70
      64
  3
CADPAC LINETYPE
 72
      65
 73
       8
 40
56.7675
 49
21.025
 74
       0
 49
-10.5125
 74
       0
 49
0.0
 74
       0
 49
-8.41
 74
       0
 49
0.0
 74
       0
 49
-8.41
 74
       0
 49
0.0
 74
       0
 49
-8.41
 74
       0
  0
LTYPE
  5
36
100
AcDbSymbolTableRecord
100
AcDbLinetypeTableRecord
  2
ACAD_ISO13W100
 70
      64
  3
CADPAC LINETYPE
 72
      65
 73
       8
 40
67.28
 49
16.82
 74
       0
 49
-8.41
 74
       0
 49
16.82
 74
       0
 49
-8.41
 74
       0
 49
0.0
 74
       0
 49
-8.41
 74
       0
 49
0.0
 74
       0
 49
-8.41
 74
       0
  0
LTYPE
  5
37
100
AcDbSymbolTableRecord
100
AcDbLinetypeTableRecord
  2
ACAD_ISO14W100
 70
      64
  3
CADPAC LINETYPE
 72
      65
 73
       8
 40
50.46
 49
16.82
 74
       0
 49
-8.41
 74
       0
 49
0.0
 74
       0
 49
-8.41
 74
       0
 49
0.0
 74
       0
 49
-8.41
 74
       0
 49
0.0
 74
       0
 49
-8.41
 74
       0
  0
ENDTAB
  0
TABLE
  2
LAYER
  5
2
100
AcDbSymbolTable
 70
       4
  0
LAYER
  5
14
100
AcDbSymbolTableRecord
100
AcDbLayerTableRecord
  2
0
 70
       0
 62
       7
  6
CONTINUOUS
  0
LAYER
  5
38
100
AcDbSymbolTableRecord
100
AcDbLayerTableRecord
  2
D-BMK
 70
       0
 62
       7
  6
CONTINUOUS
  0
LAYER
  5
39
100
AcDbSymbolTableRecord
100
AcDbLayerTableRecord
  2
D-STR
 70
       0
 62
       7
  6
CONTINUOUS
  0
LAYER
  5
3A
100
AcDbSymbolTableRecord
100
AcDbLayerTableRecord
  2
D-STR-TXT
 70
       0
 62
       7
  6
CONTINUOUS
  0
ENDTAB
  0
TABLE
  2
STYLE
  5
3
100
AcDbSymbolTable
 70
       1
  0
STYLE
  5
17
100
AcDbSymbolTableRecord
100
AcDbTextStyleTableRecord
  2
STANDARD
 70
       0
 40
0.0
 41
1.2
 50
0.0
 71
       0
 42
3.5
  3
MS Gothic.ttf
  4

1001
ACAD
1000
MS Gothic
1071
    32786
  0
ENDTAB
  0
TABLE
  2
VIEW
  5
5
100
AcDbSymbolTable
 70
       1
  0
VIEW
  5
3B
100
AcDbSymbolTableRecord
100
AcDbViewTableRecord
  2
QQQQ
 70
       0
 40
612.17
 10
0.0
 20
0.0
 41
885.105
 11
0.0
 21
0.0
 31
1.0
 12
100.0
 22
100.0
 32
0.0
 42
50.0
 43
0.0
 44
0.0
 50
0.0
 71
       0
  0
ENDTAB
  0
TABLE
  2
UCS
  5
6
100
AcDbSymbolTable
 70
       0
  0
ENDTAB
  0
TABLE
  2
APPID
  5
8
100
AcDbSymbolTable
 70
       1
  0
APPID
  5
16
100
AcDbSymbolTableRecord
100
AcDbRegAppTableRecord
  2
ACAD
 70
       0
  0
ENDTAB
  0
TABLE
  2
DIMSTYLE
  5
9
100
AcDbSymbolTable
 70
       1
  0
DIMSTYLE
105
18
100
AcDbSymbolTableRecord
100
AcDbDimStyleTableRecord
  2
STANDARD
 70
       0
  3

  4

  5

  6

  7

 40
1.0
 41
0.18
 42
0.0625
 43
0.38
 44
0.18
 45
0.0
 46
0.0
 47
0.0
 48
0.0
 71
       0
 72
       0
 73
       1
 74
       1
 75
       0
 76
       0
 77
       0
 78
       0
140
0.18
141
0.09
142
0.0
143
25.4
144
1.0
145
0.0
146
1.0
147
0.09
170
       0
171
       2
172
       0
173
       0
174
       0
175
       0
176
       0
177
       0
178
       0
270
       2
271
       4
272
       4
273
       2
274
       2
275
       0
280
       0
281
       0
282
       0
283
       1
284
       0
285
       0
286
       0
287
       0
288
       0
340
17
  0
ENDTAB
  0
TABLE
  2
BLOCK_RECORD
  5
1
100
AcDbSymbolTable
 70
      38
  0
BLOCK_RECORD
  5
A
100
AcDbSymbolTableRecord
100
AcDbBlockTableRecord
  2
*MODEL_SPACE
  0
BLOCK_RECORD
  5
B
100
AcDbSymbolTableRecord
100
AcDbBlockTableRecord
  2
*PAPER_SPACE
  0
BLOCK_RECORD
  5
3C
100
AcDbSymbolTableRecord
100
AcDbBlockTableRecord
  2
GROUP_1
  0
BLOCK_RECORD
  5
3D
100
AcDbSymbolTableRecord
100
AcDbBlockTableRecord
  2
GROUP_2
  0
BLOCK_RECORD
  5
3E
100
AcDbSymbolTableRecord
100
AcDbBlockTableRecord
  2
GROUP_3
  0
BLOCK_RECORD
  5
3F
100
AcDbSymbolTableRecord
100
AcDbBlockTableRecord
  2
GROUP_4
  0
BLOCK_RECORD
  5
40
100
AcDbSymbolTableRecord
100
AcDbBlockTableRecord
  2
GROUP_5
  0
BLOCK_RECORD
  5
41
100
AcDbSymbolTableRecord
100
AcDbBlockTableRecord
  2
GROUP_6
  0
BLOCK_RECORD
  5
42
100
AcDbSymbolTableRecord
100
AcDbBlockTableRecord
  2
GROUP_7
  0
BLOCK_RECORD
  5
43
100
AcDbSymbolTableRecord
100
AcDbBlockTableRecord
  2
GROUP_8
  0
BLOCK_RECORD
  5
44
100
AcDbSymbolTableRecord
100
AcDbBlockTableRecord
  2
GROUP_9
  0
BLOCK_RECORD
  5
45
100
AcDbSymbolTableRecord
100
AcDbBlockTableRecord
  2
GROUP_10
  0
BLOCK_RECORD
  5
46
100
AcDbSymbolTableRecord
100
AcDbBlockTableRecord
  2
GROUP_11
  0
BLOCK_RECORD
  5
47
100
AcDbSymbolTableRecord
100
AcDbBlockTableRecord
  2
GROUP_12
  0
BLOCK_RECORD
  5
48
100
AcDbSymbolTableRecord
100
AcDbBlockTableRecord
  2
GROUP_13
  0
BLOCK_RECORD
  5
49
100
AcDbSymbolTableRecord
100
AcDbBlockTableRecord
  2
GROUP_14
  0
BLOCK_RECORD
  5
4A
100
AcDbSymbolTableRecord
100
AcDbBlockTableRecord
  2
GROUP_15
  0
BLOCK_RECORD
  5
4B
100
AcDbSymbolTableRecord
100
AcDbBlockTableRecord
  2
GROUP_16
  0
BLOCK_RECORD
  5
4C
100
AcDbSymbolTableRecord
100
AcDbBlockTableRecord
  2
GROUP_17
  0
BLOCK_RECORD
  5
4D
100
AcDbSymbolTableRecord
100
AcDbBlockTableRecord
  2
GROUP_18
  0
BLOCK_RECORD
  5
4E
100
AcDbSymbolTableRecord
100
AcDbBlockTableRecord
  2
GROUP_19
  0
BLOCK_RECORD
  5
4F
100
AcDbSymbolTableRecord
100
AcDbBlockTableRecord
  2
GROUP_20
  0
BLOCK_RECORD
  5
50
100
AcDbSymbolTableRecord
100
AcDbBlockTableRecord
  2
GROUP_21
  0
BLOCK_RECORD
  5
51
100
AcDbSymbolTableRecord
100
AcDbBlockTableRecord
  2
GROUP_22
  0
BLOCK_RECORD
  5
52
100
AcDbSymbolTableRecord
100
AcDbBlockTableRecord
  2
GROUP_23
  0
BLOCK_RECORD
  5
53
100
AcDbSymbolTableRecord
100
AcDbBlockTableRecord
  2
GROUP_24
  0
BLOCK_RECORD
  5
54
100
AcDbSymbolTableRecord
100
AcDbBlockTableRecord
  2
GROUP_25
  0
BLOCK_RECORD
  5
55
100
AcDbSymbolTableRecord
100
AcDbBlockTableRecord
  2
GROUP_26
  0
BLOCK_RECORD
  5
56
100
AcDbSymbolTableRecord
100
AcDbBlockTableRecord
  2
GROUP_27
  0
BLOCK_RECORD
  5
57
100
AcDbSymbolTableRecord
100
AcDbBlockTableRecord
  2
GROUP_28
  0
BLOCK_RECORD
  5
58
100
AcDbSymbolTableRecord
100
AcDbBlockTableRecord
  2
GROUP_29
  0
BLOCK_RECORD
  5
59
100
AcDbSymbolTableRecord
100
AcDbBlockTableRecord
  2
GROUP_30
  0
BLOCK_RECORD
  5
5A
100
AcDbSymbolTableRecord
100
AcDbBlockTableRecord
  2
GROUP_31
  0
BLOCK_RECORD
  5
5B
100
AcDbSymbolTableRecord
100
AcDbBlockTableRecord
  2
GROUP_32
  0
BLOCK_RECORD
  5
5C
100
AcDbSymbolTableRecord
100
AcDbBlockTableRecord
  2
GROUP_33
  0
BLOCK_RECORD
  5
5D
100
AcDbSymbolTableRecord
100
AcDbBlockTableRecord
  2
GROUP_34
  0
BLOCK_RECORD
  5
5E
100
AcDbSymbolTableRecord
100
AcDbBlockTableRecord
  2
GROUP_35
  0
BLOCK_RECORD
  5
5F
100
AcDbSymbolTableRecord
100
AcDbBlockTableRecord
  2
GROUP_36
  0
BLOCK_RECORD
  5
60
100
AcDbSymbolTableRecord
100
AcDbBlockTableRecord
  2
GROUP_37
  0
BLOCK_RECORD
  5
61
100
AcDbSymbolTableRecord
100
AcDbBlockTableRecord
  2
GROUP_38
  0
ENDTAB
  0
ENDSEC
  0
SECTION
  2
BLOCKS
  0
BLOCK
  5
D
100
AcDbEntity
  8
0
100
AcDbBlockBegin
  2
*MODEL_SPACE
 70
       0
 10
0.0
 20
0.0
 30
0.0
  3
*MODEL_SPACE
  1

  0
ENDBLK
  5
E
100
AcDbEntity
  8
0
100
AcDbBlockEnd
  0
BLOCK
  5
F
100
AcDbEntity
 67
       1
  8
0
100
AcDbBlockBegin
  2
*PAPER_SPACE
 70
       0
 10
0.0
 20
0.0
 30
0.0
  3
*PAPER_SPACE
  1

  0
ENDBLK
  5
10
100
AcDbEntity
 67
       1
  8
0
100
AcDbBlockEnd
  0
BLOCK
  5
62
100
AcDbEntity
  8
0
100
AcDbBlockBegin
  2
GROUP_1
 70
       0
 10
0.0
 20
0.0
 30
0.0
  3
GROUP_1
  1

  0
LINE
  5
63
100
AcDbEntity
  8
D-BMK
  6
CENTER
 62
       2
100
AcDbLine
 10
-399.7
 20
-213.30435823
 30
0.0
 11
-399.7
 21
-224.42118364
 31
0.0
  0
LINE
  5
64
100
AcDbEntity
  8
D-STR
  6
CONTINUOUS
 62
       7
100
AcDbLine
 10
-398.9
 20
-213.30435823
 30
0.0
 11
-398.9
 21
-222.30435823
 31
0.0
  0
LINE
  5
65
100
AcDbEntity
  8
D-STR
  6
CONTINUOUS
 62
       7
100
AcDbLine
 10
-400.5
 20
-213.30435823
 30
0.0
 11
-400.5
 21
-222.30435823
 31
0.0
  0
LINE
  5
66
100
AcDbEntity
  8
D-STR
  6
CONTINUOUS
 62
       7
100
AcDbLine
 10
-400.3105
 20
-222.49385823
 30
0.0
 11
-399.0895
 21
-222.49385823
 31
0.0
  0
LINE
  5
67
100
AcDbEntity
  8
D-STR
  6
CONTINUOUS
 62
       7
100
AcDbLine
 10
-398.9
 20
-222.30435823
 30
0.0
 11
-399.0895
 21
-222.49385823
 31
0.0
  0
LINE
  5
68
100
AcDbEntity
  8
D-STR
  6
CONTINUOUS
 62
       7
100
AcDbLine
 10
-400.3105
 20
-222.49385823
 30
0.0
 11
-400.5
 21
-222.30435823
 31
0.0
  0
LINE
  5
69
100
AcDbEntity
  8
D-STR
  6
CONTINUOUS
 62
       1
100
AcDbLine
 10
-400.3105
 20
-213.30435823
 30
0.0
 11
-400.3105
 21
-224.05435823
 31
0.0
  0
LINE
  5
6A
100
AcDbEntity
  8
D-STR
  6
CONTINUOUS
 62
       1
100
AcDbLine
 10
-399.0895
 20
-213.30435823
 30
0.0
 11
-399.0895
 21
-224.05435823
 31
0.0
  0
LINE
  5
6B
100
AcDbEntity
  8
D-STR
  6
CONTINUOUS
 62
       1
100
AcDbLine
 10
-400.5
 20
-222.30435823
 30
0.0
 11
-398.9
 21
-222.30435823
 31
0.0
  0
LINE
  5
6C
100
AcDbEntity
  8
D-STR
  6
CONTINUOUS
 62
       1
100
AcDbLine
 10
-400.3105
 20
-224.05435823
 30
0.0
 11
-399.0895
 21
-224.05435823
 31
0.0
  0
LINE
  5
6D
100
AcDbEntity
  8
D-STR
  6
CONTINUOUS
 62
       1
100
AcDbLine
 10
-399.0895
 20
-224.05435823
 30
0.0
 11
-399.7
 21
-224.42118364
 31
0.0
  0
LINE
  5
6E
100
AcDbEntity
  8
D-STR
  6
CONTINUOUS
 62
       1
100
AcDbLine
 10
-400.3105
 20
-224.05435823
 30
0.0
 11
-399.7
 21
-224.42118364
 31
0.0
  0
ENDBLK
  5
6F
100
AcDbEntity
  8
0
100
AcDbBlockEnd
  0
BLOCK
  5
70
100
AcDbEntity
  8
0
100
AcDbBlockBegin
  2
GROUP_2
 70
       0
 10
0.0
 20
0.0
 30
0.0
  3
GROUP_2
  1

  0
LINE
  5
71
100
AcDbEntity
  8
D-BMK
  6
CENTER
 62
       2
100
AcDbLine
 10
-393.23367699
 20
-213.30435823
 30
0.0
 11
-393.23367699
 21
-225.77513252
 31
0.0
  0
LINE
  5
72
100
AcDbEntity
  8
D-STR
  6
CONTINUOUS
 62
       7
100
AcDbLine
 10
-392.23367699
 20
-213.30435823
 30
0.0
 11
-392.23367699
 21
-223.30435823
 31
0.0
  0
LINE
  5
73
100
AcDbEntity
  8
D-STR
  6
CONTINUOUS
 62
       7
100
AcDbLine
 10
-394.23367699
 20
-213.30435823
 30
0.0
 11
-394.23367699
 21
-223.30435823
 31
0.0
  0
LINE
  5
74
100
AcDbEntity
  8
D-STR
  6
CONTINUOUS
 62
       7
100
AcDbLine
 10
-394.01717699
 20
-223.52085823
 30
0.0
 11
-392.45017699
 21
-223.52085823
 31
0.0
  0
LINE
  5
75
100
AcDbEntity
  8
D-STR
  6
CONTINUOUS
 62
       7
100
AcDbLine
 10
-392.23367699
 20
-223.30435823
 30
0.0
 11
-392.45017699
 21
-223.52085823
 31
0.0
  0
LINE
  5
76
100
AcDbEntity
  8
D-STR
  6
CONTINUOUS
 62
       7
100
AcDbLine
 10
-394.01717699
 20
-223.52085823
 30
0.0
 11
-394.23367699
 21
-223.30435823
 31
0.0
  0
LINE
  5
77
100
AcDbEntity
  8
D-STR
  6
CONTINUOUS
 62
       1
100
AcDbLine
 10
-394.01717699
 20
-213.30435823
 30
0.0
 11
-394.01717699
 21
-225.30435823
 31
0.0
  0
LINE
  5
78
100
AcDbEntity
  8
D-STR
  6
CONTINUOUS
 62
       1
100
AcDbLine
 10
-392.45017699
 20
-213.30435823
 30
0.0
 11
-392.45017699
 21
-225.30435823
 31
0.0
  0
LINE
  5
79
100
AcDbEntity
  8
D-STR
  6
CONTINUOUS
 62
       1
100
AcDbLine
 10
-394.23367699
 20
-223.30435823
 30
0.0
 11
-392.23367699
 21
-223.30435823
 31
0.0
  0
LINE
  5
7A
100
AcDbEntity
  8
D-STR
  6
CONTINUOUS
 62
       1
100
AcDbLine
 10
-394.01717699
 20
-225.30435823
 30
0.0
 11
-392.45017699
 21
-225.30435823
 31
0.0
  0
LINE
  5
7B
100
AcDbEntity
  8
D-STR
  6
CONTINUOUS
 62
       1
100
AcDbLine
 10
-392.45017699
 20
-225.30435823
 30
0.0
 11
-393.23367699
 21
-225.77513252
 31
0.0
  0
LINE
  5
7C
100
AcDbEntity
  8
D-STR
  6
CONTINUOUS
 62
       1
100
AcDbLine
 10
-394.01717699
 20
-225.30435823
 30
0.0
 11
-393.23367699
 21
-225.77513252
 31
0.0
  0
ENDBLK
  5
7D
100
AcDbEntity
  8
0
100
AcDbBlockEnd
  0
BLOCK
  5
7E
100
AcDbEntity
  8
0
100
AcDbBlockBegin
  2
GROUP_3
 70
       0
 10
0.0
 20
0.0
 30
0.0
  3
GROUP_3
  1

  0
LINE
  5
7F
100
AcDbEntity
  8
D-BMK
  6
CENTER
 62
       2
100
AcDbLine
 10
-385.15077322
 20
-213.30435823
 30
0.0
 11
-385.15077322
 21
-227.15912444
 31
0.0
  0
LINE
  5
80
100
AcDbEntity
  8
D-STR
  6
CONTINUOUS
 62
       7
100
AcDbLine
 10
-383.90077322
 20
-213.30435823
 30
0.0
 11
-383.90077322
 21
-224.30435823
 31
0.0
  0
LINE
  5
81
100
AcDbEntity
  8
D-STR
  6
CONTINUOUS
 62
       7
100
AcDbLine
 10
-386.40077322
 20
-213.30435823
 30
0.0
 11
-386.40077322
 21
-224.30435823
 31
0.0
  0
LINE
  5
82
100
AcDbEntity
  8
D-STR
  6
CONTINUOUS
 62
       7
100
AcDbLine
 10
-386.15727322
 20
-224.54785823
 30
0.0
 11
-384.14427322
 21
-224.54785823
 31
0.0
  0
LINE
  5
83
100
AcDbEntity
  8
D-STR
  6
CONTINUOUS
 62
       7
100
AcDbLine
 10
-383.90077322
 20
-224.30435823
 30
0.0
 11
-384.14427322
 21
-224.54785823
 31
0.0
  0
LINE
  5
84
100
AcDbEntity
  8
D-STR
  6
CONTINUOUS
 62
       7
100
AcDbLine
 10
-386.15727322
 20
-224.54785823
 30
0.0
 11
-386.40077322
 21
-224.30435823
 31
0.0
  0
LINE
  5
85
100
AcDbEntity
  8
D-STR
  6
CONTINUOUS
 62
       1
100
AcDbLine
 10
-386.15727322
 20
-213.30435823
 30
0.0
 11
-386.15727322
 21
-226.55435823
 31
0.0
  0
LINE
  5
86
100
AcDbEntity
  8
D-STR
  6
CONTINUOUS
 62
       1
100
AcDbLine
 10
-384.14427322
 20
-213.30435823
 30
0.0
 11
-384.14427322
 21
-226.55435823
 31
0.0
  0
LINE
  5
87
100
AcDbEntity
  8
D-STR
  6
CONTINUOUS
 62
       1
100
AcDbLine
 10
-386.40077322
 20
-224.30435823
 30
0.0
 11
-383.90077322
 21
-224.30435823
 31
0.0
  0
LINE
  5
88
100
AcDbEntity
  8
D-STR
  6
CONTINUOUS
 62
       1
100
AcDbLine
 10
-386.15727322
 20
-226.55435823
 30
0.0
 11
-384.14427322
 21
-226.55435823
 31
0.0
  0
LINE
  5
89
100
AcDbEntity
  8
D-STR
  6
CONTINUOUS
 62
       1
100
AcDbLine
 10
-384.14427322
 20
-226.55435823
 30
0.0
 11
-385.15077322
 21
-227.15912444
 31
0.0
  0
LINE
  5
8A
100
AcDbEntity
  8
D-STR
  6
CONTINUOUS
 62
       1
100
AcDbLine
 10
-386.15727322
 20
-226.55435823
 30
0.0
 11
-385.15077322
 21
-227.15912444
 31
0.0
  0
ENDBLK
  5
8B
100
AcDbEntity
  8
0
100
AcDbBlockEnd
  0
BLOCK
  5
8C
100
AcDbEntity
  8
0
100
AcDbBlockBegin
  2
GROUP_4
 70
       0
 10
0.0
 20
0.0
 30
0.0
  3
GROUP_4
  1

  0
LINE
  5
8D
100
AcDbEntity
  8
D-BMK
  6
CENTER
 62
       2
100
AcDbLine
 10
-375.91316891
 20
-213.30435823
 30
0.0
 11
-375.91316891
 21
-228.54311636
 31
0.0
  0
LINE
  5
8E
100
AcDbEntity
  8
D-STR
  6
CONTINUOUS
 62
       7
100
AcDbLine
 10
-374.41316891
 20
-213.30435823
 30
0.0
 11
-374.41316891
 21
-225.30435823
 31
0.0
  0
LINE
  5
8F
100
AcDbEntity
  8
D-STR
  6
CONTINUOUS
 62
       7
100
AcDbLine
 10
-377.41316891
 20
-213.30435823
 30
0.0
 11
-377.41316891
 21
-225.30435823
 31
0.0
  0
LINE
  5
90
100
AcDbEntity
  8
D-STR
  6
CONTINUOUS
 62
       7
100
AcDbLine
 10
-377.14266891
 20
-225.57485823
 30
0.0
 11
-374.68366891
 21
-225.57485823
 31
0.0
  0
LINE
  5
91
100
AcDbEntity
  8
D-STR
  6
CONTINUOUS
 62
       7
100
AcDbLine
 10
-374.41316891
 20
-225.30435823
 30
0.0
 11
-374.68366891
 21
-225.57485823
 31
0.0
  0
LINE
  5
92
100
AcDbEntity
  8
D-STR
  6
CONTINUOUS
 62
       7
100
AcDbLine
 10
-377.14266891
 20
-225.57485823
 30
0.0
 11
-377.41316891
 21
-225.30435823
 31
0.0
  0
LINE
  5
93
100
AcDbEntity
  8
D-STR
  6
CONTINUOUS
 62
       1
100
AcDbLine
 10
-377.14266891
 20
-213.30435823
 30
0.0
 11
-377.14266891
 21
-227.80435823
 31
0.0
  0
LINE
  5
94
100
AcDbEntity
  8
D-STR
  6
CONTINUOUS
 62
       1
100
AcDbLine
 10
-374.68366891
 20
-213.30435823
 30
0.0
 11
-374.68366891
 21
-227.80435823
 31
0.0
  0
LINE
  5
95
100
AcDbEntity
  8
D-STR
  6
CONTINUOUS
 62
       1
100
AcDbLine
 10
-377.41316891
 20
-225.30435823
 30
0.0
 11
-374.41316891
 21
-225.30435823
 31
0.0
  0
LINE
  5
96
100
AcDbEntity
  8
D-STR
  6
CONTINUOUS
 62
       1
100
AcDbLine
 10
-377.14266891
 20
-227.80435823
 30
0.0
 11
-374.68366891
 21
-227.80435823
 31
0.0
  0
LINE
  5
97
100
AcDbEntity
  8
D-STR
  6
CONTINUOUS
 62
       1
100
AcDbLine
 10
-374.68366891
 20
-227.80435823
 30
0.0
 11
-375.91316891
 21
-228.54311636
 31
0.0
  0
LINE
  5
98
100
AcDbEntity
  8
D-STR
  6
CONTINUOUS
 62
       1
100
AcDbLine
 10
-377.14266891
 20
-227.80435823
 30
0.0
 11
-375.91316891
 21
-228.54311636
 31
0.0
  0
ENDBLK
  5
99
100
AcDbEntity
  8
0
100
AcDbBlockEnd
  0
BLOCK
  5
9A
100
AcDbEntity
  8
0
100
AcDbBlockBegin
  2
GROUP_5
 70
       0
 10
0.0
 20
0.0
 30
0.0
  3
GROUP_5
  1

  0
LINE
  5
9B
100
AcDbEntity
  8
D-BMK
  6
CENTER
 62
       2
100
AcDbLine
 10
-364.65483866
 20
-213.30435823
 30
0.0
 11
-364.65483866
 21
-231.77835329
 31
0.0
  0
LINE
  5
9C
100
AcDbEntity
  8
D-STR
  6
CONTINUOUS
 62
       7
100
AcDbLine
 10
-362.65483866
 20
-213.30435823
 30
0.0
 11
-362.65483866
 21
-227.30435823
 31
0.0
  0
LINE
  5
9D
100
AcDbEntity
  8
D-STR
  6
CONTINUOUS
 62
       7
100
AcDbLine
 10
-366.65483866
 20
-213.30435823
 30
0.0
 11
-366.65483866
 21
-227.30435823
 31
0.0
  0
LINE
  5
9E
100
AcDbEntity
  8
D-STR
  6
CONTINUOUS
 62
       7
100
AcDbLine
 10
-366.27583866
 20
-227.68335823
 30
0.0
 11
-363.03383866
 21
-227.68335823
 31
0.0
  0
LINE
  5
9F
100
AcDbEntity
  8
D-STR
  6
CONTINUOUS
 62
       7
100
AcDbLine
 10
-362.65483866
 20
-227.30435823
 30
0.0
 11
-363.03383866
 21
-227.68335823
 31
0.0
  0
LINE
  5
A0
100
AcDbEntity
  8
D-STR
  6
CONTINUOUS
 62
       7
100
AcDbLine
 10
-366.27583866
 20
-227.68335823
 30
0.0
 11
-366.65483866
 21
-227.30435823
 31
0.0
  0
LINE
  5
A1
100
AcDbEntity
  8
D-STR
  6
CONTINUOUS
 62
       1
100
AcDbLine
 10
-366.27583866
 20
-213.30435823
 30
0.0
 11
-366.27583866
 21
-230.80435823
 31
0.0
  0
LINE
  5
A2
100
AcDbEntity
  8
D-STR
  6
CONTINUOUS
 62
       1
100
AcDbLine
 10
-363.03383866
 20
-213.30435823
 30
0.0
 11
-363.03383866
 21
-230.80435823
 31
0.0
  0
LINE
  5
A3
100
AcDbEntity
  8
D-STR
  6
CONTINUOUS
 62
       1
100
AcDbLine
 10
-366.65483866
 20
-227.30435823
 30
0.0
 11
-362.65483866
 21
-227.30435823
 31
0.0
  0
LINE
  5
A4
100
AcDbEntity
  8
D-STR
  6
CONTINUOUS
 62
       1
100
AcDbLine
 10
-366.27583866
 20
-230.80435823
 30
0.0
 11
-363.03383866
 21
-230.80435823
 31
0.0
  0
LINE
  5
A5
100
AcDbEntity
  8
D-STR
  6
CONTINUOUS
 62
       1
100
AcDbLine
 10
-366.27583866
 20
-230.80435823
 30
0.0
 11
-364.65483866
 21
-231.77835329
 31
0.0
  0
LINE
  5
A6
100
AcDbEntity
  8
D-STR
  6
CONTINUOUS
 62
       1
100
AcDbLine
 10
-363.03383866
 20
-230.80435823
 30
0.0
 11
-364.65483866
 21
-231.77835329
 31
0.0
  0
ENDBLK
  5
A7
100
AcDbEntity
  8
0
100
AcDbBlockEnd
  0
BLOCK
  5
A8
100
AcDbEntity
  8
0
100
AcDbBlockBegin
  2
GROUP_6
 70
       0
 10
0.0
 20
0.0
 30
0.0
  3
GROUP_6
  1

  0
LINE
  5
A9
100
AcDbEntity
  8
D-BMK
  6
CENTER
 62
       2
100
AcDbLine
 10
-351.37578247
 20
-213.30435823
 30
0.0
 11
-351.37578247
 21
-234.54633713
 31
0.0
  0
LINE
  5
AA
100
AcDbEntity
  8
D-STR
  6
CONTINUOUS
 62
       7
100
AcDbLine
 10
-348.87578247
 20
-213.30435823
 30
0.0
 11
-348.87578247
 21
-229.30435823
 31
0.0
  0
LINE
  5
AB
100
AcDbEntity
  8
D-STR
  6
CONTINUOUS
 62
       7
100
AcDbLine
 10
-353.87578247
 20
-213.30435823
 30
0.0
 11
-353.87578247
 21
-229.30435823
 31
0.0
  0
LINE
  5
AC
100
AcDbEntity
  8
D-STR
  6
CONTINUOUS
 62
       7
100
AcDbLine
 10
-353.44278247
 20
-229.73735823
 30
0.0
 11
-349.30878247
 21
-229.73735823
 31
0.0
  0
LINE
  5
AD
100
AcDbEntity
  8
D-STR
  6
CONTINUOUS
 62
       7
100
AcDbLine
 10
-353.44278247
 20
-229.73735823
 30
0.0
 11
-353.87578247
 21
-229.30435823
 31
0.0
  0
LINE
  5
AE
100
AcDbEntity
  8
D-STR
  6
CONTINUOUS
 62
       7
100
AcDbLine
 10
-348.87578247
 20
-229.30435823
 30
0.0
 11
-349.30878247
 21
-229.73735823
 31
0.0
  0
LINE
  5
AF
100
AcDbEntity
  8
D-STR
  6
CONTINUOUS
 62
       1
100
AcDbLine
 10
-353.44278247
 20
-213.30435823
 30
0.0
 11
-353.44278247
 21
-233.30435823
 31
0.0
  0
LINE
  5
B0
100
AcDbEntity
  8
D-STR
  6
CONTINUOUS
 62
       1
100
AcDbLine
 10
-349.30878247
 20
-213.30435823
 30
0.0
 11
-349.30878247
 21
-233.30435823
 31
0.0
  0
LINE
  5
B1
100
AcDbEntity
  8
D-STR
  6
CONTINUOUS
 62
       1
100
AcDbLine
 10
-353.87578247
 20
-229.30435823
 30
0.0
 11
-348.87578247
 21
-229.30435823
 31
0.0
  0
LINE
  5
B2
100
AcDbEntity
  8
D-STR
  6
CONTINUOUS
 62
       1
100
AcDbLine
 10
-353.44278247
 20
-233.30435823
 30
0.0
 11
-349.30878247
 21
-233.30435823
 31
0.0
  0
LINE
  5
B3
100
AcDbEntity
  8
D-STR
  6
CONTINUOUS
 62
       1
100
AcDbLine
 10
-353.44278247
 20
-233.30435823
 30
0.0
 11
-351.37578247
 21
-234.54633713
 31
0.0
  0
LINE
  5
B4
100
AcDbEntity
  8
D-STR
  6
CONTINUOUS
 62
       1
100
AcDbLine
 10
-349.30878247
 20
-233.30435823
 30
0.0
 11
-351.37578247
 21
-234.54633713
 31
0.0
  0
ENDBLK
  5
B5
100
AcDbEntity
  8
0
100
AcDbBlockEnd
  0
BLOCK
  5
B6
100
AcDbEntity
  8
0
100
AcDbBlockBegin
  2
GROUP_7
 70
       0
 10
0.0
 20
0.0
 30
0.0
  3
GROUP_7
  1

  0
LINE
  5
B7
100
AcDbEntity
  8
D-BMK
  6
CENTER
 62
       2
100
AcDbLine
 10
-335.20997493
 20
-213.30435823
 30
0.0
 11
-335.20997493
 21
-237.78157406
 31
0.0
  0
LINE
  5
B8
100
AcDbEntity
  8
D-STR
  6
CONTINUOUS
 62
       7
100
AcDbLine
 10
-332.20997493
 20
-213.30435823
 30
0.0
 11
-332.20997493
 21
-231.30435823
 31
0.0
  0
LINE
  5
B9
100
AcDbEntity
  8
D-STR
  6
CONTINUOUS
 62
       7
100
AcDbLine
 10
-338.20997493
 20
-213.30435823
 30
0.0
 11
-338.20997493
 21
-231.30435823
 31
0.0
  0
LINE
  5
BA
100
AcDbEntity
  8
D-STR
  6
CONTINUOUS
 62
       7
100
AcDbLine
 10
-337.66847493
 20
-231.84585823
 30
0.0
 11
-332.75147493
 21
-231.84585823
 31
0.0
  0
LINE
  5
BB
100
AcDbEntity
  8
D-STR
  6
CONTINUOUS
 62
       7
100
AcDbLine
 10
-337.66847493
 20
-231.84585823
 30
0.0
 11
-338.20997493
 21
-231.30435823
 31
0.0
  0
LINE
  5
BC
100
AcDbEntity
  8
D-STR
  6
CONTINUOUS
 62
       7
100
AcDbLine
 10
-332.20997493
 20
-231.30435823
 30
0.0
 11
-332.75147493
 21
-231.84585823
 31
0.0
  0
LINE
  5
BD
100
AcDbEntity
  8
D-STR
  6
CONTINUOUS
 62
       1
100
AcDbLine
 10
-337.66847493
 20
-213.30435823
 30
0.0
 11
-337.66847493
 21
-236.30435823
 31
0.0
  0
LINE
  5
BE
100
AcDbEntity
  8
D-STR
  6
CONTINUOUS
 62
       1
100
AcDbLine
 10
-332.75147493
 20
-213.30435823
 30
0.0
 11
-332.75147493
 21
-236.30435823
 31
0.0
  0
LINE
  5
BF
100
AcDbEntity
  8
D-STR
  6
CONTINUOUS
 62
       1
100
AcDbLine
 10
-338.20997493
 20
-231.30435823
 30
0.0
 11
-332.20997493
 21
-231.30435823
 31
0.0
  0
LINE
  5
C0
100
AcDbEntity
  8
D-STR
  6
CONTINUOUS
 62
       1
100
AcDbLine
 10
-337.66847493
 20
-236.30435823
 30
0.0
 11
-332.75147493
 21
-236.30435823
 31
0.0
  0
LINE
  5
C1
100
AcDbEntity
  8
D-STR
  6
CONTINUOUS
 62
       1
100
AcDbLine
 10
-337.66847493
 20
-236.30435823
 30
0.0
 11
-335.20997493
 21
-237.78157406
 31
0.0
  0
LINE
  5
C2
100
AcDbEntity
  8
D-STR
  6
CONTINUOUS
 62
       1
100
AcDbLine
 10
-332.75147493
 20
-236.30435823
 30
0.0
 11
-335.20997493
 21
-237.78157406
 31
0.0
  0
ENDBLK
  5
C3
100
AcDbEntity
  8
0
100
AcDbBlockEnd
  0
BLOCK
  5
C4
100
AcDbEntity
  8
0
100
AcDbBlockBegin
  2
GROUP_8
 70
       0
 10
0.0
 20
0.0
 30
0.0
  3
GROUP_8
  1

  0
LINE
  5
C5
100
AcDbEntity
  8
D-BMK
  6
CENTER
 62
       2
100
AcDbLine
 10
-314.42536524
 20
-213.30435823
 30
0.0
 11
-314.42536524
 21
-243.55131849
 31
0.0
  0
LINE
  5
C6
100
AcDbEntity
  8
D-STR
  6
CONTINUOUS
 62
       7
100
AcDbLine
 10
-310.42536524
 20
-213.30435823
 30
0.0
 11
-310.42536524
 21
-235.30435823
 31
0.0
  0
LINE
  5
C7
100
AcDbEntity
  8
D-STR
  6
CONTINUOUS
 62
       7
100
AcDbLine
 10
-318.42536524
 20
-213.30435823
 30
0.0
 11
-318.42536524
 21
-235.30435823
 31
0.0
  0
LINE
  5
C8
100
AcDbEntity
  8
D-STR
  6
CONTINUOUS
 62
       7
100
AcDbLine
 10
-317.74886524
 20
-235.98085823
 30
0.0
 11
-311.10186524
 21
-235.98085823
 31
0.0
  0
LINE
  5
C9
100
AcDbEntity
  8
D-STR
  6
CONTINUOUS
 62
       7
100
AcDbLine
 10
-317.74886524
 20
-235.98085823
 30
0.0
 11
-318.42536524
 21
-235.30435823
 31
0.0
  0
LINE
  5
CA
100
AcDbEntity
  8
D-STR
  6
CONTINUOUS
 62
       7
100
AcDbLine
 10
-310.42536524
 20
-235.30435823
 30
0.0
 11
-311.10186524
 21
-235.98085823
 31
0.0
  0
LINE
  5
CB
100
AcDbEntity
  8
D-STR
  6
CONTINUOUS
 62
       1
100
AcDbLine
 10
-317.74886524
 20
-213.30435823
 30
0.0
 11
-317.74886524
 21
-241.55435823
 31
0.0
  0
LINE
  5
CC
100
AcDbEntity
  8
D-STR
  6
CONTINUOUS
 62
       1
100
AcDbLine
 10
-311.10186524
 20
-213.30435823
 30
0.0
 11
-311.10186524
 21
-241.55435823
 31
0.0
  0
LINE
  5
CD
100
AcDbEntity
  8
D-STR
  6
CONTINUOUS
 62
       1
100
AcDbLine
 10
-318.42536524
 20
-235.30435823
 30
0.0
 11
-310.42536524
 21
-235.30435823
 31
0.0
  0
LINE
  5
CE
100
AcDbEntity
  8
D-STR
  6
CONTINUOUS
 62
       1
100
AcDbLine
 10
-317.74886524
 20
-241.55435823
 30
0.0
 11
-311.10186524
 21
-241.55435823
 31
0.0
  0
LINE
  5
CF
100
AcDbEntity
  8
D-STR
  6
CONTINUOUS
 62
       1
100
AcDbLine
 10
-311.10186524
 20
-241.55435823
 30
0.0
 11
-314.42536524
 21
-243.55131849
 31
0.0
  0
LINE
  5
D0
100
AcDbEntity
  8
D-STR
  6
CONTINUOUS
 62
       1
100
AcDbLine
 10
-317.74886524
 20
-241.55435823
 30
0.0
 11
-314.42536524
 21
-243.55131849
 31
0.0
  0
ENDBLK
  5
D1
100
AcDbEntity
  8
0
100
AcDbBlockEnd
  0
BLOCK
  5
D2
100
AcDbEntity
  8
0
100
AcDbBlockBegin
  2
GROUP_9
 70
       0
 10
0.0
 20
0.0
 30
0.0
  3
GROUP_9
  1

  0
LINE
  5
D3
100
AcDbEntity
  8
D-BMK
  6
CENTER
 62
       2
100
AcDbLine
 10
-288.44460313
 20
-213.30435823
 30
0.0
 11
-288.44460313
 21
-249.32046207
 31
0.0
  0
LINE
  5
D4
100
AcDbEntity
  8
D-STR
  6
CONTINUOUS
 62
       7
100
AcDbLine
 10
-293.44460313
 20
-213.30435823
 30
0.0
 11
-293.44460313
 21
-239.30435823
 31
0.0
  0
LINE
  5
D5
100
AcDbEntity
  8
D-STR
  6
CONTINUOUS
 62
       7
100
AcDbLine
 10
-283.44460313
 20
-213.30435823
 30
0.0
 11
-283.44460313
 21
-239.30435823
 31
0.0
  0
LINE
  5
D6
100
AcDbEntity
  8
D-STR
  6
CONTINUOUS
 62
       7
100
AcDbLine
 10
-292.63210313
 20
-240.11685823
 30
0.0
 11
-284.25710313
 21
-240.11685823
 31
0.0
  0
LINE
  5
D7
100
AcDbEntity
  8
D-STR
  6
CONTINUOUS
 62
       7
100
AcDbLine
 10
-292.63210313
 20
-240.11685823
 30
0.0
 11
-293.44460313
 21
-239.30435823
 31
0.0
  0
LINE
  5
D8
100
AcDbEntity
  8
D-STR
  6
CONTINUOUS
 62
       7
100
AcDbLine
 10
-283.44460313
 20
-239.30435823
 30
0.0
 11
-284.25710313
 21
-240.11685823
 31
0.0
  0
LINE
  5
D9
100
AcDbEntity
  8
D-STR
  6
CONTINUOUS
 62
       1
100
AcDbLine
 10
-292.63210313
 20
-213.30435823
 30
0.0
 11
-292.63210313
 21
-246.80435823
 31
0.0
  0
LINE
  5
DA
100
AcDbEntity
  8
D-STR
  6
CONTINUOUS
 62
       1
100
AcDbLine
 10
-284.25710313
 20
-213.30435823
 30
0.0
 11
-284.25710313
 21
-246.80435823
 31
0.0
  0
LINE
  5
DB
100
AcDbEntity
  8
D-STR
  6
CONTINUOUS
 62
       1
100
AcDbLine
 10
-293.44460313
 20
-239.30435823
 30
0.0
 11
-283.44460313
 21
-239.30435823
 31
0.0
  0
LINE
  5
DC
100
AcDbEntity
  8
D-STR
  6
CONTINUOUS
 62
       1
100
AcDbLine
 10
-292.63210313
 20
-246.80435823
 30
0.0
 11
-284.25710313
 21
-246.80435823
 31
0.0
  0
LINE
  5
DD
100
AcDbEntity
  8
D-STR
  6
CONTINUOUS
 62
       1
100
AcDbLine
 10
-284.25710313
 20
-246.80435823
 30
0.0
 11
-288.44460313
 21
-249.32046207
 31
0.0
  0
LINE
  5
DE
100
AcDbEntity
  8
D-STR
  6
CONTINUOUS
 62
       1
100
AcDbLine
 10
-292.63210313
 20
-246.80435823
 30
0.0
 11
-288.44460313
 21
-249.32046207
 31
0.0
  0
ENDBLK
  5
DF
100
AcDbEntity
  8
0
100
AcDbBlockEnd
  0
BLOCK
  5
E0
100
AcDbEntity
  8
0
100
AcDbBlockBegin
  2
GROUP_10
 70
       0
 10
0.0
 20
0.0
 30
0.0
  3
GROUP_10
  1

  0
LINE
  5
E1
100
AcDbEntity
  8
D-BMK
  6
CENTER
 62
       2
100
AcDbLine
 10
-258.42238913
 20
-213.30435823
 30
0.0
 11
-258.42238913
 21
-255.09050694
 31
0.0
  0
LINE
  5
E2
100
AcDbEntity
  8
D-STR
  6
CONTINUOUS
 62
       7
100
AcDbLine
 10
-264.42238913
 20
-213.30435823
 30
0.0
 11
-264.42238913
 21
-243.30435823
 31
0.0
  0
LINE
  5
E3
100
AcDbEntity
  8
D-STR
  6
CONTINUOUS
 62
       7
100
AcDbLine
 10
-252.42238913
 20
-213.30435823
 30
0.0
 11
-252.42238913
 21
-243.30435823
 31
0.0
  0
LINE
  5
E4
100
AcDbEntity
  8
D-STR
  6
CONTINUOUS
 62
       7
100
AcDbLine
 10
-263.47538913
 20
-244.25135823
 30
0.0
 11
-253.36938913
 21
-244.25135823
 31
0.0
  0
LINE
  5
E5
100
AcDbEntity
  8
D-STR
  6
CONTINUOUS
 62
       7
100
AcDbLine
 10
-263.47538913
 20
-244.25135823
 30
0.0
 11
-264.42238913
 21
-243.30435823
 31
0.0
  0
LINE
  5
E6
100
AcDbEntity
  8
D-STR
  6
CONTINUOUS
 62
       7
100
AcDbLine
 10
-252.42238913
 20
-243.30435823
 30
0.0
 11
-253.36938913
 21
-244.25135823
 31
0.0
  0
LINE
  5
E7
100
AcDbEntity
  8
D-STR
  6
CONTINUOUS
 62
       1
100
AcDbLine
 10
-263.47538913
 20
-213.30435823
 30
0.0
 11
-263.47538913
 21
-252.05435823
 31
0.0
  0
LINE
  5
E8
100
AcDbEntity
  8
D-STR
  6
CONTINUOUS
 62
       1
100
AcDbLine
 10
-253.36938913
 20
-213.30435823
 30
0.0
 11
-253.36938913
 21
-252.05435823
 31
0.0
  0
LINE
  5
E9
100
AcDbEntity
  8
D-STR
  6
CONTINUOUS
 62
       1
100
AcDbLine
 10
-264.42238913
 20
-243.30435823
 30
0.0
 11
-252.42238913
 21
-243.30435823
 31
0.0
  0
LINE
  5
EA
100
AcDbEntity
  8
D-STR
  6
CONTINUOUS
 62
       1
100
AcDbLine
 10
-263.47538913
 20
-252.05435823
 30
0.0
 11
-253.36938913
 21
-252.05435823
 31
0.0
  0
LINE
  5
EB
100
AcDbEntity
  8
D-STR
  6
CONTINUOUS
 62
       1
100
AcDbLine
 10
-253.36938913
 20
-252.05435823
 30
0.0
 11
-258.42238913
 21
-255.09050694
 31
0.0
  0
LINE
  5
EC
100
AcDbEntity
  8
D-STR
  6
CONTINUOUS
 62
       1
100
AcDbLine
 10
-263.47538913
 20
-252.05435823
 30
0.0
 11
-258.42238913
 21
-255.09050694
 31
0.0
  0
ENDBLK
  5
ED
100
AcDbEntity
  8
0
100
AcDbBlockEnd
  0
BLOCK
  5
EE
100
AcDbEntity
  8
0
100
AcDbBlockBegin
  2
GROUP_11
 70
       0
 10
0.0
 20
0.0
 30
0.0
  3
GROUP_11
  1

  0
LINE
  5
EF
100
AcDbEntity
  8
D-BMK
  6
CENTER
 62
       2
100
AcDbLine
 10
-220.31727136
 20
-213.30435823
 30
0.0
 11
-220.31727136
 21
-265.46081156
 31
0.0
  0
LINE
  5
F0
100
AcDbEntity
  8
D-STR
  6
CONTINUOUS
 62
       7
100
AcDbLine
 10
-228.31727136
 20
-213.30435823
 30
0.0
 11
-228.31727136
 21
-251.30435823
 31
0.0
  0
LINE
  5
F1
100
AcDbEntity
  8
D-STR
  6
CONTINUOUS
 62
       7
100
AcDbLine
 10
-212.31727136
 20
-213.30435823
 30
0.0
 11
-212.31727136
 21
-251.30435823
 31
0.0
  0
LINE
  5
F2
100
AcDbEntity
  8
D-STR
  6
CONTINUOUS
 62
       7
100
AcDbLine
 10
-227.23477136
 20
-252.38685823
 30
0.0
 11
-213.39977136
 21
-252.38685823
 31
0.0
  0
LINE
  5
F3
100
AcDbEntity
  8
D-STR
  6
CONTINUOUS
 62
       7
100
AcDbLine
 10
-227.23477136
 20
-252.38685823
 30
0.0
 11
-228.31727136
 21
-251.30435823
 31
0.0
  0
LINE
  5
F4
100
AcDbEntity
  8
D-STR
  6
CONTINUOUS
 62
       7
100
AcDbLine
 10
-212.31727136
 20
-251.30435823
 30
0.0
 11
-213.39977136
 21
-252.38685823
 31
0.0
  0
LINE
  5
F5
100
AcDbEntity
  8
D-STR
  6
CONTINUOUS
 62
       1
100
AcDbLine
 10
-227.23477136
 20
-213.30435823
 30
0.0
 11
-227.23477136
 21
-261.30435823
 31
0.0
  0
LINE
  5
F6
100
AcDbEntity
  8
D-STR
  6
CONTINUOUS
 62
       1
100
AcDbLine
 10
-213.39977136
 20
-213.30435823
 30
0.0
 11
-213.39977136
 21
-261.30435823
 31
0.0
  0
LINE
  5
F7
100
AcDbEntity
  8
D-STR
  6
CONTINUOUS
 62
       1
100
AcDbLine
 10
-228.31727136
 20
-251.30435823
 30
0.0
 11
-212.31727136
 21
-251.30435823
 31
0.0
  0
LINE
  5
F8
100
AcDbEntity
  8
D-STR
  6
CONTINUOUS
 62
       1
100
AcDbLine
 10
-227.23477136
 20
-261.30435823
 30
0.0
 11
-213.39977136
 21
-261.30435823
 31
0.0
  0
LINE
  5
F9
100
AcDbEntity
  8
D-STR
  6
CONTINUOUS
 62
       1
100
AcDbLine
 10
-213.39977136
 20
-261.30435823
 30
0.0
 11
-220.31727136
 21
-265.46081156
 31
0.0
  0
LINE
  5
FA
100
AcDbEntity
  8
D-STR
  6
CONTINUOUS
 62
       1
100
AcDbLine
 10
-227.23477136
 20
-261.30435823
 30
0.0
 11
-220.31727136
 21
-265.46081156
 31
0.0
  0
ENDBLK
  5
FB
100
AcDbEntity
  8
0
100
AcDbBlockEnd
  0
BLOCK
  5
FC
100
AcDbEntity
  8
0
100
AcDbBlockBegin
  2
GROUP_12
 70
       0
 10
0.0
 20
0.0
 30
0.0
  3
GROUP_12
  1

  0
LINE
  5
FD
100
AcDbEntity
  8
D-BMK
  6
CENTER
 62
       2
100
AcDbLine
 10
-171.81984875
 20
-213.30435823
 30
0.0
 11
-171.81984875
 21
-277.0
 31
0.0
  0
LINE
  5
FE
100
AcDbEntity
  8
D-STR
  6
CONTINUOUS
 62
       7
100
AcDbLine
 10
-181.81984875
 20
-213.30435823
 30
0.0
 11
-181.81984875
 21
-259.30435823
 31
0.0
  0
LINE
  5
FF
100
AcDbEntity
  8
D-STR
  6
CONTINUOUS
 62
       7
100
AcDbLine
 10
-161.81984875
 20
-213.30435823
 30
0.0
 11
-161.81984875
 21
-259.30435823
 31
0.0
  0
LINE
  5
100
100
AcDbEntity
  8
D-STR
  6
CONTINUOUS
 62
       7
100
AcDbLine
 10
-180.46684875
 20
-260.65735823
 30
0.0
 11
-163.17284875
 21
-260.65735823
 31
0.0
  0
LINE
  5
101
100
AcDbEntity
  8
D-STR
  6
CONTINUOUS
 62
       7
100
AcDbLine
 10
-180.46684875
 20
-260.65735823
 30
0.0
 11
-181.81984875
 21
-259.30435823
 31
0.0
  0
LINE
  5
102
100
AcDbEntity
  8
D-STR
  6
CONTINUOUS
 62
       7
100
AcDbLine
 10
-161.81984875
 20
-259.30435823
 30
0.0
 11
-163.17284875
 21
-260.65735823
 31
0.0
  0
LINE
  5
103
100
AcDbEntity
  8
D-STR
  6
CONTINUOUS
 62
       1
100
AcDbLine
 10
-180.46684875
 20
-213.30435823
 30
0.0
 11
-180.46684875
 21
-271.80435823
 31
0.0
  0
LINE
  5
104
100
AcDbEntity
  8
D-STR
  6
CONTINUOUS
 62
       1
100
AcDbLine
 10
-163.17284875
 20
-213.30435823
 30
0.0
 11
-163.17284875
 21
-271.80435823
 31
0.0
  0
LINE
  5
105
100
AcDbEntity
  8
D-STR
  6
CONTINUOUS
 62
       1
100
AcDbLine
 10
-181.81984875
 20
-259.30435823
 30
0.0
 11
-161.81984875
 21
-259.30435823
 31
0.0
  0
LINE
  5
106
100
AcDbEntity
  8
D-STR
  6
CONTINUOUS
 62
       1
100
AcDbLine
 10
-180.46684875
 20
-271.80435823
 30
0.0
 11
-163.17284875
 21
-271.80435823
 31
0.0
  0
LINE
  5
107
100
AcDbEntity
  8
D-STR
  6
CONTINUOUS
 62
       1
100
AcDbLine
 10
-163.17284875
 20
-271.80435823
 30
0.0
 11
-171.81984875
 21
-277.0
 31
0.0
  0
LINE
  5
108
100
AcDbEntity
  8
D-STR
  6
CONTINUOUS
 62
       1
100
AcDbLine
 10
-180.46684875
 20
-271.80435823
 30
0.0
 11
-171.81984875
 21
-277.0
 31
0.0
  0
ENDBLK
  5
109
100
AcDbEntity
  8
0
100
AcDbBlockEnd
  0
BLOCK
  5
10A
100
AcDbEntity
  8
0
100
AcDbBlockBegin
  2
GROUP_13
 70
       0
 10
0.0
 20
0.0
 30
0.0
  3
GROUP_13
  1

  0
LINE
  5
10B
100
AcDbEntity
  8
D-BMK
  6
CENTER
 62
       2
100
AcDbLine
 10
-326.6297241
 20
149.0
 30
0.0
 11
-326.6297241
 21
73.76547022
 31
0.0
  0
LINE
  5
10C
100
AcDbEntity
  8
D-STR
  6
CONTINUOUS
 62
       7
100
AcDbLine
 10
-338.6297241
 20
149.0
 30
0.0
 11
-338.6297241
 21
95.0
 31
0.0
  0
LINE
  5
10D
100
AcDbEntity
  8
D-STR
  6
CONTINUOUS
 62
       7
100
AcDbLine
 10
-337.0057241
 20
93.376
 30
0.0
 11
-338.6297241
 21
95.0
 31
0.0
  0
LINE
  5
10E
100
AcDbEntity
  8
D-STR
  6
CONTINUOUS
 62
       7
100
AcDbLine
 10
-314.6297241
 20
149.0
 30
0.0
 11
-314.6297241
 21
95.0
 31
0.0
  0
LINE
  5
10F
100
AcDbEntity
  8
D-STR
  6
CONTINUOUS
 62
       7
100
AcDbLine
 10
-314.6297241
 20
95.0
 30
0.0
 11
-316.2537241
 21
93.376
 31
0.0
  0
LINE
  5
110
100
AcDbEntity
  8
D-STR
  6
CONTINUOUS
 62
       7
100
AcDbLine
 10
-337.0057241
 20
93.376
 30
0.0
 11
-316.2537241
 21
93.376
 31
0.0
  0
LINE
  5
111
100
AcDbEntity
  8
D-STR
  6
CONTINUOUS
 62
       1
100
AcDbLine
 10
-337.0057241
 20
149.0
 30
0.0
 11
-337.0057241
 21
80.0
 31
0.0
  0
LINE
  5
112
100
AcDbEntity
  8
D-STR
  6
CONTINUOUS
 62
       1
100
AcDbLine
 10
-337.0057241
 20
80.0
 30
0.0
 11
-326.6297241
 21
73.76547022
 31
0.0
  0
LINE
  5
113
100
AcDbEntity
  8
D-STR
  6
CONTINUOUS
 62
       1
100
AcDbLine
 10
-316.2537241
 20
149.0
 30
0.0
 11
-316.2537241
 21
80.0
 31
0.0
  0
LINE
  5
114
100
AcDbEntity
  8
D-STR
  6
CONTINUOUS
 62
       1
100
AcDbLine
 10
-338.6297241
 20
95.0
 30
0.0
 11
-314.6297241
 21
95.0
 31
0.0
  0
LINE
  5
115
100
AcDbEntity
  8
D-STR
  6
CONTINUOUS
 62
       1
100
AcDbLine
 10
-337.0057241
 20
80.0
 30
0.0
 11
-316.2537241
 21
80.0
 31
0.0
  0
LINE
  5
116
100
AcDbEntity
  8
D-STR
  6
CONTINUOUS
 62
       1
100
AcDbLine
 10
-316.2537241
 20
80.0
 30
0.0
 11
-326.6297241
 21
73.76547022
 31
0.0
  0
ENDBLK
  5
117
100
AcDbEntity
  8
0
100
AcDbBlockEnd
  0
BLOCK
  5
118
100
AcDbEntity
  8
0
100
AcDbBlockBegin
  2
GROUP_14
 70
       0
 10
0.0
 20
0.0
 30
0.0
  3
GROUP_14
  1

  0
LINE
  5
119
100
AcDbEntity
  8
D-BMK
  6
CENTER
 62
       2
100
AcDbLine
 10
-252.72888965
 20
149.0
 30
0.0
 11
-252.72888965
 21
57.62542116
 31
0.0
  0
LINE
  5
11A
100
AcDbEntity
  8
D-STR
  6
CONTINUOUS
 62
       7
100
AcDbLine
 10
-267.72888965
 20
149.0
 30
0.0
 11
-267.72888965
 21
83.0
 31
0.0
  0
LINE
  5
11B
100
AcDbEntity
  8
D-STR
  6
CONTINUOUS
 62
       7
100
AcDbLine
 10
-237.72888965
 20
149.0
 30
0.0
 11
-237.72888965
 21
83.0
 31
0.0
  0
LINE
  5
11C
100
AcDbEntity
  8
D-STR
  6
CONTINUOUS
 62
       7
100
AcDbLine
 10
-265.83438965
 20
81.1055
 30
0.0
 11
-239.62338965
 21
81.1055
 31
0.0
  0
LINE
  5
11D
100
AcDbEntity
  8
D-STR
  6
CONTINUOUS
 62
       7
100
AcDbLine
 10
-265.83438965
 20
81.1055
 30
0.0
 11
-267.72888965
 21
83.0
 31
0.0
  0
LINE
  5
11E
100
AcDbEntity
  8
D-STR
  6
CONTINUOUS
 62
       7
100
AcDbLine
 10
-237.72888965
 20
83.0
 30
0.0
 11
-239.62338965
 21
81.1055
 31
0.0
  0
LINE
  5
11F
100
AcDbEntity
  8
D-STR
  6
CONTINUOUS
 62
       1
100
AcDbLine
 10
-265.83438965
 20
149.0
 30
0.0
 11
-265.83438965
 21
65.5
 31
0.0
  0
LINE
  5
120
100
AcDbEntity
  8
D-STR
  6
CONTINUOUS
 62
       1
100
AcDbLine
 10
-239.62338965
 20
149.0
 30
0.0
 11
-239.62338965
 21
65.5
 31
0.0
  0
LINE
  5
121
100
AcDbEntity
  8
D-STR
  6
CONTINUOUS
 62
       1
100
AcDbLine
 10
-267.72888965
 20
83.0
 30
0.0
 11
-237.72888965
 21
83.0
 31
0.0
  0
LINE
  5
122
100
AcDbEntity
  8
D-STR
  6
CONTINUOUS
 62
       1
100
AcDbLine
 10
-265.83438965
 20
65.5
 30
0.0
 11
-239.62338965
 21
65.5
 31
0.0
  0
LINE
  5
123
100
AcDbEntity
  8
D-STR
  6
CONTINUOUS
 62
       1
100
AcDbLine
 10
-239.62338965
 20
65.5
 30
0.0
 11
-252.72888965
 21
57.62542116
 31
0.0
  0
LINE
  5
124
100
AcDbEntity
  8
D-STR
  6
CONTINUOUS
 62
       1
100
AcDbLine
 10
-265.83438965
 20
65.5
 30
0.0
 11
-252.72888965
 21
57.62542116
 31
0.0
  0
ENDBLK
  5
125
100
AcDbEntity
  8
0
100
AcDbBlockEnd
  0
BLOCK
  5
126
100
AcDbEntity
  8
0
100
AcDbBlockBegin
  2
GROUP_15
 70
       0
 10
0.0
 20
0.0
 30
0.0
  3
GROUP_15
  1

  0
LINE
  5
127
100
AcDbEntity
  8
D-BMK
  6
CENTER
 62
       2
100
AcDbLine
 10
-162.66224765
 20
149.0
 30
0.0
 11
-162.66224765
 21
33.3203721
 31
0.0
  0
LINE
  5
128
100
AcDbEntity
  8
D-STR
  6
CONTINUOUS
 62
       7
100
AcDbLine
 10
-180.66224765
 20
149.0
 30
0.0
 11
-180.66224765
 21
62.835
 31
0.0
  0
LINE
  5
129
100
AcDbEntity
  8
D-STR
  6
CONTINUOUS
 62
       7
100
AcDbLine
 10
-144.66224765
 20
149.0
 30
0.0
 11
-144.66224765
 21
62.835
 31
0.0
  0
LINE
  5
12A
100
AcDbEntity
  8
D-STR
  6
CONTINUOUS
 62
       7
100
AcDbLine
 10
-178.49724765
 20
60.67
 30
0.0
 11
-146.82724765
 21
60.67
 31
0.0
  0
LINE
  5
12B
100
AcDbEntity
  8
D-STR
  6
CONTINUOUS
 62
       7
100
AcDbLine
 10
-178.49724765
 20
60.67
 30
0.0
 11
-180.66224765
 21
62.835
 31
0.0
  0
LINE
  5
12C
100
AcDbEntity
  8
D-STR
  6
CONTINUOUS
 62
       7
100
AcDbLine
 10
-144.66224765
 20
62.835
 30
0.0
 11
-146.82724765
 21
60.67
 31
0.0
  0
LINE
  5
12D
100
AcDbEntity
  8
D-STR
  6
CONTINUOUS
 62
       1
100
AcDbLine
 10
-178.49724765
 20
149.0
 30
0.0
 11
-178.49724765
 21
42.835
 31
0.0
  0
LINE
  5
12E
100
AcDbEntity
  8
D-STR
  6
CONTINUOUS
 62
       1
100
AcDbLine
 10
-146.82724765
 20
149.0
 30
0.0
 11
-146.82724765
 21
42.835
 31
0.0
  0
LINE
  5
12F
100
AcDbEntity
  8
D-STR
  6
CONTINUOUS
 62
       1
100
AcDbLine
 10
-180.66224765
 20
62.835
 30
0.0
 11
-144.66224765
 21
62.835
 31
0.0
  0
LINE
  5
130
100
AcDbEntity
  8
D-STR
  6
CONTINUOUS
 62
       1
100
AcDbLine
 10
-178.49724765
 20
42.835
 30
0.0
 11
-146.82724765
 21
42.835
 31
0.0
  0
LINE
  5
131
100
AcDbEntity
  8
D-STR
  6
CONTINUOUS
 62
       1
100
AcDbLine
 10
-146.82724765
 20
42.835
 30
0.0
 11
-162.66224765
 21
33.3203721
 31
0.0
  0
LINE
  5
132
100
AcDbEntity
  8
D-STR
  6
CONTINUOUS
 62
       1
100
AcDbLine
 10
-178.49724765
 20
42.835
 30
0.0
 11
-162.66224765
 21
33.3203721
 31
0.0
  0
ENDBLK
  5
133
100
AcDbEntity
  8
0
100
AcDbBlockEnd
  0
BLOCK
  5
134
100
AcDbEntity
  8
0
100
AcDbBlockBegin
  2
GROUP_16
 70
       0
 10
0.0
 20
0.0
 30
0.0
  3
GROUP_16
  1

  0
LINE
  5
135
100
AcDbEntity
  8
D-BMK
  6
CENTER
 62
       2
100
AcDbLine
 10
-55.85244785
 20
149.0
 30
0.0
 11
-55.85244785
 21
16.90982304
 31
0.0
  0
LINE
  5
136
100
AcDbEntity
  8
D-STR
  6
CONTINUOUS
 62
       7
100
AcDbLine
 10
-76.85244785
 20
149.0
 30
0.0
 11
-76.85244785
 21
50.5645
 31
0.0
  0
LINE
  5
137
100
AcDbEntity
  8
D-STR
  6
CONTINUOUS
 62
       7
100
AcDbLine
 10
-34.85244785
 20
149.0
 30
0.0
 11
-34.85244785
 21
50.5645
 31
0.0
  0
LINE
  5
138
100
AcDbEntity
  8
D-STR
  6
CONTINUOUS
 62
       7
100
AcDbLine
 10
-74.41694785
 20
48.129
 30
0.0
 11
-37.28794785
 21
48.129
 31
0.0
  0
LINE
  5
139
100
AcDbEntity
  8
D-STR
  6
CONTINUOUS
 62
       7
100
AcDbLine
 10
-74.41694785
 20
48.129
 30
0.0
 11
-76.85244785
 21
50.5645
 31
0.0
  0
LINE
  5
13A
100
AcDbEntity
  8
D-STR
  6
CONTINUOUS
 62
       7
100
AcDbLine
 10
-34.85244785
 20
50.5645
 30
0.0
 11
-37.28794785
 21
48.129
 31
0.0
  0
LINE
  5
13B
100
AcDbEntity
  8
D-STR
  6
CONTINUOUS
 62
       1
100
AcDbLine
 10
-74.41694785
 20
149.0
 30
0.0
 11
-74.41694785
 21
28.0645
 31
0.0
  0
LINE
  5
13C
100
AcDbEntity
  8
D-STR
  6
CONTINUOUS
 62
       1
100
AcDbLine
 10
-37.28794785
 20
149.0
 30
0.0
 11
-37.28794785
 21
28.0645
 31
0.0
  0
LINE
  5
13D
100
AcDbEntity
  8
D-STR
  6
CONTINUOUS
 62
       1
100
AcDbLine
 10
-76.85244785
 20
50.5645
 30
0.0
 11
-34.85244785
 21
50.5645
 31
0.0
  0
LINE
  5
13E
100
AcDbEntity
  8
D-STR
  6
CONTINUOUS
 62
       1
100
AcDbLine
 10
-74.41694785
 20
28.0645
 30
0.0
 11
-37.28794785
 21
28.0645
 31
0.0
  0
LINE
  5
13F
100
AcDbEntity
  8
D-STR
  6
CONTINUOUS
 62
       1
100
AcDbLine
 10
-37.28794785
 20
28.0645
 30
0.0
 11
-55.85244785
 21
16.90982304
 31
0.0
  0
LINE
  5
140
100
AcDbEntity
  8
D-STR
  6
CONTINUOUS
 62
       1
100
AcDbLine
 10
-74.41694785
 20
28.0645
 30
0.0
 11
-55.85244785
 21
16.90982304
 31
0.0
  0
ENDBLK
  5
141
100
AcDbEntity
  8
0
100
AcDbBlockEnd
  0
BLOCK
  5
142
100
AcDbEntity
  8
0
100
AcDbBlockBegin
  2
GROUP_17
 70
       0
 10
0.0
 20
0.0
 30
0.0
  3
GROUP_17
  1

  0
LINE
  5
143
100
AcDbEntity
  8
D-BMK
  6
CENTER
 62
       2
100
AcDbLine
 10
68.27786002
 20
149.0
 30
0.0
 11
68.27786002
 21
3.20557441
 31
0.0
  0
LINE
  5
144
100
AcDbEntity
  8
D-STR
  6
CONTINUOUS
 62
       7
100
AcDbLine
 10
44.27786002
 20
149.0
 30
0.0
 11
44.27786002
 21
41.0
 31
0.0
  0
LINE
  5
145
100
AcDbEntity
  8
D-STR
  6
CONTINUOUS
 62
       7
100
AcDbLine
 10
92.27786002
 20
149.0
 30
0.0
 11
92.27786002
 21
41.0
 31
0.0
  0
LINE
  5
146
100
AcDbEntity
  8
D-STR
  6
CONTINUOUS
 62
       7
100
AcDbLine
 10
46.98436002
 20
38.2935
 30
0.0
 11
89.57136002
 21
38.2935
 31
0.0
  0
LINE
  5
147
100
AcDbEntity
  8
D-STR
  6
CONTINUOUS
 62
       7
100
AcDbLine
 10
46.98436002
 20
38.2935
 30
0.0
 11
44.27786002
 21
41.0
 31
0.0
  0
LINE
  5
148
100
AcDbEntity
  8
D-STR
  6
CONTINUOUS
 62
       7
100
AcDbLine
 10
92.27786002
 20
41.0
 30
0.0
 11
89.57136002
 21
38.2935
 31
0.0
  0
LINE
  5
149
100
AcDbEntity
  8
D-STR
  6
CONTINUOUS
 62
       1
100
AcDbLine
 10
46.98436002
 20
149.0
 30
0.0
 11
46.98436002
 21
16.0
 31
0.0
  0
LINE
  5
14A
100
AcDbEntity
  8
D-STR
  6
CONTINUOUS
 62
       1
100
AcDbLine
 10
89.57136002
 20
149.0
 30
0.0
 11
89.57136002
 21
16.0
 31
0.0
  0
LINE
  5
14B
100
AcDbEntity
  8
D-STR
  6
CONTINUOUS
 62
       1
100
AcDbLine
 10
44.27786002
 20
41.0
 30
0.0
 11
92.27786002
 21
41.0
 31
0.0
  0
LINE
  5
14C
100
AcDbEntity
  8
D-STR
  6
CONTINUOUS
 62
       1
100
AcDbLine
 10
46.98436002
 20
16.0
 30
0.0
 11
89.57136002
 21
16.0
 31
0.0
  0
LINE
  5
14D
100
AcDbEntity
  8
D-STR
  6
CONTINUOUS
 62
       1
100
AcDbLine
 10
89.57136002
 20
16.0
 30
0.0
 11
68.27786002
 21
3.20557441
 31
0.0
  0
LINE
  5
14E
100
AcDbEntity
  8
D-STR
  6
CONTINUOUS
 62
       1
100
AcDbLine
 10
46.98436002
 20
16.0
 30
0.0
 11
68.27786002
 21
3.20557441
 31
0.0
  0
ENDBLK
  5
14F
100
AcDbEntity
  8
0
100
AcDbBlockEnd
  0
BLOCK
  5
150
100
AcDbEntity
  8
0
100
AcDbBlockBegin
  2
GROUP_18
 70
       0
 10
0.0
 20
0.0
 30
0.0
  3
GROUP_18
  1

  0
LINE
  5
151
100
AcDbEntity
  8
D-BMK
  6
CENTER
 62
       2
100
AcDbLine
 10
209.72867597
 20
149.0
 30
0.0
 11
209.72867597
 21
-30.53533527
 31
0.0
  0
LINE
  5
152
100
AcDbEntity
  8
D-STR
  6
CONTINUOUS
 62
       7
100
AcDbLine
 10
181.72867597
 20
149.0
 30
0.0
 11
181.72867597
 21
12.0
 31
0.0
  0
LINE
  5
153
100
AcDbEntity
  8
D-STR
  6
CONTINUOUS
 62
       7
100
AcDbLine
 10
237.72867597
 20
149.0
 30
0.0
 11
237.72867597
 21
12.0
 31
0.0
  0
LINE
  5
154
100
AcDbEntity
  8
D-STR
  6
CONTINUOUS
 62
       7
100
AcDbLine
 10
184.70567597
 20
9.023
 30
0.0
 11
234.75167597
 21
9.023
 31
0.0
  0
LINE
  5
155
100
AcDbEntity
  8
D-STR
  6
CONTINUOUS
 62
       7
100
AcDbLine
 10
184.70567597
 20
9.023
 30
0.0
 11
181.72867597
 21
12.0
 31
0.0
  0
LINE
  5
156
100
AcDbEntity
  8
D-STR
  6
CONTINUOUS
 62
       7
100
AcDbLine
 10
237.72867597
 20
12.0
 30
0.0
 11
234.75167597
 21
9.023
 31
0.0
  0
LINE
  5
157
100
AcDbEntity
  8
D-STR
  6
CONTINUOUS
 62
       1
100
AcDbLine
 10
184.70567597
 20
149.0
 30
0.0
 11
184.70567597
 21
-15.5
 31
0.0
  0
LINE
  5
158
100
AcDbEntity
  8
D-STR
  6
CONTINUOUS
 62
       1
100
AcDbLine
 10
234.75167597
 20
149.0
 30
0.0
 11
234.75167597
 21
-15.5
 31
0.0
  0
LINE
  5
159
100
AcDbEntity
  8
D-STR
  6
CONTINUOUS
 62
       1
100
AcDbLine
 10
181.72867597
 20
12.0
 30
0.0
 11
237.72867597
 21
12.0
 31
0.0
  0
LINE
  5
15A
100
AcDbEntity
  8
D-STR
  6
CONTINUOUS
 62
       1
100
AcDbLine
 10
184.70567597
 20
-15.5
 30
0.0
 11
234.75167597
 21
-15.5
 31
0.0
  0
LINE
  5
15B
100
AcDbEntity
  8
D-STR
  6
CONTINUOUS
 62
       1
100
AcDbLine
 10
234.75167597
 20
-15.5
 30
0.0
 11
209.72867597
 21
-30.53533527
 31
0.0
  0
LINE
  5
15C
100
AcDbEntity
  8
D-STR
  6
CONTINUOUS
 62
       1
100
AcDbLine
 10
184.70567597
 20
-15.5
 30
0.0
 11
209.72867597
 21
-30.53533527
 31
0.0
  0
ENDBLK
  5
15D
100
AcDbEntity
  8
0
100
AcDbBlockEnd
  0
BLOCK
  5
15E
100
AcDbEntity
  8
0
100
AcDbBlockBegin
  2
GROUP_19
 70
       0
 10
0.0
 20
0.0
 30
0.0
  3
GROUP_19
  1

  0
LINE
  5
15F
100
AcDbEntity
  8
D-BMK
  6
CENTER
 62
       2
100
AcDbLine
 10
368.5
 20
149.0
 30
0.0
 11
368.5
 21
-51.27624495
 31
0.0
  0
LINE
  5
160
100
AcDbEntity
  8
D-STR
  6
CONTINUOUS
 62
       7
100
AcDbLine
 10
336.5
 20
149.0
 30
0.0
 11
336.5
 21
-4.0
 31
0.0
  0
LINE
  5
161
100
AcDbEntity
  8
D-STR
  6
CONTINUOUS
 62
       7
100
AcDbLine
 10
400.5
 20
149.0
 30
0.0
 11
400.5
 21
-4.0
 31
0.0
  0
LINE
  5
162
100
AcDbEntity
  8
D-STR
  6
CONTINUOUS
 62
       7
100
AcDbLine
 10
339.7475
 20
-7.2475
 30
0.0
 11
397.2525
 21
-7.2475
 31
0.0
  0
LINE
  5
163
100
AcDbEntity
  8
D-STR
  6
CONTINUOUS
 62
       7
100
AcDbLine
 10
339.7475
 20
-7.2475
 30
0.0
 11
336.5
 21
-4.0
 31
0.0
  0
LINE
  5
164
100
AcDbEntity
  8
D-STR
  6
CONTINUOUS
 62
       7
100
AcDbLine
 10
400.5
 20
-4.0
 30
0.0
 11
397.2525
 21
-7.2475
 31
0.0
  0
LINE
  5
165
100
AcDbEntity
  8
D-STR
  6
CONTINUOUS
 62
       1
100
AcDbLine
 10
339.7475
 20
149.0
 30
0.0
 11
339.7475
 21
-34.0
 31
0.0
  0
LINE
  5
166
100
AcDbEntity
  8
D-STR
  6
CONTINUOUS
 62
       1
100
AcDbLine
 10
397.2525
 20
149.0
 30
0.0
 11
397.2525
 21
-34.0
 31
0.0
  0
LINE
  5
167
100
AcDbEntity
  8
D-STR
  6
CONTINUOUS
 62
       1
100
AcDbLine
 10
336.5
 20
-4.0
 30
0.0
 11
400.5
 21
-4.0
 31
0.0
  0
LINE
  5
168
100
AcDbEntity
  8
D-STR
  6
CONTINUOUS
 62
       1
100
AcDbLine
 10
339.7475
 20
-34.0
 30
0.0
 11
397.2525
 21
-34.0
 31
0.0
  0
LINE
  5
169
100
AcDbEntity
  8
D-STR
  6
CONTINUOUS
 62
       1
100
AcDbLine
 10
397.2525
 20
-34.0
 30
0.0
 11
368.5
 21
-51.27624495
 31
0.0
  0
LINE
  5
16A
100
AcDbEntity
  8
D-STR
  6
CONTINUOUS
 62
       1
100
AcDbLine
 10
339.7475
 20
-34.0
 30
0.0
 11
368.5
 21
-51.27624495
 31
0.0
  0
ENDBLK
  5
16B
100
AcDbEntity
  8
0
100
AcDbBlockEnd
  0
BLOCK
  5
16C
100
AcDbEntity
  8
0
100
AcDbBlockBegin
  2
GROUP_20
 70
       0
 10
0.0
 20
0.0
 30
0.0
  3
GROUP_20
  1

  0
LINE
  5
16D
100
AcDbEntity
  8
D-BMK
  6
CENTER
 62
       2
100
AcDbLine
 10
-399.7
 20
-211.70435823
 30
0.0
 11
-399.7
 21
-210.10435823
 31
0.0
  0
LINE
  5
16E
100
AcDbEntity
  8
D-BMK
  6
CENTER
 62
       2
100
AcDbLine
 10
-400.5
 20
-210.90435823
 30
0.0
 11
-398.9
 21
-210.90435823
 31
0.0
  0
CIRCLE
  5
16F
100
AcDbEntity
  8
D-STR
  6
CONTINUOUS
 62
       1
100
AcDbCircle
 10
-399.7
 20
-210.90435823
 30
0.0
 40
0.6105
  0
CIRCLE
  5
170
100
AcDbEntity
  8
D-STR
  6
CONTINUOUS
 62
       7
100
AcDbCircle
 10
-399.7
 20
-210.90435823
 30
0.0
 40
0.8
  0
ENDBLK
  5
171
100
AcDbEntity
  8
0
100
AcDbBlockEnd
  0
BLOCK
  5
172
100
AcDbEntity
  8
0
100
AcDbBlockBegin
  2
GROUP_21
 70
       0
 10
0.0
 20
0.0
 30
0.0
  3
GROUP_21
  1

  0
CIRCLE
  5
173
100
AcDbEntity
  8
D-STR
  6
CONTINUOUS
 62
       1
100
AcDbCircle
 10
-393.23367699
 20
-210.30435823
 30
0.0
 40
0.7835
  0
CIRCLE
  5
174
100
AcDbEntity
  8
D-STR
  6
CONTINUOUS
 62
       7
100
AcDbCircle
 10
-393.23367699
 20
-210.30435823
 30
0.0
 40
1.0
  0
LINE
  5
175
100
AcDbEntity
  8
D-BMK
  6
CENTER
 62
       2
100
AcDbLine
 10
-393.23367699
 20
-211.30435823
 30
0.0
 11
-393.23367699
 21
-209.30435823
 31
0.0
  0
LINE
  5
176
100
AcDbEntity
  8
D-BMK
  6
CENTER
 62
       2
100
AcDbLine
 10
-394.23367699
 20
-210.30435823
 30
0.0
 11
-392.23367699
 21
-210.30435823
 31
0.0
  0
ENDBLK
  5
177
100
AcDbEntity
  8
0
100
AcDbBlockEnd
  0
BLOCK
  5
178
100
AcDbEntity
  8
0
100
AcDbBlockBegin
  2
GROUP_22
 70
       0
 10
0.0
 20
0.0
 30
0.0
  3
GROUP_22
  1

  0
CIRCLE
  5
179
100
AcDbEntity
  8
D-STR
  6
CONTINUOUS
 62
       1
100
AcDbCircle
 10
-385.15077322
 20
-209.55435823
 30
0.0
 40
1.0065
  0
CIRCLE
  5
17A
100
AcDbEntity
  8
D-STR
  6
CONTINUOUS
 62
       7
100
AcDbCircle
 10
-385.15077322
 20
-209.55435823
 30
0.0
 40
1.25
  0
LINE
  5
17B
100
AcDbEntity
  8
D-BMK
  6
CENTER
 62
       2
100
AcDbLine
 10
-385.15077322
 20
-210.80435823
 30
0.0
 11
-385.15077322
 21
-208.30435823
 31
0.0
  0
LINE
  5
17C
100
AcDbEntity
  8
D-BMK
  6
CENTER
 62
       2
100
AcDbLine
 10
-386.40077322
 20
-209.55435823
 30
0.0
 11
-383.90077322
 21
-209.55435823
 31
0.0
  0
ENDBLK
  5
17D
100
AcDbEntity
  8
0
100
AcDbBlockEnd
  0
BLOCK
  5
17E
100
AcDbEntity
  8
0
100
AcDbBlockBegin
  2
GROUP_23
 70
       0
 10
0.0
 20
0.0
 30
0.0
  3
GROUP_23
  1

  0
CIRCLE
  5
17F
100
AcDbEntity
  8
D-STR
  6
CONTINUOUS
 62
       1
100
AcDbCircle
 10
-375.91316891
 20
-208.80435823
 30
0.0
 40
1.2295
  0
CIRCLE
  5
180
100
AcDbEntity
  8
D-STR
  6
CONTINUOUS
 62
       7
100
AcDbCircle
 10
-375.91316891
 20
-208.80435823
 30
0.0
 40
1.5
  0
LINE
  5
181
100
AcDbEntity
  8
D-BMK
  6
CENTER
 62
       2
100
AcDbLine
 10
-375.91316891
 20
-210.30435823
 30
0.0
 11
-375.91316891
 21
-207.30435823
 31
0.0
  0
LINE
  5
182
100
AcDbEntity
  8
D-BMK
  6
CENTER
 62
       2
100
AcDbLine
 10
-377.41316891
 20
-208.80435823
 30
0.0
 11
-374.41316891
 21
-208.80435823
 31
0.0
  0
ENDBLK
  5
183
100
AcDbEntity
  8
0
100
AcDbBlockEnd
  0
BLOCK
  5
184
100
AcDbEntity
  8
0
100
AcDbBlockBegin
  2
GROUP_24
 70
       0
 10
0.0
 20
0.0
 30
0.0
  3
GROUP_24
  1

  0
CIRCLE
  5
185
100
AcDbEntity
  8
D-STR
  6
CONTINUOUS
 62
       1
100
AcDbCircle
 10
-364.65483866
 20
-207.30435823
 30
0.0
 40
1.621
  0
CIRCLE
  5
186
100
AcDbEntity
  8
D-STR
  6
CONTINUOUS
 62
       7
100
AcDbCircle
 10
-364.65483866
 20
-207.30435823
 30
0.0
 40
2.0
  0
LINE
  5
187
100
AcDbEntity
  8
D-BMK
  6
CENTER
 62
       2
100
AcDbLine
 10
-364.65483866
 20
-209.30435823
 30
0.0
 11
-364.65483866
 21
-205.30435823
 31
0.0
  0
LINE
  5
188
100
AcDbEntity
  8
D-BMK
  6
CENTER
 62
       2
100
AcDbLine
 10
-366.65483866
 20
-207.30435823
 30
0.0
 11
-362.65483866
 21
-207.30435823
 31
0.0
  0
ENDBLK
  5
189
100
AcDbEntity
  8
0
100
AcDbBlockEnd
  0
BLOCK
  5
18A
100
AcDbEntity
  8
0
100
AcDbBlockBegin
  2
GROUP_25
 70
       0
 10
0.0
 20
0.0
 30
0.0
  3
GROUP_25
  1

  0
CIRCLE
  5
18B
100
AcDbEntity
  8
D-STR
  6
CONTINUOUS
 62
       1
100
AcDbCircle
 10
-351.37578247
 20
-205.80435823
 30
0.0
 40
2.067
  0
CIRCLE
  5
18C
100
AcDbEntity
  8
D-STR
  6
CONTINUOUS
 62
       7
100
AcDbCircle
 10
-351.37578247
 20
-205.80435823
 30
0.0
 40
2.5
  0
LINE
  5
18D
100
AcDbEntity
  8
D-BMK
  6
CENTER
 62
       2
100
AcDbLine
 10
-351.37578247
 20
-208.30435823
 30
0.0
 11
-351.37578247
 21
-203.30435823
 31
0.0
  0
LINE
  5
18E
100
AcDbEntity
  8
D-BMK
  6
CENTER
 62
       2
100
AcDbLine
 10
-353.87578247
 20
-205.80435823
 30
0.0
 11
-348.87578247
 21
-205.80435823
 31
0.0
  0
ENDBLK
  5
18F
100
AcDbEntity
  8
0
100
AcDbBlockEnd
  0
BLOCK
  5
190
100
AcDbEntity
  8
0
100
AcDbBlockBegin
  2
GROUP_26
 70
       0
 10
0.0
 20
0.0
 30
0.0
  3
GROUP_26
  1

  0
CIRCLE
  5
191
100
AcDbEntity
  8
D-STR
  6
CONTINUOUS
 62
       1
100
AcDbCircle
 10
-335.20997493
 20
-204.30435823
 30
0.0
 40
2.4585
  0
CIRCLE
  5
192
100
AcDbEntity
  8
D-STR
  6
CONTINUOUS
 62
       7
100
AcDbCircle
 10
-335.20997493
 20
-204.30435823
 30
0.0
 40
3.0
  0
LINE
  5
193
100
AcDbEntity
  8
D-BMK
  6
CENTER
 62
       2
100
AcDbLine
 10
-335.20997493
 20
-207.30435823
 30
0.0
 11
-335.20997493
 21
-201.30435823
 31
0.0
  0
LINE
  5
194
100
AcDbEntity
  8
D-BMK
  6
CENTER
 62
       2
100
AcDbLine
 10
-338.20997493
 20
-204.30435823
 30
0.0
 11
-332.20997493
 21
-204.30435823
 31
0.0
  0
ENDBLK
  5
195
100
AcDbEntity
  8
0
100
AcDbBlockEnd
  0
BLOCK
  5
196
100
AcDbEntity
  8
0
100
AcDbBlockBegin
  2
GROUP_27
 70
       0
 10
0.0
 20
0.0
 30
0.0
  3
GROUP_27
  1

  0
CIRCLE
  5
197
100
AcDbEntity
  8
D-STR
  6
CONTINUOUS
 62
       1
100
AcDbCircle
 10
-314.42536524
 20
-201.30435823
 30
0.0
 40
3.3235
  0
CIRCLE
  5
198
100
AcDbEntity
  8
D-STR
  6
CONTINUOUS
 62
       7
100
AcDbCircle
 10
-314.42536524
 20
-201.30435823
 30
0.0
 40
4.0
  0
LINE
  5
199
100
AcDbEntity
  8
D-BMK
  6
CENTER
 62
       2
100
AcDbLine
 10
-314.42536524
 20
-205.30435823
 30
0.0
 11
-314.42536524
 21
-197.30435823
 31
0.0
  0
LINE
  5
19A
100
AcDbEntity
  8
D-BMK
  6
CENTER
 62
       2
100
AcDbLine
 10
-318.42536524
 20
-201.30435823
 30
0.0
 11
-310.42536524
 21
-201.30435823
 31
0.0
  0
ENDBLK
  5
19B
100
AcDbEntity
  8
0
100
AcDbBlockEnd
  0
BLOCK
  5
19C
100
AcDbEntity
  8
0
100
AcDbBlockBegin
  2
GROUP_28
 70
       0
 10
0.0
 20
0.0
 30
0.0
  3
GROUP_28
  1

  0
CIRCLE
  5
19D
100
AcDbEntity
  8
D-STR
  6
CONTINUOUS
 62
       1
100
AcDbCircle
 10
-288.44460313
 20
-198.30435823
 30
0.0
 40
4.1875
  0
CIRCLE
  5
19E
100
AcDbEntity
  8
D-STR
  6
CONTINUOUS
 62
       7
100
AcDbCircle
 10
-288.44460313
 20
-198.30435823
 30
0.0
 40
5.0
  0
LINE
  5
19F
100
AcDbEntity
  8
D-BMK
  6
CENTER
 62
       2
100
AcDbLine
 10
-288.44460313
 20
-203.30435823
 30
0.0
 11
-288.44460313
 21
-193.30435823
 31
0.0
  0
LINE
  5
1A0
100
AcDbEntity
  8
D-BMK
  6
CENTER
 62
       2
100
AcDbLine
 10
-293.44460313
 20
-198.30435823
 30
0.0
 11
-283.44460313
 21
-198.30435823
 31
0.0
  0
ENDBLK
  5
1A1
100
AcDbEntity
  8
0
100
AcDbBlockEnd
  0
BLOCK
  5
1A2
100
AcDbEntity
  8
0
100
AcDbBlockBegin
  2
GROUP_29
 70
       0
 10
0.0
 20
0.0
 30
0.0
  3
GROUP_29
  1

  0
CIRCLE
  5
1A3
100
AcDbEntity
  8
D-STR
  6
CONTINUOUS
 62
       1
100
AcDbCircle
 10
-258.42238913
 20
-195.30435823
 30
0.0
 40
5.053
  0
CIRCLE
  5
1A4
100
AcDbEntity
  8
D-STR
  6
CONTINUOUS
 62
       7
100
AcDbCircle
 10
-258.42238913
 20
-195.30435823
 30
0.0
 40
6.0
  0
LINE
  5
1A5
100
AcDbEntity
  8
D-BMK
  6
CENTER
 62
       2
100
AcDbLine
 10
-258.42238913
 20
-201.30435823
 30
0.0
 11
-258.42238913
 21
-189.30435823
 31
0.0
  0
LINE
  5
1A6
100
AcDbEntity
  8
D-BMK
  6
CENTER
 62
       2
100
AcDbLine
 10
-264.42238913
 20
-195.30435823
 30
0.0
 11
-252.42238913
 21
-195.30435823
 31
0.0
  0
ENDBLK
  5
1A7
100
AcDbEntity
  8
0
100
AcDbBlockEnd
  0
BLOCK
  5
1A8
100
AcDbEntity
  8
0
100
AcDbBlockBegin
  2
GROUP_30
 70
       0
 10
0.0
 20
0.0
 30
0.0
  3
GROUP_30
  1

  0
CIRCLE
  5
1A9
100
AcDbEntity
  8
D-STR
  6
CONTINUOUS
 62
       1
100
AcDbCircle
 10
-220.31727136
 20
-189.30435823
 30
0.0
 40
6.9175
  0
CIRCLE
  5
1AA
100
AcDbEntity
  8
D-STR
  6
CONTINUOUS
 62
       7
100
AcDbCircle
 10
-220.31727136
 20
-189.30435823
 30
0.0
 40
8.0
  0
LINE
  5
1AB
100
AcDbEntity
  8
D-BMK
  6
CENTER
 62
       2
100
AcDbLine
 10
-220.31727136
 20
-197.30435823
 30
0.0
 11
-220.31727136
 21
-181.30435823
 31
0.0
  0
LINE
  5
1AC
100
AcDbEntity
  8
D-BMK
  6
CENTER
 62
       2
100
AcDbLine
 10
-228.31727136
 20
-189.30435823
 30
0.0
 11
-212.31727136
 21
-189.30435823
 31
0.0
  0
ENDBLK
  5
1AD
100
AcDbEntity
  8
0
100
AcDbBlockEnd
  0
BLOCK
  5
1AE
100
AcDbEntity
  8
0
100
AcDbBlockBegin
  2
GROUP_31
 70
       0
 10
0.0
 20
0.0
 30
0.0
  3
GROUP_31
  1

  0
CIRCLE
  5
1AF
100
AcDbEntity
  8
D-STR
  6
CONTINUOUS
 62
       1
100
AcDbCircle
 10
-171.81984875
 20
-183.30435823
 30
0.0
 40
8.647
  0
CIRCLE
  5
1B0
100
AcDbEntity
  8
D-STR
  6
CONTINUOUS
 62
       7
100
AcDbCircle
 10
-171.81984875
 20
-183.30435823
 30
0.0
 40
10.0
  0
LINE
  5
1B1
100
AcDbEntity
  8
D-BMK
  6
CENTER
 62
       2
100
AcDbLine
 10
-171.81984875
 20
-193.30435823
 30
0.0
 11
-171.81984875
 21
-173.30435823
 31
0.0
  0
LINE
  5
1B2
100
AcDbEntity
  8
D-BMK
  6
CENTER
 62
       2
100
AcDbLine
 10
-181.81984875
 20
-183.30435823
 30
0.0
 11
-161.81984875
 21
-183.30435823
 31
0.0
  0
ENDBLK
  5
1B3
100
AcDbEntity
  8
0
100
AcDbBlockEnd
  0
BLOCK
  5
1B4
100
AcDbEntity
  8
0
100
AcDbBlockBegin
  2
GROUP_32
 70
       0
 10
0.0
 20
0.0
 30
0.0
  3
GROUP_32
  1

  0
CIRCLE
  5
1B5
100
AcDbEntity
  8
D-STR
  6
CONTINUOUS
 62
       1
100
AcDbCircle
 10
-326.6297241
 20
185.0
 30
0.0
 40
10.376
  0
CIRCLE
  5
1B6
100
AcDbEntity
  8
D-STR
  6
CONTINUOUS
 62
       7
100
AcDbCircle
 10
-326.6297241
 20
185.0
 30
0.0
 40
12.0
  0
LINE
  5
1B7
100
AcDbEntity
  8
D-BMK
  6
CENTER
 62
       2
100
AcDbLine
 10
-326.6297241
 20
173.0
 30
0.0
 11
-326.6297241
 21
197.0
 31
0.0
  0
LINE
  5
1B8
100
AcDbEntity
  8
D-BMK
  6
CENTER
 62
       2
100
AcDbLine
 10
-338.6297241
 20
185.0
 30
0.0
 11
-314.6297241
 21
185.0
 31
0.0
  0
ENDBLK
  5
1B9
100
AcDbEntity
  8
0
100
AcDbBlockEnd
  0
BLOCK
  5
1BA
100
AcDbEntity
  8
0
100
AcDbBlockBegin
  2
GROUP_33
 70
       0
 10
0.0
 20
0.0
 30
0.0
  3
GROUP_33
  1

  0
CIRCLE
  5
1BB
100
AcDbEntity
  8
D-STR
  6
CONTINUOUS
 62
       1
100
AcDbCircle
 10
-252.72888965
 20
194.0
 30
0.0
 40
13.1055
  0
CIRCLE
  5
1BC
100
AcDbEntity
  8
D-STR
  6
CONTINUOUS
 62
       7
100
AcDbCircle
 10
-252.72888965
 20
194.0
 30
0.0
 40
15.0
  0
LINE
  5
1BD
100
AcDbEntity
  8
D-BMK
  6
CENTER
 62
       2
100
AcDbLine
 10
-252.72888965
 20
179.0
 30
0.0
 11
-252.72888965
 21
209.0
 31
0.0
  0
LINE
  5
1BE
100
AcDbEntity
  8
D-BMK
  6
CENTER
 62
       2
100
AcDbLine
 10
-267.72888965
 20
194.0
 30
0.0
 11
-237.72888965
 21
194.0
 31
0.0
  0
ENDBLK
  5
1BF
100
AcDbEntity
  8
0
100
AcDbBlockEnd
  0
BLOCK
  5
1C0
100
AcDbEntity
  8
0
100
AcDbBlockBegin
  2
GROUP_34
 70
       0
 10
0.0
 20
0.0
 30
0.0
  3
GROUP_34
  1

  0
CIRCLE
  5
1C1
100
AcDbEntity
  8
D-STR
  6
CONTINUOUS
 62
       1
100
AcDbCircle
 10
-162.66224765
 20
203.0
 30
0.0
 40
15.835
  0
CIRCLE
  5
1C2
100
AcDbEntity
  8
D-STR
  6
CONTINUOUS
 62
       7
100
AcDbCircle
 10
-162.66224765
 20
203.0
 30
0.0
 40
18.0
  0
LINE
  5
1C3
100
AcDbEntity
  8
D-BMK
  6
CENTER
 62
       2
100
AcDbLine
 10
-162.66224765
 20
185.0
 30
0.0
 11
-162.66224765
 21
221.0
 31
0.0
  0
LINE
  5
1C4
100
AcDbEntity
  8
D-BMK
  6
CENTER
 62
       2
100
AcDbLine
 10
-180.66224765
 20
203.0
 30
0.0
 11
-144.66224765
 21
203.0
 31
0.0
  0
ENDBLK
  5
1C5
100
AcDbEntity
  8
0
100
AcDbBlockEnd
  0
BLOCK
  5
1C6
100
AcDbEntity
  8
0
100
AcDbBlockBegin
  2
GROUP_35
 70
       0
 10
0.0
 20
0.0
 30
0.0
  3
GROUP_35
  1

  0
CIRCLE
  5
1C7
100
AcDbEntity
  8
D-STR
  6
CONTINUOUS
 62
       1
100
AcDbCircle
 10
-55.85244785
 20
212.0
 30
0.0
 40
18.5645
  0
CIRCLE
  5
1C8
100
AcDbEntity
  8
D-STR
  6
CONTINUOUS
 62
       7
100
AcDbCircle
 10
-55.85244785
 20
212.0
 30
0.0
 40
21.0
  0
LINE
  5
1C9
100
AcDbEntity
  8
D-BMK
  6
CENTER
 62
       2
100
AcDbLine
 10
-55.85244785
 20
191.0
 30
0.0
 11
-55.85244785
 21
233.0
 31
0.0
  0
LINE
  5
1CA
100
AcDbEntity
  8
D-BMK
  6
CENTER
 62
       2
100
AcDbLine
 10
-76.85244785
 20
212.0
 30
0.0
 11
-34.85244785
 21
212.0
 31
0.0
  0
ENDBLK
  5
1CB
100
AcDbEntity
  8
0
100
AcDbBlockEnd
  0
BLOCK
  5
1CC
100
AcDbEntity
  8
0
100
AcDbBlockBegin
  2
GROUP_36
 70
       0
 10
0.0
 20
0.0
 30
0.0
  3
GROUP_36
  1

  0
CIRCLE
  5
1CD
100
AcDbEntity
  8
D-STR
  6
CONTINUOUS
 62
       1
100
AcDbCircle
 10
68.27786002
 20
221.0
 30
0.0
 40
21.2935
  0
CIRCLE
  5
1CE
100
AcDbEntity
  8
D-STR
  6
CONTINUOUS
 62
       7
100
AcDbCircle
 10
68.27786002
 20
221.0
 30
0.0
 40
24.0
  0
LINE
  5
1CF
100
AcDbEntity
  8
D-BMK
  6
CENTER
 62
       2
100
AcDbLine
 10
68.27786002
 20
197.0
 30
0.0
 11
68.27786002
 21
245.0
 31
0.0
  0
LINE
  5
1D0
100
AcDbEntity
  8
D-BMK
  6
CENTER
 62
       2
100
AcDbLine
 10
44.27786002
 20
221.0
 30
0.0
 11
92.27786002
 21
221.0
 31
0.0
  0
ENDBLK
  5
1D1
100
AcDbEntity
  8
0
100
AcDbBlockEnd
  0
BLOCK
  5
1D2
100
AcDbEntity
  8
0
100
AcDbBlockBegin
  2
GROUP_37
 70
       0
 10
0.0
 20
0.0
 30
0.0
  3
GROUP_37
  1

  0
CIRCLE
  5
1D3
100
AcDbEntity
  8
D-STR
  6
CONTINUOUS
 62
       1
100
AcDbCircle
 10
209.72867597
 20
233.0
 30
0.0
 40
25.023
  0
CIRCLE
  5
1D4
100
AcDbEntity
  8
D-STR
  6
CONTINUOUS
 62
       7
100
AcDbCircle
 10
209.72867597
 20
233.0
 30
0.0
 40
28.0
  0
LINE
  5
1D5
100
AcDbEntity
  8
D-BMK
  6
CENTER
 62
       2
100
AcDbLine
 10
209.72867597
 20
205.0
 30
0.0
 11
209.72867597
 21
261.0
 31
0.0
  0
LINE
  5
1D6
100
AcDbEntity
  8
D-BMK
  6
CENTER
 62
       2
100
AcDbLine
 10
181.72867597
 20
233.0
 30
0.0
 11
237.72867597
 21
233.0
 31
0.0
  0
ENDBLK
  5
1D7
100
AcDbEntity
  8
0
100
AcDbBlockEnd
  0
BLOCK
  5
1D8
100
AcDbEntity
  8
0
100
AcDbBlockBegin
  2
GROUP_38
 70
       0
 10
0.0
 20
0.0
 30
0.0
  3
GROUP_38
  1

  0
CIRCLE
  5
1D9
100
AcDbEntity
  8
D-STR
  6
CONTINUOUS
 62
       1
100
AcDbCircle
 10
368.5
 20
245.0
 30
0.0
 40
28.7525
  0
CIRCLE
  5
1DA
100
AcDbEntity
  8
D-STR
  6
CONTINUOUS
 62
       7
100
AcDbCircle
 10
368.5
 20
245.0
 30
0.0
 40
32.0
  0
LINE
  5
1DB
100
AcDbEntity
  8
D-BMK
  6
CENTER
 62
       2
100
AcDbLine
 10
368.5
 20
213.0
 30
0.0
 11
368.5
 21
277.0
 31
0.0
  0
LINE
  5
1DC
100
AcDbEntity
  8
D-BMK
  6
CENTER
 62
       2
100
AcDbLine
 10
336.5
 20
245.0
 30
0.0
 11
400.5
 21
245.0
 31
0.0
  0
ENDBLK
  5
1DD
100
AcDbEntity
  8
0
100
AcDbBlockEnd
  0
ENDSEC
  0
SECTION
  2
ENTITIES
  0
INSERT
  5
1DE
100
AcDbEntity
  8
0
  6
CONTINUOUS
100
AcDbBlockReference
  2
GROUP_1
 10
0.0
 20
0.0
 30
0.0
  0
INSERT
  5
1DF
100
AcDbEntity
  8
0
  6
CONTINUOUS
100
AcDbBlockReference
  2
GROUP_2
 10
0.0
 20
0.0
 30
0.0
  0
INSERT
  5
1E0
100
AcDbEntity
  8
0
  6
CONTINUOUS
100
AcDbBlockReference
  2
GROUP_3
 10
0.0
 20
0.0
 30
0.0
  0
INSERT
  5
1E1
100
AcDbEntity
  8
0
  6
CONTINUOUS
100
AcDbBlockReference
  2
GROUP_4
 10
0.0
 20
0.0
 30
0.0
  0
INSERT
  5
1E2
100
AcDbEntity
  8
0
  6
CONTINUOUS
100
AcDbBlockReference
  2
GROUP_5
 10
0.0
 20
0.0
 30
0.0
  0
INSERT
  5
1E3
100
AcDbEntity
  8
0
  6
CONTINUOUS
100
AcDbBlockReference
  2
GROUP_6
 10
0.0
 20
0.0
 30
0.0
  0
INSERT
  5
1E4
100
AcDbEntity
  8
0
  6
CONTINUOUS
100
AcDbBlockReference
  2
GROUP_7
 10
0.0
 20
0.0
 30
0.0
  0
INSERT
  5
1E5
100
AcDbEntity
  8
0
  6
CONTINUOUS
100
AcDbBlockReference
  2
GROUP_8
 10
0.0
 20
0.0
 30
0.0
  0
INSERT
  5
1E6
100
AcDbEntity
  8
0
  6
CONTINUOUS
100
AcDbBlockReference
  2
GROUP_9
 10
0.0
 20
0.0
 30
0.0
  0
INSERT
  5
1E7
100
AcDbEntity
  8
0
  6
CONTINUOUS
100
AcDbBlockReference
  2
GROUP_10
 10
0.0
 20
0.0
 30
0.0
  0
INSERT
  5
1E8
100
AcDbEntity
  8
0
  6
CONTINUOUS
100
AcDbBlockReference
  2
GROUP_11
 10
0.0
 20
0.0
 30
0.0
  0
INSERT
  5
1E9
100
AcDbEntity
  8
0
  6
CONTINUOUS
100
AcDbBlockReference
  2
GROUP_12
 10
0.0
 20
0.0
 30
0.0
  0
INSERT
  5
1EA
100
AcDbEntity
  8
0
  6
CONTINUOUS
100
AcDbBlockReference
  2
GROUP_13
 10
0.0
 20
0.0
 30
0.0
  0
INSERT
  5
1EB
100
AcDbEntity
  8
0
  6
CONTINUOUS
100
AcDbBlockReference
  2
GROUP_14
 10
0.0
 20
0.0
 30
0.0
  0
INSERT
  5
1EC
100
AcDbEntity
  8
0
  6
CONTINUOUS
100
AcDbBlockReference
  2
GROUP_15
 10
0.0
 20
0.0
 30
0.0
  0
INSERT
  5
1ED
100
AcDbEntity
  8
0
  6
CONTINUOUS
100
AcDbBlockReference
  2
GROUP_16
 10
0.0
 20
0.0
 30
0.0
  0
INSERT
  5
1EE
100
AcDbEntity
  8
0
  6
CONTINUOUS
100
AcDbBlockReference
  2
GROUP_17
 10
0.0
 20
0.0
 30
0.0
  0
INSERT
  5
1EF
100
AcDbEntity
  8
0
  6
CONTINUOUS
100
AcDbBlockReference
  2
GROUP_18
 10
0.0
 20
0.0
 30
0.0
  0
INSERT
  5
1F0
100
AcDbEntity
  8
0
  6
CONTINUOUS
100
AcDbBlockReference
  2
GROUP_19
 10
0.0
 20
0.0
 30
0.0
  0
INSERT
  5
1F1
100
AcDbEntity
  8
0
  6
CONTINUOUS
100
AcDbBlockReference
  2
GROUP_20
 10
0.0
 20
0.0
 30
0.0
  0
INSERT
  5
1F2
100
AcDbEntity
  8
0
  6
CONTINUOUS
100
AcDbBlockReference
  2
GROUP_21
 10
0.0
 20
0.0
 30
0.0
  0
INSERT
  5
1F3
100
AcDbEntity
  8
0
  6
CONTINUOUS
100
AcDbBlockReference
  2
GROUP_22
 10
0.0
 20
0.0
 30
0.0
  0
INSERT
  5
1F4
100
AcDbEntity
  8
0
  6
CONTINUOUS
100
AcDbBlockReference
  2
GROUP_23
 10
0.0
 20
0.0
 30
0.0
  0
INSERT
  5
1F5
100
AcDbEntity
  8
0
  6
CONTINUOUS
100
AcDbBlockReference
  2
GROUP_24
 10
0.0
 20
0.0
 30
0.0
  0
INSERT
  5
1F6
100
AcDbEntity
  8
0
  6
CONTINUOUS
100
AcDbBlockReference
  2
GROUP_25
 10
0.0
 20
0.0
 30
0.0
  0
INSERT
  5
1F7
100
AcDbEntity
  8
0
  6
CONTINUOUS
100
AcDbBlockReference
  2
GROUP_26
 10
0.0
 20
0.0
 30
0.0
  0
INSERT
  5
1F8
100
AcDbEntity
  8
0
  6
CONTINUOUS
100
AcDbBlockReference
  2
GROUP_27
 10
0.0
 20
0.0
 30
0.0
  0
INSERT
  5
1F9
100
AcDbEntity
  8
0
  6
CONTINUOUS
100
AcDbBlockReference
  2
GROUP_28
 10
0.0
 20
0.0
 30
0.0
  0
INSERT
  5
1FA
100
AcDbEntity
  8
0
  6
CONTINUOUS
100
AcDbBlockReference
  2
GROUP_29
 10
0.0
 20
0.0
 30
0.0
  0
INSERT
  5
1FB
100
AcDbEntity
  8
0
  6
CONTINUOUS
100
AcDbBlockReference
  2
GROUP_30
 10
0.0
 20
0.0
 30
0.0
  0
INSERT
  5
1FC
100
AcDbEntity
  8
0
  6
CONTINUOUS
100
AcDbBlockReference
  2
GROUP_31
 10
0.0
 20
0.0
 30
0.0
  0
INSERT
  5
1FD
100
AcDbEntity
  8
0
  6
CONTINUOUS
100
AcDbBlockReference
  2
GROUP_32
 10
0.0
 20
0.0
 30
0.0
  0
INSERT
  5
1FE
100
AcDbEntity
  8
0
  6
CONTINUOUS
100
AcDbBlockReference
  2
GROUP_33
 10
0.0
 20
0.0
 30
0.0
  0
INSERT
  5
1FF
100
AcDbEntity
  8
0
  6
CONTINUOUS
100
AcDbBlockReference
  2
GROUP_34
 10
0.0
 20
0.0
 30
0.0
  0
INSERT
  5
200
100
AcDbEntity
  8
0
  6
CONTINUOUS
100
AcDbBlockReference
  2
GROUP_35
 10
0.0
 20
0.0
 30
0.0
  0
INSERT
  5
201
100
AcDbEntity
  8
0
  6
CONTINUOUS
100
AcDbBlockReference
  2
GROUP_36
 10
0.0
 20
0.0
 30
0.0
  0
INSERT
  5
202
100
AcDbEntity
  8
0
  6
CONTINUOUS
100
AcDbBlockReference
  2
GROUP_37
 10
0.0
 20
0.0
 30
0.0
  0
INSERT
  5
203
100
AcDbEntity
  8
0
  6
CONTINUOUS
100
AcDbBlockReference
  2
GROUP_38
 10
0.0
 20
0.0
 30
0.0
  0
TEXT
  5
204
100
AcDbEntity
  8
D-STR-TXT
 62
       7
100
AcDbText
 10
-400.5
 20
273.5
 30
0.0
 40
3.5
  1
タップ止まり穴並目第1選択
 41
1.2
 72
       5
 11
-348.0
 21
273.5
 31
0.0
100
AcDbText
  0
TEXT
  5
205
100
AcDbEntity
  8
D-STR-TXT
 62
       7
100
AcDbText
 10
-400.5
 20
269.0
 30
0.0
 40
3.5
  1
M1.6,M2,M2.5,M3,M4,M5,M6,M8,M10,M12,M16,M20,M24,M30,M36,M42,M48,M56,M64
 41
1.2
 72
       5
 11
-251.4
 21
269.0
 31
0.0
100
AcDbText
  0
ENDSEC
  0
SECTION
  2
OBJECTS
  0
DICTIONARY
  5
19
100
AcDbDictionary
  3
ACAD_GROUP
350
1A
  3
ACAD_MLINESTYLE
350
1B
  0
DICTIONARY
  5
1A
102
{ACAD_REACTORS
330
19
102
}
100
AcDbDictionary
  0
DICTIONARY
  5
1B
102
{ACAD_REACTORS
330
19
102
}
100
AcDbDictionary
  3
STANDARD
350
1C
  0
MLINESTYLE
  5
1C
102
{ACAD_REACTORS
330
1B
102
}
100
AcDbMlineStyle
  2
STANDARD
 70
       0
  3

 62
       0
 51
90.0
 52
90.0
 71
       2
 49
0.5
 62
     256
  6
BYLAYER
 49
-0.5
 62
     256
  6
BYLAYER
  0
ENDSEC
  0
EOF
