  0
SECTION
  2
HEADER
  9
$ACADVER
  1
AC1014
  9
$ACADMAINTVER
 70
       0
  9
$DWGCODEPAGE
  3
ANSI_932
  9
$INSBASE
 10
0.0
 20
0.0
 30
0.0
  9
$EXTMIN
 10
-416.52
 20
-288.08
 30
0.0
  9
$EXTMAX
 10
416.52
 20
288.08
 30
0.0
  9
$LIMMIN
 10
-442.5525
 20
-306.085
  9
$LIMMAX
 10
442.5525
 20
306.085
  9
$ORTHOMODE
 70
       0
  9
$REGENMODE
 70
       1
  9
$FILLMODE
 70
       1
  9
$QTEXTMODE
 70
       0
  9
$MIRRTEXT
 70
       1
  9
$DRAGMODE
 70
       2
  9
$LTSCALE
 40
1.0
  9
$OSMODE
 70
       0
  9
$ATTMODE
 70
       1
  9
$TEXTSIZE
 40
0.2
  9
$TRACEWID
 40
0.05
  9
$TEXTSTYLE
  7
STANDARD
  9
$CLAYER
  8
0
  9
$CELTYPE
  6
CONTINUOUS
  9
$CECOLOR
 62
     256
  9
$CELTSCALE
 40
1.0
  9
$DELOBJ
 70
       1
  9
$DISPSILH
 70
       0
  9
$DIMSCALE
 40
1.0
  9
$DIMASZ
 40
0.18
  9
$DIMEXO
 40
0.0625
  9
$DIMDLI
 40
0.38
  9
$DIMRND
 40
0.0
  9
$DIMDLE
 40
0.0
  9
$DIMEXE
 40
0.18
  9
$DIMTP
 40
0.0
  9
$DIMTM
 40
0.0
  9
$DIMTXT
 40
0.18
  9
$DIMCEN
 40
0.09
  9
$DIMTSZ
 40
0.0
  9
$DIMTOL
 70
       0
  9
$DIMLIM
 70
       0
  9
$DIMTIH
 70
       1
  9
$DIMTOH
 70
       1
  9
$DIMSE1
 70
       0
  9
$DIMSE2
 70
       0
  9
$DIMTAD
 70
       0
  9
$DIMZIN
 70
       0
  9
$DIMBLK
  1

  9
$DIMASO
 70
       1
  9
$DIMSHO
 70
       1
  9
$DIMPOST
  1

  9
$DIMAPOST
  1

  9
$DIMALT
 70
       0
  9
$DIMALTD
 70
       2
  9
$DIMALTF
 40
25.4
  9
$DIMLFAC
 40
1.0
  9
$DIMTOFL
 70
       0
  9
$DIMTVP
 40
0.0
  9
$DIMTIX
 70
       0
  9
$DIMSOXD
 70
       0
  9
$DIMSAH
 70
       0
  9
$DIMBLK1
  1

  9
$DIMBLK2
  1

  9
$DIMSTYLE
  2
STANDARD
  9
$DIMCLRD
 70
       0
  9
$DIMCLRE
 70
       0
  9
$DIMCLRT
 70
       0
  9
$DIMTFAC
 40
1.0
  9
$DIMGAP
 40
0.09
  9
$DIMJUST
 70
       0
  9
$DIMSD1
 70
       0
  9
$DIMSD2
 70
       0
  9
$DIMTOLJ
 70
       1
  9
$DIMTZIN
 70
       0
  9
$DIMALTZ
 70
       0
  9
$DIMALTTZ
 70
       0
  9
$DIMFIT
 70
       3
  9
$DIMUPT
 70
       0
  9
$DIMUNIT
 70
       2
  9
$DIMDEC
 70
       4
  9
$DIMTDEC
 70
       4
  9
$DIMALTU
 70
       2
  9
$DIMALTTD
 70
       2
  9
$DIMTXSTY
  7
STANDARD
  9
$DIMAUNIT
 70
       0
  9
$LUNITS
 70
       2
  9
$LUPREC
 70
       4
  9
$SKETCHINC
 40
0.1
  9
$FILLETRAD
 40
0.0
  9
$AUNITS
 70
       0
  9
$AUPREC
 70
       0
  9
$MENU
  1
acad
  9
$ELEVATION
 40
0.0
  9
$PELEVATION
 40
0.0
  9
$THICKNESS
 40
0.0
  9
$LIMCHECK
 70
       0
  9
$BLIPMODE
 70
       1
  9
$CHAMFERA
 40
0.0
  9
$CHAMFERB
 40
0.0
  9
$CHAMFERC
 40
0.0
  9
$CHAMFERD
 40
0.0
  9
$SKPOLY
 70
       0
  9
$TDCREATE
 40
0.000000000
  9
$TDUPDATE
 40
0.000000000
  9
$TDINDWG
 40
0.0000000000
  9
$TDUSRTIMER
 40
0.0000000000
  9
$USRTIMER
 70
       1
  9
$ANGBASE
 50
0.0
  9
$ANGDIR
 70
       0
  9
$PDMODE
 70
       0
  9
$PDSIZE
 40
1.0
  9
$PLINEWID
 40
0.0
  9
$COORDS
 70
       1
  9
$SPLFRAME
 70
       0
  9
$SPLINETYPE
 70
       6
  9
$SPLINESEGS
 70
       8
  9
$ATTDIA
 70
       0
  9
$ATTREQ
 70
       1
  9
$HANDLING
 70
       1
  9
$HANDSEED
  5
35F
  9
$SURFTAB1
 70
       6
  9
$SURFTAB2
 70
       6
  9
$SURFTYPE
 70
       6
  9
$SURFU
 70
       6
  9
$SURFV
 70
       6
  9
$UCSNAME
  2

  9
$UCSORG
 10
0.0
 20
0.0
 30
0.0
  9
$UCSXDIR
 10
1.0
 20
0.0
 30
0.0
  9
$UCSYDIR
 10
0.0
 20
1.0
 30
0.0
  9
$PUCSNAME
  2

  9
$PUCSORG
 10
0.0
 20
0.0
 30
0.0
  9
$PUCSXDIR
 10
1.0
 20
0.0
 30
0.0
  9
$PUCSYDIR
 10
0.0
 20
1.0
 30
0.0
  9
$USERI1
 70
       0
  9
$USERI2
 70
       0
  9
$USERI3
 70
       0
  9
$USERI4
 70
       0
  9
$USERI5
 70
       0
  9
$USERR1
 40
0.0
  9
$USERR2
 40
0.0
  9
$USERR3
 40
0.0
  9
$USERR4
 40
0.0
  9
$USERR5
 40
0.0
  9
$WORLDVIEW
 70
       1
  9
$SHADEDGE
 70
       3
  9
$SHADEDIF
 70
      70
  9
$TILEMODE
 70
       1
  9
$MAXACTVP
 70
      16
  9
$PINSBASE
 10
0.0
 20
0.0
 30
0.0
  9
$PLIMCHECK
 70
       0
  9
$PEXTMIN
 10
1.00000000E+20
 20
1.00000000E+20
 30
1.00000000E+20
  9
$PEXTMAX
 10
-1.00000000E+20
 20
-1.00000000E+20
 30
-1.00000000E+20
  9
$PLIMMIN
 10
0.0
 20
0.0
  9
$PLIMMAX
 10
12.0
 20
9.0
  9
$UNITMODE
 70
       0
  9
$VISRETAIN
 70
       0
  9
$PLINEGEN
 70
       1
  9
$PSLTSCALE
 70
       0
  9
$TREEDEPTH
 70
    3020
  9
$PICKSTYLE
 70
       1
  9
$CMLSTYLE
  2
STANDARD
  9
$CMLJUST
 70
       0
  9
$CMLSCALE
 40
1.0
  9
$PROXYGRAPHICS
 70
       0
  9
$MEASUREMENT
 70
       0
  0
ENDSEC
  0
SECTION
  2
CLASSES
  0
CLASS
  1
LWPOLYLINE
  2
AcDbPolyline
  3
"AutoCAD"
 90
        0
280
       0
281
       1
  0
CLASS
  1
IMAGE
  2
AcDbRasterImage
  3
ISM
 90
      127
280
       0
281
       1
  0
CLASS
  1
OLE2FRAME
  2
AcDbOle2Frame
  3
""
 90
        0
280
       0
281
       1
  0
CLASS
  1
HATCH
  2
AcDbHatch
  3
"ACAD_SEDONA"
 90
        0
280
       0
281
       1
  0
CLASS
  1
DICTIONARYVAR
  2
AcDbDictionaryVar
  3
"AutoCAD"
 90
        0
280
       0
281
       0
  0
CLASS
  1
RASTERVARIABLES
  2
AcDbRasterVariables
  3
ISM
 90
        0
280
       0
281
       0
  0
CLASS
  1
IMAGEDEF
  2
AcDbRasterImageDef
  3
ISM
 90
        0
280
       0
281
       0
  0
CLASS
  1
IMAGEDEF_REACTOR
  2
AcDbRasterImageDefReactor
  3
ISM
 90
        1
280
       0
281
       0
  0
CLASS
  1
IDBUFFER
  2
AcDbIdBuffer
  3
"Acad"
 90
        0
280
       0
281
       0
  0
CLASS
  1
SPATIAL_FILTER
  2
AcDbSpatialFilter
  3
"Acad"
 90
        0
280
       0
281
       0
  0
CLASS
  1
XRECORD
  2
AcDbXrecord
  3
"<Built In>"
 90
        0
280
       0
281
       0
  0
CLASS
  1
SORTENTSTABLE
  2
AcDbSortentsTable
  3
"AutoCAD"
 90
        0
280
       0
281
       0
  0
CLASS
  1
LAYER_INDEX
  2
AcDbLayerIndex
  3
"Acad"
 90
        0
280
       0
281
       0
  0
CLASS
  1
SPATIAL_INDEX
  2
AcDbSpatialIndex
  3
"Acad"
 90
        0
280
       0
281
       0
  0
CLASS
  1
OBJECT_PTR
  2
CAseDLPNTableRecord
  3
"ASE-LPNTableRecord"
 90
        1
280
       0
281
       0
  0
CLASS
  1
LAYOUT
  2
AcDbLayout
  3
"AutoCAD 2000"
 90
        1
280
       0
281
       0
  0
CLASS
  1
PLOTSETTINGS
  2
AcDbPlotSettings
  3
"AutoCAD 2000"
 90
        1
280
       0
281
       0
  0
CLASS
  1
ACDBDICTIONARYWDFLT
  2
AcDbDictionaryWithDefault
  3
"AutoCAD 2000"
 90
        1
280
       0
281
       0
  0
CLASS
  1
ACDBPLACEHOLDER
  2
AcDbPlaceHolder
  3
"AutoCAD 2000"
 90
        1
280
       0
281
       0
  0
CLASS
  1
VBA_PROJECT
  2
AcDbVbaProject
  3
"acadvba"
 90
        1
280
       0
281
       0
  0
CLASS
  1
WIPEOUT
  2
AcDbWipeout
  3
WipeOut|AutoCAD Express Tool|expresstools@autodesk.com
 90
      127
280
       0
281
       1
  0
CLASS
  1
WIPEOUTVARIABLES
  2
AcDbWipeoutVariables
  3
WipeOut|AutoCAD Express Tool|expresstools@autodesk.com
 90
        0
280
       0
281
       0
  0
CLASS
  1
RTEXT
  2
RText
  3
RText|AutoCAD Express Tool|expresstools@autodesk.com
 90
        0
280
       0
281
       1
  0
CLASS
  1
ARCALIGNEDTEXT
  2
AcDbArcAlignedText
  3
ATEXT|AutoCAD Express Tool|expresstools@autodesk.com
 90
        0
280
       0
281
       1
  0
ENDSEC
  0
SECTION
  2
TABLES
  0
TABLE
  2
VPORT
  5
7
100
AcDbSymbolTable
 70
       1
  0
VPORT
  5
15
100
AcDbSymbolTableRecord
100
AcDbViewportTableRecord
  2
*ACTIVE
 70
       0
 10
0.0
 20
0.0
 11
1.0
 21
1.0
 12
0.0
 22
0.0
 13
0.0
 23
0.0
 14
1.0
 24
1.0
 15
0.0
 25
0.0
 16
0.0
 26
0.0
 36
1.0
 17
0.0
 27
0.0
 37
0.0
 40
612.17
 41
1.44584838
 42
50.0
 43
0.0
 44
0.0
 50
0.0
 51
0.0
 71
       0
 72
     100
 73
       1
 74
       1
 75
       0
 76
       0
 77
       0
 78
       0
  0
ENDTAB
  0
TABLE
  2
LTYPE
  5
4
100
AcDbSymbolTable
 70
      30
  0
LTYPE
  5
11
100
AcDbSymbolTableRecord
100
AcDbLinetypeTableRecord
  2
BYBLOCK
 70
      64
  3

 72
      65
 73
       0
 40
0.0
  0
LTYPE
  5
12
100
AcDbSymbolTableRecord
100
AcDbLinetypeTableRecord
  2
BYLAYER
 70
      64
  3

 72
      65
 73
       0
 40
0.0
  0
LTYPE
  5
13
100
AcDbSymbolTableRecord
100
AcDbLinetypeTableRecord
  2
CONTINUOUS
 70
      64
  3
Solid line
 72
      65
 73
       0
 40
0.0
  0
LTYPE
  5
1D
100
AcDbSymbolTableRecord
100
AcDbLinetypeTableRecord
  2
HIDDENX2
 70
      64
  3
CADPAC LINETYPE
 72
      65
 73
       2
 40
33.64
 49
25.23
 74
       0
 49
-8.41
 74
       0
  0
LTYPE
  5
1E
100
AcDbSymbolTableRecord
100
AcDbLinetypeTableRecord
  2
HIDDEN
 70
      64
  3
CADPAC LINETYPE
 72
      65
 73
       2
 40
25.23
 49
16.82
 74
       0
 49
-8.41
 74
       0
  0
LTYPE
  5
1F
100
AcDbSymbolTableRecord
100
AcDbLinetypeTableRecord
  2
HIDDEN2
 70
      64
  3
CADPAC LINETYPE
 72
      65
 73
       2
 40
21.025
 49
12.615
 74
       0
 49
-8.41
 74
       0
  0
LTYPE
  5
20
100
AcDbSymbolTableRecord
100
AcDbLinetypeTableRecord
  2
DASHED
 70
      64
  3
CADPAC LINETYPE
 72
      65
 73
       2
 40
25.23
 49
16.82
 74
       0
 49
-8.41
 74
       0
  0
LTYPE
  5
21
100
AcDbSymbolTableRecord
100
AcDbLinetypeTableRecord
  2
DASHED2
 70
      64
  3
CADPAC LINETYPE
 72
      65
 73
       2
 40
18.9225
 49
12.615
 74
       0
 49
-6.3075
 74
       0
  0
LTYPE
  5
22
100
AcDbSymbolTableRecord
100
AcDbLinetypeTableRecord
  2
DASHEDX2
 70
      64
  3
CADPAC LINETYPE
 72
      65
 73
       2
 40
37.845
 49
25.23
 74
       0
 49
-12.615
 74
       0
  0
LTYPE
  5
23
100
AcDbSymbolTableRecord
100
AcDbLinetypeTableRecord
  2
DOTX2
 70
      64
  3
CADPAC LINETYPE
 72
      65
 73
       2
 40
10.5125
 49
0.0
 74
       0
 49
-10.5125
 74
       0
  0
LTYPE
  5
24
100
AcDbSymbolTableRecord
100
AcDbLinetypeTableRecord
  2
DOT
 70
      64
  3
CADPAC LINETYPE
 72
      65
 73
       2
 40
8.41
 49
0.0
 74
       0
 49
-8.41
 74
       0
  0
LTYPE
  5
25
100
AcDbSymbolTableRecord
100
AcDbLinetypeTableRecord
  2
DOT2
 70
      64
  3
CADPAC LINETYPE
 72
      65
 73
       2
 40
6.3075
 49
0.0
 74
       0
 49
-6.3075
 74
       0
  0
LTYPE
  5
26
100
AcDbSymbolTableRecord
100
AcDbLinetypeTableRecord
  2
CENTERX2
 70
      64
  3
CADPAC LINETYPE
 72
      65
 73
       4
 40
50.46
 49
21.025
 74
       0
 49
-10.5125
 74
       0
 49
8.41
 74
       0
 49
-10.5125
 74
       0
  0
LTYPE
  5
27
100
AcDbSymbolTableRecord
100
AcDbLinetypeTableRecord
  2
CENTER
 70
      64
  3
CADPAC LINETYPE
 72
      65
 73
       4
 40
38.686
 49
16.82
 74
       0
 49
-8.41
 74
       0
 49
5.046
 74
       0
 49
-8.41
 74
       0
  0
LTYPE
  5
28
100
AcDbSymbolTableRecord
100
AcDbLinetypeTableRecord
  2
CENTER2
 70
      64
  3
CADPAC LINETYPE
 72
      65
 73
       4
 40
26.912
 49
12.615
 74
       0
 49
-6.3075
 74
       0
 49
1.682
 74
       0
 49
-6.3075
 74
       0
  0
LTYPE
  5
29
100
AcDbSymbolTableRecord
100
AcDbLinetypeTableRecord
  2
DASHDOTX2
 70
      64
  3
CADPAC LINETYPE
 72
      65
 73
       4
 40
42.05
 49
21.025
 74
       0
 49
-10.5125
 74
       0
 49
0.0
 74
       0
 49
-10.5125
 74
       0
  0
LTYPE
  5
2A
100
AcDbSymbolTableRecord
100
AcDbLinetypeTableRecord
  2
DASHDOT
 70
      64
  3
CADPAC LINETYPE
 72
      65
 73
       4
 40
33.64
 49
16.82
 74
       0
 49
-8.41
 74
       0
 49
0.0
 74
       0
 49
-8.41
 74
       0
  0
LTYPE
  5
2B
100
AcDbSymbolTableRecord
100
AcDbLinetypeTableRecord
  2
DASHDOT2
 70
      64
  3
CADPAC LINETYPE
 72
      65
 73
       4
 40
25.23
 49
12.615
 74
       0
 49
-6.3075
 74
       0
 49
0.0
 74
       0
 49
-6.3075
 74
       0
  0
LTYPE
  5
2C
100
AcDbSymbolTableRecord
100
AcDbLinetypeTableRecord
  2
DIVIDEX2
 70
      64
  3
CADPAC LINETYPE
 72
      65
 73
       6
 40
52.5625
 49
21.025
 74
       0
 49
-10.5125
 74
       0
 49
0.0
 74
       0
 49
-10.5125
 74
       0
 49
0.0
 74
       0
 49
-10.5125
 74
       0
  0
LTYPE
  5
2D
100
AcDbSymbolTableRecord
100
AcDbLinetypeTableRecord
  2
DIVIDE
 70
      64
  3
CADPAC LINETYPE
 72
      65
 73
       6
 40
42.05
 49
16.82
 74
       0
 49
-8.41
 74
       0
 49
0.0
 74
       0
 49
-8.41
 74
       0
 49
0.0
 74
       0
 49
-8.41
 74
       0
  0
LTYPE
  5
2E
100
AcDbSymbolTableRecord
100
AcDbLinetypeTableRecord
  2
DIVIDE2
 70
      64
  3
CADPAC LINETYPE
 72
      65
 73
       6
 40
31.5375
 49
12.615
 74
       0
 49
-6.3075
 74
       0
 49
0.0
 74
       0
 49
-6.3075
 74
       0
 49
0.0
 74
       0
 49
-6.3075
 74
       0
  0
LTYPE
  5
2F
100
AcDbSymbolTableRecord
100
AcDbLinetypeTableRecord
  2
BORDERX2
 70
      64
  3
CADPAC LINETYPE
 72
      65
 73
       6
 40
73.5875
 49
21.025
 74
       0
 49
-10.5125
 74
       0
 49
21.025
 74
       0
 49
-10.5125
 74
       0
 49
0.0
 74
       0
 49
-10.5125
 74
       0
  0
LTYPE
  5
30
100
AcDbSymbolTableRecord
100
AcDbLinetypeTableRecord
  2
BORDER
 70
      64
  3
CADPAC LINETYPE
 72
      65
 73
       6
 40
58.87
 49
16.82
 74
       0
 49
-8.41
 74
       0
 49
16.82
 74
       0
 49
-8.41
 74
       0
 49
0.0
 74
       0
 49
-8.41
 74
       0
  0
LTYPE
  5
31
100
AcDbSymbolTableRecord
100
AcDbLinetypeTableRecord
  2
BORDER2
 70
      64
  3
CADPAC LINETYPE
 72
      65
 73
       6
 40
44.1525
 49
12.615
 74
       0
 49
-6.3075
 74
       0
 49
12.615
 74
       0
 49
-6.3075
 74
       0
 49
0.0
 74
       0
 49
-6.3075
 74
       0
  0
LTYPE
  5
32
100
AcDbSymbolTableRecord
100
AcDbLinetypeTableRecord
  2
PHANTOMX2
 70
      64
  3
CADPAC LINETYPE
 72
      65
 73
       6
 40
63.075
 49
21.025
 74
       0
 49
-8.41
 74
       0
 49
8.41
 74
       0
 49
-8.41
 74
       0
 49
8.41
 74
       0
 49
-8.41
 74
       0
  0
LTYPE
  5
33
100
AcDbSymbolTableRecord
100
AcDbLinetypeTableRecord
  2
PHANTOM
 70
      64
  3
CADPAC LINETYPE
 72
      65
 73
       6
 40
52.142
 49
16.82
 74
       0
 49
-8.41
 74
       0
 49
5.046
 74
       0
 49
-8.41
 74
       0
 49
5.046
 74
       0
 49
-8.41
 74
       0
  0
LTYPE
  5
34
100
AcDbSymbolTableRecord
100
AcDbLinetypeTableRecord
  2
PHANTOM2
 70
      64
  3
CADPAC LINETYPE
 72
      65
 73
       6
 40
44.573
 49
12.615
 74
       0
 49
-8.41
 74
       0
 49
3.364
 74
       0
 49
-8.41
 74
       0
 49
3.364
 74
       0
 49
-8.41
 74
       0
  0
LTYPE
  5
35
100
AcDbSymbolTableRecord
100
AcDbLinetypeTableRecord
  2
ACAD_ISO06W100
 70
      64
  3
CADPAC LINETYPE
 72
      65
 73
       8
 40
56.7675
 49
21.025
 74
       0
 49
-10.5125
 74
       0
 49
0.0
 74
       0
 49
-8.41
 74
       0
 49
0.0
 74
       0
 49
-8.41
 74
       0
 49
0.0
 74
       0
 49
-8.41
 74
       0
  0
LTYPE
  5
36
100
AcDbSymbolTableRecord
100
AcDbLinetypeTableRecord
  2
ACAD_ISO13W100
 70
      64
  3
CADPAC LINETYPE
 72
      65
 73
       8
 40
67.28
 49
16.82
 74
       0
 49
-8.41
 74
       0
 49
16.82
 74
       0
 49
-8.41
 74
       0
 49
0.0
 74
       0
 49
-8.41
 74
       0
 49
0.0
 74
       0
 49
-8.41
 74
       0
  0
LTYPE
  5
37
100
AcDbSymbolTableRecord
100
AcDbLinetypeTableRecord
  2
ACAD_ISO14W100
 70
      64
  3
CADPAC LINETYPE
 72
      65
 73
       8
 40
50.46
 49
16.82
 74
       0
 49
-8.41
 74
       0
 49
0.0
 74
       0
 49
-8.41
 74
       0
 49
0.0
 74
       0
 49
-8.41
 74
       0
 49
0.0
 74
       0
 49
-8.41
 74
       0
  0
ENDTAB
  0
TABLE
  2
LAYER
  5
2
100
AcDbSymbolTable
 70
       5
  0
LAYER
  5
14
100
AcDbSymbolTableRecord
100
AcDbLayerTableRecord
  2
0
 70
       0
 62
       7
  6
CONTINUOUS
  0
LAYER
  5
38
100
AcDbSymbolTableRecord
100
AcDbLayerTableRecord
  2
D-BMK
 70
       0
 62
       7
  6
CONTINUOUS
  0
LAYER
  5
39
100
AcDbSymbolTableRecord
100
AcDbLayerTableRecord
  2
D-STR
 70
       0
 62
       7
  6
CONTINUOUS
  0
LAYER
  5
3A
100
AcDbSymbolTableRecord
100
AcDbLayerTableRecord
  2
D-STR-HID
 70
       0
 62
       7
  6
CONTINUOUS
  0
LAYER
  5
3B
100
AcDbSymbolTableRecord
100
AcDbLayerTableRecord
  2
D-STR-TXT
 70
       0
 62
       7
  6
CONTINUOUS
  0
ENDTAB
  0
TABLE
  2
STYLE
  5
3
100
AcDbSymbolTable
 70
       1
  0
STYLE
  5
17
100
AcDbSymbolTableRecord
100
AcDbTextStyleTableRecord
  2
STANDARD
 70
       0
 40
0.0
 41
1.2
 50
0.0
 71
       0
 42
3.5
  3
MS Gothic.ttf
  4

1001
ACAD
1000
MS Gothic
1071
    32786
  0
ENDTAB
  0
TABLE
  2
VIEW
  5
5
100
AcDbSymbolTable
 70
       1
  0
VIEW
  5
3C
100
AcDbSymbolTableRecord
100
AcDbViewTableRecord
  2
QQQQ
 70
       0
 40
612.17
 10
0.0
 20
0.0
 41
885.105
 11
0.0
 21
0.0
 31
1.0
 12
100.0
 22
100.0
 32
0.0
 42
50.0
 43
0.0
 44
0.0
 50
0.0
 71
       0
  0
ENDTAB
  0
TABLE
  2
UCS
  5
6
100
AcDbSymbolTable
 70
       0
  0
ENDTAB
  0
TABLE
  2
APPID
  5
8
100
AcDbSymbolTable
 70
       1
  0
APPID
  5
16
100
AcDbSymbolTableRecord
100
AcDbRegAppTableRecord
  2
ACAD
 70
       0
  0
ENDTAB
  0
TABLE
  2
DIMSTYLE
  5
9
100
AcDbSymbolTable
 70
       1
  0
DIMSTYLE
105
18
100
AcDbSymbolTableRecord
100
AcDbDimStyleTableRecord
  2
STANDARD
 70
       0
  3

  4

  5

  6

  7

 40
1.0
 41
0.18
 42
0.0625
 43
0.38
 44
0.18
 45
0.0
 46
0.0
 47
0.0
 48
0.0
 71
       0
 72
       0
 73
       1
 74
       1
 75
       0
 76
       0
 77
       0
 78
       0
140
0.18
141
0.09
142
0.0
143
25.4
144
1.0
145
0.0
146
1.0
147
0.09
170
       0
171
       2
172
       0
173
       0
174
       0
175
       0
176
       0
177
       0
178
       0
270
       2
271
       4
272
       4
273
       2
274
       2
275
       0
280
       0
281
       0
282
       0
283
       1
284
       0
285
       0
286
       0
287
       0
288
       0
340
17
  0
ENDTAB
  0
TABLE
  2
BLOCK_RECORD
  5
1
100
AcDbSymbolTable
 70
      40
  0
BLOCK_RECORD
  5
A
100
AcDbSymbolTableRecord
100
AcDbBlockTableRecord
  2
*MODEL_SPACE
  0
BLOCK_RECORD
  5
B
100
AcDbSymbolTableRecord
100
AcDbBlockTableRecord
  2
*PAPER_SPACE
  0
BLOCK_RECORD
  5
3D
100
AcDbSymbolTableRecord
100
AcDbBlockTableRecord
  2
GROUP_1
  0
BLOCK_RECORD
  5
3E
100
AcDbSymbolTableRecord
100
AcDbBlockTableRecord
  2
GROUP_2
  0
BLOCK_RECORD
  5
3F
100
AcDbSymbolTableRecord
100
AcDbBlockTableRecord
  2
GROUP_3
  0
BLOCK_RECORD
  5
40
100
AcDbSymbolTableRecord
100
AcDbBlockTableRecord
  2
GROUP_4
  0
BLOCK_RECORD
  5
41
100
AcDbSymbolTableRecord
100
AcDbBlockTableRecord
  2
GROUP_5
  0
BLOCK_RECORD
  5
42
100
AcDbSymbolTableRecord
100
AcDbBlockTableRecord
  2
GROUP_6
  0
BLOCK_RECORD
  5
43
100
AcDbSymbolTableRecord
100
AcDbBlockTableRecord
  2
GROUP_7
  0
BLOCK_RECORD
  5
44
100
AcDbSymbolTableRecord
100
AcDbBlockTableRecord
  2
GROUP_8
  0
BLOCK_RECORD
  5
45
100
AcDbSymbolTableRecord
100
AcDbBlockTableRecord
  2
GROUP_9
  0
BLOCK_RECORD
  5
46
100
AcDbSymbolTableRecord
100
AcDbBlockTableRecord
  2
GROUP_10
  0
BLOCK_RECORD
  5
47
100
AcDbSymbolTableRecord
100
AcDbBlockTableRecord
  2
GROUP_11
  0
BLOCK_RECORD
  5
48
100
AcDbSymbolTableRecord
100
AcDbBlockTableRecord
  2
GROUP_12
  0
BLOCK_RECORD
  5
49
100
AcDbSymbolTableRecord
100
AcDbBlockTableRecord
  2
GROUP_13
  0
BLOCK_RECORD
  5
4A
100
AcDbSymbolTableRecord
100
AcDbBlockTableRecord
  2
GROUP_14
  0
BLOCK_RECORD
  5
4B
100
AcDbSymbolTableRecord
100
AcDbBlockTableRecord
  2
GROUP_15
  0
BLOCK_RECORD
  5
4C
100
AcDbSymbolTableRecord
100
AcDbBlockTableRecord
  2
GROUP_16
  0
BLOCK_RECORD
  5
4D
100
AcDbSymbolTableRecord
100
AcDbBlockTableRecord
  2
GROUP_17
  0
BLOCK_RECORD
  5
4E
100
AcDbSymbolTableRecord
100
AcDbBlockTableRecord
  2
GROUP_18
  0
BLOCK_RECORD
  5
4F
100
AcDbSymbolTableRecord
100
AcDbBlockTableRecord
  2
GROUP_19
  0
BLOCK_RECORD
  5
50
100
AcDbSymbolTableRecord
100
AcDbBlockTableRecord
  2
GROUP_20
  0
BLOCK_RECORD
  5
51
100
AcDbSymbolTableRecord
100
AcDbBlockTableRecord
  2
GROUP_21
  0
BLOCK_RECORD
  5
52
100
AcDbSymbolTableRecord
100
AcDbBlockTableRecord
  2
GROUP_22
  0
BLOCK_RECORD
  5
53
100
AcDbSymbolTableRecord
100
AcDbBlockTableRecord
  2
GROUP_23
  0
BLOCK_RECORD
  5
54
100
AcDbSymbolTableRecord
100
AcDbBlockTableRecord
  2
GROUP_24
  0
BLOCK_RECORD
  5
55
100
AcDbSymbolTableRecord
100
AcDbBlockTableRecord
  2
GROUP_25
  0
BLOCK_RECORD
  5
56
100
AcDbSymbolTableRecord
100
AcDbBlockTableRecord
  2
GROUP_26
  0
BLOCK_RECORD
  5
57
100
AcDbSymbolTableRecord
100
AcDbBlockTableRecord
  2
GROUP_27
  0
BLOCK_RECORD
  5
58
100
AcDbSymbolTableRecord
100
AcDbBlockTableRecord
  2
GROUP_28
  0
BLOCK_RECORD
  5
59
100
AcDbSymbolTableRecord
100
AcDbBlockTableRecord
  2
GROUP_29
  0
BLOCK_RECORD
  5
5A
100
AcDbSymbolTableRecord
100
AcDbBlockTableRecord
  2
GROUP_30
  0
BLOCK_RECORD
  5
5B
100
AcDbSymbolTableRecord
100
AcDbBlockTableRecord
  2
GROUP_31
  0
BLOCK_RECORD
  5
5C
100
AcDbSymbolTableRecord
100
AcDbBlockTableRecord
  2
GROUP_32
  0
BLOCK_RECORD
  5
5D
100
AcDbSymbolTableRecord
100
AcDbBlockTableRecord
  2
GROUP_33
  0
BLOCK_RECORD
  5
5E
100
AcDbSymbolTableRecord
100
AcDbBlockTableRecord
  2
GROUP_34
  0
BLOCK_RECORD
  5
5F
100
AcDbSymbolTableRecord
100
AcDbBlockTableRecord
  2
GROUP_35
  0
BLOCK_RECORD
  5
60
100
AcDbSymbolTableRecord
100
AcDbBlockTableRecord
  2
GROUP_36
  0
BLOCK_RECORD
  5
61
100
AcDbSymbolTableRecord
100
AcDbBlockTableRecord
  2
GROUP_37
  0
BLOCK_RECORD
  5
62
100
AcDbSymbolTableRecord
100
AcDbBlockTableRecord
  2
GROUP_38
  0
BLOCK_RECORD
  5
63
100
AcDbSymbolTableRecord
100
AcDbBlockTableRecord
  2
GROUP_39
  0
BLOCK_RECORD
  5
64
100
AcDbSymbolTableRecord
100
AcDbBlockTableRecord
  2
GROUP_40
  0
ENDTAB
  0
ENDSEC
  0
SECTION
  2
BLOCKS
  0
BLOCK
  5
D
100
AcDbEntity
  8
0
100
AcDbBlockBegin
  2
*MODEL_SPACE
 70
       0
 10
0.0
 20
0.0
 30
0.0
  3
*MODEL_SPACE
  1

  0
ENDBLK
  5
E
100
AcDbEntity
  8
0
100
AcDbBlockEnd
  0
BLOCK
  5
F
100
AcDbEntity
 67
       1
  8
0
100
AcDbBlockBegin
  2
*PAPER_SPACE
 70
       0
 10
0.0
 20
0.0
 30
0.0
  3
*PAPER_SPACE
  1

  0
ENDBLK
  5
10
100
AcDbEntity
 67
       1
  8
0
100
AcDbBlockEnd
  0
BLOCK
  5
65
100
AcDbEntity
  8
0
100
AcDbBlockBegin
  2
GROUP_1
 70
       0
 10
0.0
 20
0.0
 30
0.0
  3
GROUP_1
  1

  0
LINE
  5
66
100
AcDbEntity
  8
D-BMK
  6
CENTER
 62
       2
100
AcDbLine
 10
304.5
 20
229.0
 30
0.0
 11
400.5
 21
229.0
 31
0.0
  0
LINE
  5
67
100
AcDbEntity
  8
D-BMK
  6
CENTER
 62
       2
100
AcDbLine
 10
352.5
 20
181.0
 30
0.0
 11
352.5
 21
277.0
 31
0.0
  0
CIRCLE
  5
68
100
AcDbEntity
  8
D-STR
  6
CONTINUOUS
 62
       1
100
AcDbCircle
 10
352.5
 20
229.0
 30
0.0
 40
48.0
  0
LINE
  5
69
100
AcDbEntity
  8
D-STR
  6
CONTINUOUS
 62
       1
100
AcDbLine
 10
339.22094381
 20
252.0
 30
0.0
 11
365.77905619
 21
252.0
 31
0.0
  0
LINE
  5
6A
100
AcDbEntity
  8
D-STR
  6
CONTINUOUS
 62
       1
100
AcDbLine
 10
325.94188762
 20
229.0
 30
0.0
 11
339.22094381
 21
252.0
 31
0.0
  0
LINE
  5
6B
100
AcDbEntity
  8
D-STR
  6
CONTINUOUS
 62
       1
100
AcDbLine
 10
339.22094381
 20
206.0
 30
0.0
 11
325.94188762
 21
229.0
 31
0.0
  0
LINE
  5
6C
100
AcDbEntity
  8
D-STR
  6
CONTINUOUS
 62
       1
100
AcDbLine
 10
365.77905619
 20
206.0
 30
0.0
 11
339.22094381
 21
206.0
 31
0.0
  0
LINE
  5
6D
100
AcDbEntity
  8
D-STR
  6
CONTINUOUS
 62
       1
100
AcDbLine
 10
379.05811238
 20
229.0
 30
0.0
 11
365.77905619
 21
206.0
 31
0.0
  0
LINE
  5
6E
100
AcDbEntity
  8
D-STR
  6
CONTINUOUS
 62
       1
100
AcDbLine
 10
365.77905619
 20
252.0
 30
0.0
 11
379.05811238
 21
229.0
 31
0.0
  0
ENDBLK
  5
6F
100
AcDbEntity
  8
0
100
AcDbBlockEnd
  0
BLOCK
  5
70
100
AcDbEntity
  8
0
100
AcDbBlockBegin
  2
GROUP_2
 70
       0
 10
0.0
 20
0.0
 30
0.0
  3
GROUP_2
  1

  0
LINE
  5
71
100
AcDbEntity
  8
D-STR
  6
CONTINUOUS
 62
       1
100
AcDbLine
 10
304.5
 20
21.0
 30
0.0
 11
400.5
 21
21.0
 31
0.0
  0
LINE
  5
72
100
AcDbEntity
  8
D-STR
  6
CONTINUOUS
 62
       1
100
AcDbLine
 10
320.5
 20
21.0
 30
0.0
 11
320.5
 21
-155.7525
 31
0.0
  0
LINE
  5
73
100
AcDbEntity
  8
D-STR
  6
CONTINUOUS
 62
       1
100
AcDbLine
 10
384.5
 20
21.0
 30
0.0
 11
384.5
 21
-155.7525
 31
0.0
  0
LINE
  5
74
100
AcDbEntity
  8
D-STR
  6
CONTINUOUS
 62
       1
100
AcDbLine
 10
323.7475
 20
-159.0
 30
0.0
 11
381.2525
 21
-159.0
 31
0.0
  0
LINE
  5
75
100
AcDbEntity
  8
D-STR
  6
CONTINUOUS
 62
       1
100
AcDbLine
 10
320.5
 20
3.0
 30
0.0
 11
384.5
 21
3.0
 31
0.0
  0
LINE
  5
76
100
AcDbEntity
  8
D-STR
  6
CONTINUOUS
 62
       1
100
AcDbLine
 10
323.7475
 20
3.0
 30
0.0
 11
320.5
 21
8.624835
 31
0.0
  0
LINE
  5
77
100
AcDbEntity
  8
D-STR
  6
CONTINUOUS
 62
       1
100
AcDbLine
 10
381.2525
 20
3.0
 30
0.0
 11
384.5
 21
8.624835
 31
0.0
  0
LINE
  5
78
100
AcDbEntity
  8
D-STR
  6
CONTINUOUS
 62
       1
100
AcDbLine
 10
320.5
 20
-155.7525
 30
0.0
 11
323.7475
 21
-159.0
 31
0.0
  0
LINE
  5
79
100
AcDbEntity
  8
D-STR
  6
CONTINUOUS
 62
       1
100
AcDbLine
 10
381.2525
 20
-159.0
 30
0.0
 11
384.5
 21
-155.7525
 31
0.0
  0
LINE
  5
7A
100
AcDbEntity
  8
D-STR
  6
CONTINUOUS
 62
       1
100
AcDbLine
 10
320.5
 20
-155.7525
 30
0.0
 11
384.5
 21
-155.7525
 31
0.0
  0
LINE
  5
7B
100
AcDbEntity
  8
D-STR
  6
CONTINUOUS
 62
       1
100
AcDbLine
 10
304.5
 20
85.0
 30
0.0
 11
400.5
 21
85.0
 31
0.0
  0
LINE
  5
7C
100
AcDbEntity
  8
D-STR
  6
CONTINUOUS
 62
       1
100
AcDbLine
 10
304.5
 20
85.0
 30
0.0
 11
304.5
 21
21.0
 31
0.0
  0
LINE
  5
7D
100
AcDbEntity
  8
D-STR
  6
CONTINUOUS
 62
       1
100
AcDbLine
 10
400.5
 20
85.0
 30
0.0
 11
400.5
 21
21.0
 31
0.0
  0
LINE
  5
7E
100
AcDbEntity
  8
D-BMK
  6
CENTER
 62
       2
100
AcDbLine
 10
352.5
 20
85.0
 30
0.0
 11
352.5
 21
-159.0
 31
0.0
  0
LINE
  5
7F
100
AcDbEntity
  8
D-STR
  6
CONTINUOUS
 62
       7
100
AcDbLine
 10
323.7475
 20
3.0
 30
0.0
 11
323.7475
 21
-159.0
 31
0.0
  0
LINE
  5
80
100
AcDbEntity
  8
D-STR
  6
CONTINUOUS
 62
       7
100
AcDbLine
 10
381.2525
 20
3.0
 30
0.0
 11
381.2525
 21
-159.0
 31
0.0
  0
LINE
  5
81
100
AcDbEntity
  8
D-STR-HID
  6
DASHED2
 62
       1
100
AcDbLine
 10
325.94188762
 20
47.0
 30
0.0
 11
379.05811238
 21
47.0
 31
0.0
  0
LINE
  5
82
100
AcDbEntity
  8
D-STR-HID
  6
DASHED2
 62
       1
100
AcDbLine
 10
379.05811238
 20
85.0
 30
0.0
 11
379.05811238
 21
47.0
 31
0.0
  0
LINE
  5
83
100
AcDbEntity
  8
D-STR-HID
  6
DASHED2
 62
       1
100
AcDbLine
 10
365.77905619
 20
85.0
 30
0.0
 11
365.77905619
 21
47.0
 31
0.0
  0
LINE
  5
84
100
AcDbEntity
  8
D-STR-HID
  6
DASHED2
 62
       1
100
AcDbLine
 10
339.22094381
 20
85.0
 30
0.0
 11
339.22094381
 21
47.0
 31
0.0
  0
LINE
  5
85
100
AcDbEntity
  8
D-STR-HID
  6
DASHED2
 62
       1
100
AcDbLine
 10
325.94188762
 20
85.0
 30
0.0
 11
325.94188762
 21
47.0
 31
0.0
  0
LINE
  5
86
100
AcDbEntity
  8
D-STR-HID
  6
DASHED2
 62
       1
100
AcDbLine
 10
379.05811238
 20
47.0
 30
0.0
 11
352.5
 21
31.66666667
 31
0.0
  0
LINE
  5
87
100
AcDbEntity
  8
D-STR-HID
  6
DASHED2
 62
       1
100
AcDbLine
 10
325.94188762
 20
47.0
 30
0.0
 11
352.5
 21
31.66666667
 31
0.0
  0
ENDBLK
  5
88
100
AcDbEntity
  8
0
100
AcDbBlockEnd
  0
BLOCK
  5
89
100
AcDbEntity
  8
0
100
AcDbBlockBegin
  2
GROUP_3
 70
       0
 10
0.0
 20
0.0
 30
0.0
  3
GROUP_3
  1

  0
LINE
  5
8A
100
AcDbEntity
  8
D-STR
  6
CONTINUOUS
 62
       1
100
AcDbLine
 10
172.5
 20
21.0
 30
0.0
 11
256.5
 21
21.0
 31
0.0
  0
LINE
  5
8B
100
AcDbEntity
  8
D-STR
  6
CONTINUOUS
 62
       1
100
AcDbLine
 10
186.5
 20
21.0
 30
0.0
 11
186.5
 21
-136.023
 31
0.0
  0
LINE
  5
8C
100
AcDbEntity
  8
D-STR
  6
CONTINUOUS
 62
       1
100
AcDbLine
 10
242.5
 20
21.0
 30
0.0
 11
242.5
 21
-136.023
 31
0.0
  0
LINE
  5
8D
100
AcDbEntity
  8
D-STR
  6
CONTINUOUS
 62
       1
100
AcDbLine
 10
189.477
 20
-139.0
 30
0.0
 11
239.523
 21
-139.0
 31
0.0
  0
LINE
  5
8E
100
AcDbEntity
  8
D-STR
  6
CONTINUOUS
 62
       1
100
AcDbLine
 10
186.5
 20
4.5
 30
0.0
 11
242.5
 21
4.5
 31
0.0
  0
LINE
  5
8F
100
AcDbEntity
  8
D-STR
  6
CONTINUOUS
 62
       1
100
AcDbLine
 10
189.477
 20
4.5
 30
0.0
 11
186.5
 21
9.65631525
 31
0.0
  0
LINE
  5
90
100
AcDbEntity
  8
D-STR
  6
CONTINUOUS
 62
       1
100
AcDbLine
 10
239.523
 20
4.5
 30
0.0
 11
242.5
 21
9.65631525
 31
0.0
  0
LINE
  5
91
100
AcDbEntity
  8
D-STR
  6
CONTINUOUS
 62
       1
100
AcDbLine
 10
186.5
 20
-136.023
 30
0.0
 11
189.477
 21
-139.0
 31
0.0
  0
LINE
  5
92
100
AcDbEntity
  8
D-STR
  6
CONTINUOUS
 62
       1
100
AcDbLine
 10
239.523
 20
-139.0
 30
0.0
 11
242.5
 21
-136.023
 31
0.0
  0
LINE
  5
93
100
AcDbEntity
  8
D-STR
  6
CONTINUOUS
 62
       1
100
AcDbLine
 10
186.5
 20
-136.023
 30
0.0
 11
242.5
 21
-136.023
 31
0.0
  0
LINE
  5
94
100
AcDbEntity
  8
D-STR
  6
CONTINUOUS
 62
       1
100
AcDbLine
 10
172.5
 20
77.0
 30
0.0
 11
256.5
 21
77.0
 31
0.0
  0
LINE
  5
95
100
AcDbEntity
  8
D-STR
  6
CONTINUOUS
 62
       1
100
AcDbLine
 10
172.5
 20
77.0
 30
0.0
 11
172.5
 21
21.0
 31
0.0
  0
LINE
  5
96
100
AcDbEntity
  8
D-STR
  6
CONTINUOUS
 62
       1
100
AcDbLine
 10
256.5
 20
77.0
 30
0.0
 11
256.5
 21
21.0
 31
0.0
  0
LINE
  5
97
100
AcDbEntity
  8
D-BMK
  6
CENTER
 62
       2
100
AcDbLine
 10
214.5
 20
77.0
 30
0.0
 11
214.5
 21
-139.0
 31
0.0
  0
LINE
  5
98
100
AcDbEntity
  8
D-STR
  6
CONTINUOUS
 62
       7
100
AcDbLine
 10
189.477
 20
4.5
 30
0.0
 11
189.477
 21
-139.0
 31
0.0
  0
LINE
  5
99
100
AcDbEntity
  8
D-STR
  6
CONTINUOUS
 62
       7
100
AcDbLine
 10
239.523
 20
4.5
 30
0.0
 11
239.523
 21
-139.0
 31
0.0
  0
LINE
  5
9A
100
AcDbEntity
  8
D-STR-HID
  6
DASHED2
 62
       1
100
AcDbLine
 10
190.82863896
 20
43.0
 30
0.0
 11
238.17136104
 21
43.0
 31
0.0
  0
LINE
  5
9B
100
AcDbEntity
  8
D-STR-HID
  6
DASHED2
 62
       1
100
AcDbLine
 10
238.17136104
 20
77.0
 30
0.0
 11
238.17136104
 21
43.0
 31
0.0
  0
LINE
  5
9C
100
AcDbEntity
  8
D-STR-HID
  6
DASHED2
 62
       1
100
AcDbLine
 10
226.33568052
 20
77.0
 30
0.0
 11
226.33568052
 21
43.0
 31
0.0
  0
LINE
  5
9D
100
AcDbEntity
  8
D-STR-HID
  6
DASHED2
 62
       1
100
AcDbLine
 10
202.66431948
 20
77.0
 30
0.0
 11
202.66431948
 21
43.0
 31
0.0
  0
LINE
  5
9E
100
AcDbEntity
  8
D-STR-HID
  6
DASHED2
 62
       1
100
AcDbLine
 10
190.82863896
 20
77.0
 30
0.0
 11
190.82863896
 21
43.0
 31
0.0
  0
LINE
  5
9F
100
AcDbEntity
  8
D-STR-HID
  6
DASHED2
 62
       1
100
AcDbLine
 10
238.17136104
 20
43.0
 30
0.0
 11
214.5
 21
29.33333333
 31
0.0
  0
LINE
  5
A0
100
AcDbEntity
  8
D-STR-HID
  6
DASHED2
 62
       1
100
AcDbLine
 10
190.82863896
 20
43.0
 30
0.0
 11
214.5
 21
29.33333333
 31
0.0
  0
ENDBLK
  5
A1
100
AcDbEntity
  8
0
100
AcDbBlockEnd
  0
BLOCK
  5
A2
100
AcDbEntity
  8
0
100
AcDbBlockBegin
  2
GROUP_4
 70
       0
 10
0.0
 20
0.0
 30
0.0
  3
GROUP_4
  1

  0
LINE
  5
A3
100
AcDbEntity
  8
D-BMK
  6
CENTER
 62
       2
100
AcDbLine
 10
214.5
 20
161.0
 30
0.0
 11
214.5
 21
245.0
 31
0.0
  0
LINE
  5
A4
100
AcDbEntity
  8
D-BMK
  6
CENTER
 62
       2
100
AcDbLine
 10
172.5
 20
203.0
 30
0.0
 11
256.5
 21
203.0
 31
0.0
  0
CIRCLE
  5
A5
100
AcDbEntity
  8
D-STR
  6
CONTINUOUS
 62
       1
100
AcDbCircle
 10
214.5
 20
203.0
 30
0.0
 40
42.0
  0
LINE
  5
A6
100
AcDbEntity
  8
D-STR
  6
CONTINUOUS
 62
       1
100
AcDbLine
 10
202.66431948
 20
223.5
 30
0.0
 11
226.33568052
 21
223.5
 31
0.0
  0
LINE
  5
A7
100
AcDbEntity
  8
D-STR
  6
CONTINUOUS
 62
       1
100
AcDbLine
 10
190.82863896
 20
203.0
 30
0.0
 11
202.66431948
 21
223.5
 31
0.0
  0
LINE
  5
A8
100
AcDbEntity
  8
D-STR
  6
CONTINUOUS
 62
       1
100
AcDbLine
 10
202.66431948
 20
182.5
 30
0.0
 11
190.82863896
 21
203.0
 31
0.0
  0
LINE
  5
A9
100
AcDbEntity
  8
D-STR
  6
CONTINUOUS
 62
       1
100
AcDbLine
 10
226.33568052
 20
182.5
 30
0.0
 11
202.66431948
 21
182.5
 31
0.0
  0
LINE
  5
AA
100
AcDbEntity
  8
D-STR
  6
CONTINUOUS
 62
       1
100
AcDbLine
 10
238.17136104
 20
203.0
 30
0.0
 11
226.33568052
 21
182.5
 31
0.0
  0
LINE
  5
AB
100
AcDbEntity
  8
D-STR
  6
CONTINUOUS
 62
       1
100
AcDbLine
 10
226.33568052
 20
223.5
 30
0.0
 11
238.17136104
 21
203.0
 31
0.0
  0
ENDBLK
  5
AC
100
AcDbEntity
  8
0
100
AcDbBlockEnd
  0
BLOCK
  5
AD
100
AcDbEntity
  8
0
100
AcDbBlockBegin
  2
GROUP_5
 70
       0
 10
0.0
 20
0.0
 30
0.0
  3
GROUP_5
  1

  0
LINE
  5
AE
100
AcDbEntity
  8
D-BMK
  6
CENTER
 62
       2
100
AcDbLine
 10
58.5
 20
177.0
 30
0.0
 11
130.5
 21
177.0
 31
0.0
  0
LINE
  5
AF
100
AcDbEntity
  8
D-BMK
  6
CENTER
 62
       2
100
AcDbLine
 10
94.5
 20
141.0
 30
0.0
 11
94.5
 21
213.0
 31
0.0
  0
CIRCLE
  5
B0
100
AcDbEntity
  8
D-STR
  6
CONTINUOUS
 62
       1
100
AcDbCircle
 10
94.5
 20
177.0
 30
0.0
 40
36.0
  0
LINE
  5
B1
100
AcDbEntity
  8
D-STR
  6
CONTINUOUS
 62
       1
100
AcDbLine
 10
84.10769515
 20
195.0
 30
0.0
 11
104.89230485
 21
195.0
 31
0.0
  0
LINE
  5
B2
100
AcDbEntity
  8
D-STR
  6
CONTINUOUS
 62
       1
100
AcDbLine
 10
73.71539031
 20
177.0
 30
0.0
 11
84.10769515
 21
195.0
 31
0.0
  0
LINE
  5
B3
100
AcDbEntity
  8
D-STR
  6
CONTINUOUS
 62
       1
100
AcDbLine
 10
84.10769515
 20
159.0
 30
0.0
 11
73.71539031
 21
177.0
 31
0.0
  0
LINE
  5
B4
100
AcDbEntity
  8
D-STR
  6
CONTINUOUS
 62
       1
100
AcDbLine
 10
104.89230485
 20
159.0
 30
0.0
 11
84.10769515
 21
159.0
 31
0.0
  0
LINE
  5
B5
100
AcDbEntity
  8
D-STR
  6
CONTINUOUS
 62
       1
100
AcDbLine
 10
115.28460969
 20
177.0
 30
0.0
 11
104.89230485
 21
159.0
 31
0.0
  0
LINE
  5
B6
100
AcDbEntity
  8
D-STR
  6
CONTINUOUS
 62
       1
100
AcDbLine
 10
104.89230485
 20
195.0
 30
0.0
 11
115.28460969
 21
177.0
 31
0.0
  0
ENDBLK
  5
B7
100
AcDbEntity
  8
0
100
AcDbBlockEnd
  0
BLOCK
  5
B8
100
AcDbEntity
  8
0
100
AcDbBlockBegin
  2
GROUP_6
 70
       0
 10
0.0
 20
0.0
 30
0.0
  3
GROUP_6
  1

  0
LINE
  5
B9
100
AcDbEntity
  8
D-STR
  6
CONTINUOUS
 62
       1
100
AcDbLine
 10
58.5
 20
21.0
 30
0.0
 11
130.5
 21
21.0
 31
0.0
  0
LINE
  5
BA
100
AcDbEntity
  8
D-STR
  6
CONTINUOUS
 62
       1
100
AcDbLine
 10
70.5
 20
21.0
 30
0.0
 11
70.5
 21
-126.2935
 31
0.0
  0
LINE
  5
BB
100
AcDbEntity
  8
D-STR
  6
CONTINUOUS
 62
       1
100
AcDbLine
 10
118.5
 20
21.0
 30
0.0
 11
118.5
 21
-126.2935
 31
0.0
  0
LINE
  5
BC
100
AcDbEntity
  8
D-STR
  6
CONTINUOUS
 62
       1
100
AcDbLine
 10
73.2065
 20
-129.0
 30
0.0
 11
115.7935
 21
-129.0
 31
0.0
  0
LINE
  5
BD
100
AcDbEntity
  8
D-STR
  6
CONTINUOUS
 62
       1
100
AcDbLine
 10
70.5
 20
6.0
 30
0.0
 11
118.5
 21
6.0
 31
0.0
  0
LINE
  5
BE
100
AcDbEntity
  8
D-STR
  6
CONTINUOUS
 62
       1
100
AcDbLine
 10
73.2065
 20
6.0
 30
0.0
 11
70.5
 21
10.68779551
 31
0.0
  0
LINE
  5
BF
100
AcDbEntity
  8
D-STR
  6
CONTINUOUS
 62
       1
100
AcDbLine
 10
115.7935
 20
6.0
 30
0.0
 11
118.5
 21
10.68779551
 31
0.0
  0
LINE
  5
C0
100
AcDbEntity
  8
D-STR
  6
CONTINUOUS
 62
       1
100
AcDbLine
 10
70.5
 20
-126.2935
 30
0.0
 11
73.2065
 21
-129.0
 31
0.0
  0
LINE
  5
C1
100
AcDbEntity
  8
D-STR
  6
CONTINUOUS
 62
       1
100
AcDbLine
 10
115.7935
 20
-129.0
 30
0.0
 11
118.5
 21
-126.2935
 31
0.0
  0
LINE
  5
C2
100
AcDbEntity
  8
D-STR
  6
CONTINUOUS
 62
       1
100
AcDbLine
 10
70.5
 20
-126.2935
 30
0.0
 11
118.5
 21
-126.2935
 31
0.0
  0
LINE
  5
C3
100
AcDbEntity
  8
D-STR
  6
CONTINUOUS
 62
       1
100
AcDbLine
 10
58.5
 20
69.0
 30
0.0
 11
130.5
 21
69.0
 31
0.0
  0
LINE
  5
C4
100
AcDbEntity
  8
D-STR
  6
CONTINUOUS
 62
       1
100
AcDbLine
 10
58.5
 20
69.0
 30
0.0
 11
58.5
 21
21.0
 31
0.0
  0
LINE
  5
C5
100
AcDbEntity
  8
D-STR
  6
CONTINUOUS
 62
       1
100
AcDbLine
 10
130.5
 20
69.0
 30
0.0
 11
130.5
 21
21.0
 31
0.0
  0
LINE
  5
C6
100
AcDbEntity
  8
D-BMK
  6
CENTER
 62
       2
100
AcDbLine
 10
94.5
 20
69.0
 30
0.0
 11
94.5
 21
-129.0
 31
0.0
  0
LINE
  5
C7
100
AcDbEntity
  8
D-STR
  6
CONTINUOUS
 62
       7
100
AcDbLine
 10
73.2065
 20
6.0
 30
0.0
 11
73.2065
 21
-129.0
 31
0.0
  0
LINE
  5
C8
100
AcDbEntity
  8
D-STR
  6
CONTINUOUS
 62
       7
100
AcDbLine
 10
115.7935
 20
6.0
 30
0.0
 11
115.7935
 21
-129.0
 31
0.0
  0
LINE
  5
C9
100
AcDbEntity
  8
D-STR-HID
  6
DASHED2
 62
       1
100
AcDbLine
 10
73.71539031
 20
41.0
 30
0.0
 11
115.28460969
 21
41.0
 31
0.0
  0
LINE
  5
CA
100
AcDbEntity
  8
D-STR-HID
  6
DASHED2
 62
       1
100
AcDbLine
 10
115.28460969
 20
69.0
 30
0.0
 11
115.28460969
 21
41.0
 31
0.0
  0
LINE
  5
CB
100
AcDbEntity
  8
D-STR-HID
  6
DASHED2
 62
       1
100
AcDbLine
 10
104.89230485
 20
69.0
 30
0.0
 11
104.89230485
 21
41.0
 31
0.0
  0
LINE
  5
CC
100
AcDbEntity
  8
D-STR-HID
  6
DASHED2
 62
       1
100
AcDbLine
 10
84.10769515
 20
69.0
 30
0.0
 11
84.10769515
 21
41.0
 31
0.0
  0
LINE
  5
CD
100
AcDbEntity
  8
D-STR-HID
  6
DASHED2
 62
       1
100
AcDbLine
 10
73.71539031
 20
69.0
 30
0.0
 11
73.71539031
 21
41.0
 31
0.0
  0
LINE
  5
CE
100
AcDbEntity
  8
D-STR-HID
  6
DASHED2
 62
       1
100
AcDbLine
 10
115.28460969
 20
41.0
 30
0.0
 11
94.5
 21
29.0
 31
0.0
  0
LINE
  5
CF
100
AcDbEntity
  8
D-STR-HID
  6
DASHED2
 62
       1
100
AcDbLine
 10
73.71539031
 20
41.0
 30
0.0
 11
94.5
 21
29.0
 31
0.0
  0
ENDBLK
  5
D0
100
AcDbEntity
  8
0
100
AcDbBlockEnd
  0
BLOCK
  5
D1
100
AcDbEntity
  8
0
100
AcDbBlockBegin
  2
GROUP_7
 70
       0
 10
0.0
 20
0.0
 30
0.0
  3
GROUP_7
  1

  0
LINE
  5
D2
100
AcDbEntity
  8
D-STR
  6
CONTINUOUS
 62
       1
100
AcDbLine
 10
-40.5
 20
21.0
 30
0.0
 11
22.5
 21
21.0
 31
0.0
  0
LINE
  5
D3
100
AcDbEntity
  8
D-STR
  6
CONTINUOUS
 62
       1
100
AcDbLine
 10
-30.0
 20
21.0
 30
0.0
 11
-30.0
 21
-106.5645
 31
0.0
  0
LINE
  5
D4
100
AcDbEntity
  8
D-STR
  6
CONTINUOUS
 62
       1
100
AcDbLine
 10
12.0
 20
21.0
 30
0.0
 11
12.0
 21
-106.5645
 31
0.0
  0
LINE
  5
D5
100
AcDbEntity
  8
D-STR
  6
CONTINUOUS
 62
       1
100
AcDbLine
 10
-27.5645
 20
-109.0
 30
0.0
 11
9.5645
 21
-109.0
 31
0.0
  0
LINE
  5
D6
100
AcDbEntity
  8
D-STR
  6
CONTINUOUS
 62
       1
100
AcDbLine
 10
-30.0
 20
7.5
 30
0.0
 11
12.0
 21
7.5
 31
0.0
  0
LINE
  5
D7
100
AcDbEntity
  8
D-STR
  6
CONTINUOUS
 62
       1
100
AcDbLine
 10
-27.5645
 20
7.5
 30
0.0
 11
-30.0
 21
11.71840974
 31
0.0
  0
LINE
  5
D8
100
AcDbEntity
  8
D-STR
  6
CONTINUOUS
 62
       1
100
AcDbLine
 10
9.5645
 20
7.5
 30
0.0
 11
12.0
 21
11.71840974
 31
0.0
  0
LINE
  5
D9
100
AcDbEntity
  8
D-STR
  6
CONTINUOUS
 62
       1
100
AcDbLine
 10
-30.0
 20
-106.5645
 30
0.0
 11
-27.5645
 21
-109.0
 31
0.0
  0
LINE
  5
DA
100
AcDbEntity
  8
D-STR
  6
CONTINUOUS
 62
       1
100
AcDbLine
 10
9.5645
 20
-109.0
 30
0.0
 11
12.0
 21
-106.5645
 31
0.0
  0
LINE
  5
DB
100
AcDbEntity
  8
D-STR
  6
CONTINUOUS
 62
       1
100
AcDbLine
 10
-30.0
 20
-106.5645
 30
0.0
 11
12.0
 21
-106.5645
 31
0.0
  0
LINE
  5
DC
100
AcDbEntity
  8
D-STR
  6
CONTINUOUS
 62
       1
100
AcDbLine
 10
-40.5
 20
63.0
 30
0.0
 11
22.5
 21
63.0
 31
0.0
  0
LINE
  5
DD
100
AcDbEntity
  8
D-STR
  6
CONTINUOUS
 62
       1
100
AcDbLine
 10
-40.5
 20
63.0
 30
0.0
 11
-40.5
 21
21.0
 31
0.0
  0
LINE
  5
DE
100
AcDbEntity
  8
D-STR
  6
CONTINUOUS
 62
       1
100
AcDbLine
 10
22.5
 20
63.0
 30
0.0
 11
22.5
 21
21.0
 31
0.0
  0
LINE
  5
DF
100
AcDbEntity
  8
D-BMK
  6
CENTER
 62
       2
100
AcDbLine
 10
-9.0
 20
63.0
 30
0.0
 11
-9.0
 21
-109.0
 31
0.0
  0
LINE
  5
E0
100
AcDbEntity
  8
D-STR
  6
CONTINUOUS
 62
       7
100
AcDbLine
 10
-27.5645
 20
7.5
 30
0.0
 11
-27.5645
 21
-109.0
 31
0.0
  0
LINE
  5
E1
100
AcDbEntity
  8
D-STR
  6
CONTINUOUS
 62
       7
100
AcDbLine
 10
9.5645
 20
7.5
 30
0.0
 11
9.5645
 21
-109.0
 31
0.0
  0
LINE
  5
E2
100
AcDbEntity
  8
D-STR-HID
  6
DASHED2
 62
       1
100
AcDbLine
 10
-27.47520861
 20
39.0
 30
0.0
 11
9.47520861
 21
39.0
 31
0.0
  0
LINE
  5
E3
100
AcDbEntity
  8
D-STR-HID
  6
DASHED2
 62
       1
100
AcDbLine
 10
9.47520861
 20
63.0
 30
0.0
 11
9.47520861
 21
39.0
 31
0.0
  0
LINE
  5
E4
100
AcDbEntity
  8
D-STR-HID
  6
DASHED2
 62
       1
100
AcDbLine
 10
0.23760431
 20
63.0
 30
0.0
 11
0.23760431
 21
39.0
 31
0.0
  0
LINE
  5
E5
100
AcDbEntity
  8
D-STR-HID
  6
DASHED2
 62
       1
100
AcDbLine
 10
-18.23760431
 20
63.0
 30
0.0
 11
-18.23760431
 21
39.0
 31
0.0
  0
LINE
  5
E6
100
AcDbEntity
  8
D-STR-HID
  6
DASHED2
 62
       1
100
AcDbLine
 10
-27.47520861
 20
63.0
 30
0.0
 11
-27.47520861
 21
39.0
 31
0.0
  0
LINE
  5
E7
100
AcDbEntity
  8
D-STR-HID
  6
DASHED2
 62
       1
100
AcDbLine
 10
9.47520861
 20
39.0
 30
0.0
 11
-9.0
 21
28.33333333
 31
0.0
  0
LINE
  5
E8
100
AcDbEntity
  8
D-STR-HID
  6
DASHED2
 62
       1
100
AcDbLine
 10
-27.47520861
 20
39.0
 30
0.0
 11
-9.0
 21
28.33333333
 31
0.0
  0
ENDBLK
  5
E9
100
AcDbEntity
  8
0
100
AcDbBlockEnd
  0
BLOCK
  5
EA
100
AcDbEntity
  8
0
100
AcDbBlockBegin
  2
GROUP_8
 70
       0
 10
0.0
 20
0.0
 30
0.0
  3
GROUP_8
  1

  0
LINE
  5
EB
100
AcDbEntity
  8
D-BMK
  6
CENTER
 62
       2
100
AcDbLine
 10
-40.5
 20
157.5
 30
0.0
 11
22.5
 21
157.5
 31
0.0
  0
LINE
  5
EC
100
AcDbEntity
  8
D-BMK
  6
CENTER
 62
       2
100
AcDbLine
 10
-9.0
 20
126.0
 30
0.0
 11
-9.0
 21
189.0
 31
0.0
  0
CIRCLE
  5
ED
100
AcDbEntity
  8
D-STR
  6
CONTINUOUS
 62
       1
100
AcDbCircle
 10
-9.0
 20
157.5
 30
0.0
 40
31.5
  0
LINE
  5
EE
100
AcDbEntity
  8
D-STR
  6
CONTINUOUS
 62
       1
100
AcDbLine
 10
-18.23760431
 20
173.5
 30
0.0
 11
0.23760431
 21
173.5
 31
0.0
  0
LINE
  5
EF
100
AcDbEntity
  8
D-STR
  6
CONTINUOUS
 62
       1
100
AcDbLine
 10
-27.47520861
 20
157.5
 30
0.0
 11
-18.23760431
 21
173.5
 31
0.0
  0
LINE
  5
F0
100
AcDbEntity
  8
D-STR
  6
CONTINUOUS
 62
       1
100
AcDbLine
 10
-18.23760431
 20
141.5
 30
0.0
 11
-27.47520861
 21
157.5
 31
0.0
  0
LINE
  5
F1
100
AcDbEntity
  8
D-STR
  6
CONTINUOUS
 62
       1
100
AcDbLine
 10
0.23760431
 20
141.5
 30
0.0
 11
-18.23760431
 21
141.5
 31
0.0
  0
LINE
  5
F2
100
AcDbEntity
  8
D-STR
  6
CONTINUOUS
 62
       1
100
AcDbLine
 10
9.47520861
 20
157.5
 30
0.0
 11
0.23760431
 21
141.5
 31
0.0
  0
LINE
  5
F3
100
AcDbEntity
  8
D-STR
  6
CONTINUOUS
 62
       1
100
AcDbLine
 10
0.23760431
 20
173.5
 30
0.0
 11
9.47520861
 21
157.5
 31
0.0
  0
ENDBLK
  5
F4
100
AcDbEntity
  8
0
100
AcDbBlockEnd
  0
BLOCK
  5
F5
100
AcDbEntity
  8
0
100
AcDbBlockBegin
  2
GROUP_9
 70
       0
 10
0.0
 20
0.0
 30
0.0
  3
GROUP_9
  1

  0
LINE
  5
F6
100
AcDbEntity
  8
D-BMK
  6
CENTER
 62
       2
100
AcDbLine
 10
-126.0
 20
138.0
 30
0.0
 11
-72.0
 21
138.0
 31
0.0
  0
LINE
  5
F7
100
AcDbEntity
  8
D-BMK
  6
CENTER
 62
       2
100
AcDbLine
 10
-99.0
 20
111.0
 30
0.0
 11
-99.0
 21
165.0
 31
0.0
  0
CIRCLE
  5
F8
100
AcDbEntity
  8
D-STR
  6
CONTINUOUS
 62
       1
100
AcDbCircle
 10
-99.0
 20
138.0
 30
0.0
 40
27.0
  0
LINE
  5
F9
100
AcDbEntity
  8
D-STR
  6
CONTINUOUS
 62
       1
100
AcDbLine
 10
-106.79422863
 20
151.5
 30
0.0
 11
-91.20577137
 21
151.5
 31
0.0
  0
LINE
  5
FA
100
AcDbEntity
  8
D-STR
  6
CONTINUOUS
 62
       1
100
AcDbLine
 10
-114.58845727
 20
138.0
 30
0.0
 11
-106.79422863
 21
151.5
 31
0.0
  0
LINE
  5
FB
100
AcDbEntity
  8
D-STR
  6
CONTINUOUS
 62
       1
100
AcDbLine
 10
-106.79422863
 20
124.5
 30
0.0
 11
-114.58845727
 21
138.0
 31
0.0
  0
LINE
  5
FC
100
AcDbEntity
  8
D-STR
  6
CONTINUOUS
 62
       1
100
AcDbLine
 10
-91.20577137
 20
124.5
 30
0.0
 11
-106.79422863
 21
124.5
 31
0.0
  0
LINE
  5
FD
100
AcDbEntity
  8
D-STR
  6
CONTINUOUS
 62
       1
100
AcDbLine
 10
-83.41154273
 20
138.0
 30
0.0
 11
-91.20577137
 21
124.5
 31
0.0
  0
LINE
  5
FE
100
AcDbEntity
  8
D-STR
  6
CONTINUOUS
 62
       1
100
AcDbLine
 10
-91.20577137
 20
151.5
 30
0.0
 11
-83.41154273
 21
138.0
 31
0.0
  0
ENDBLK
  5
FF
100
AcDbEntity
  8
0
100
AcDbBlockEnd
  0
BLOCK
  5
100
100
AcDbEntity
  8
0
100
AcDbBlockBegin
  2
GROUP_10
 70
       0
 10
0.0
 20
0.0
 30
0.0
  3
GROUP_10
  1

  0
LINE
  5
101
100
AcDbEntity
  8
D-STR
  6
CONTINUOUS
 62
       1
100
AcDbLine
 10
-126.0
 20
21.0
 30
0.0
 11
-72.0
 21
21.0
 31
0.0
  0
LINE
  5
102
100
AcDbEntity
  8
D-STR
  6
CONTINUOUS
 62
       1
100
AcDbLine
 10
-117.0
 20
21.0
 30
0.0
 11
-117.0
 21
-86.835
 31
0.0
  0
LINE
  5
103
100
AcDbEntity
  8
D-STR
  6
CONTINUOUS
 62
       1
100
AcDbLine
 10
-81.0
 20
21.0
 30
0.0
 11
-81.0
 21
-86.835
 31
0.0
  0
LINE
  5
104
100
AcDbEntity
  8
D-STR
  6
CONTINUOUS
 62
       1
100
AcDbLine
 10
-114.835
 20
-89.0
 30
0.0
 11
-83.165
 21
-89.0
 31
0.0
  0
LINE
  5
105
100
AcDbEntity
  8
D-STR
  6
CONTINUOUS
 62
       1
100
AcDbLine
 10
-117.0
 20
9.0
 30
0.0
 11
-81.0
 21
9.0
 31
0.0
  0
LINE
  5
106
100
AcDbEntity
  8
D-STR
  6
CONTINUOUS
 62
       1
100
AcDbLine
 10
-114.835
 20
9.0
 30
0.0
 11
-117.0
 21
12.74989
 31
0.0
  0
LINE
  5
107
100
AcDbEntity
  8
D-STR
  6
CONTINUOUS
 62
       1
100
AcDbLine
 10
-83.165
 20
9.0
 30
0.0
 11
-81.0
 21
12.74989
 31
0.0
  0
LINE
  5
108
100
AcDbEntity
  8
D-STR
  6
CONTINUOUS
 62
       1
100
AcDbLine
 10
-117.0
 20
-86.835
 30
0.0
 11
-114.835
 21
-89.0
 31
0.0
  0
LINE
  5
109
100
AcDbEntity
  8
D-STR
  6
CONTINUOUS
 62
       1
100
AcDbLine
 10
-83.165
 20
-89.0
 30
0.0
 11
-81.0
 21
-86.835
 31
0.0
  0
LINE
  5
10A
100
AcDbEntity
  8
D-STR
  6
CONTINUOUS
 62
       1
100
AcDbLine
 10
-117.0
 20
-86.835
 30
0.0
 11
-81.0
 21
-86.835
 31
0.0
  0
LINE
  5
10B
100
AcDbEntity
  8
D-STR
  6
CONTINUOUS
 62
       1
100
AcDbLine
 10
-126.0
 20
57.0
 30
0.0
 11
-72.0
 21
57.0
 31
0.0
  0
LINE
  5
10C
100
AcDbEntity
  8
D-STR
  6
CONTINUOUS
 62
       1
100
AcDbLine
 10
-126.0
 20
57.0
 30
0.0
 11
-126.0
 21
21.0
 31
0.0
  0
LINE
  5
10D
100
AcDbEntity
  8
D-STR
  6
CONTINUOUS
 62
       1
100
AcDbLine
 10
-72.0
 20
57.0
 30
0.0
 11
-72.0
 21
21.0
 31
0.0
  0
LINE
  5
10E
100
AcDbEntity
  8
D-BMK
  6
CENTER
 62
       2
100
AcDbLine
 10
-99.0
 20
57.0
 30
0.0
 11
-99.0
 21
-89.0
 31
0.0
  0
LINE
  5
10F
100
AcDbEntity
  8
D-STR
  6
CONTINUOUS
 62
       7
100
AcDbLine
 10
-114.835
 20
9.0
 30
0.0
 11
-114.835
 21
-89.0
 31
0.0
  0
LINE
  5
110
100
AcDbEntity
  8
D-STR
  6
CONTINUOUS
 62
       7
100
AcDbLine
 10
-83.165
 20
9.0
 30
0.0
 11
-83.165
 21
-89.0
 31
0.0
  0
LINE
  5
111
100
AcDbEntity
  8
D-STR-HID
  6
DASHED2
 62
       1
100
AcDbLine
 10
-114.58845727
 20
38.0
 30
0.0
 11
-83.41154273
 21
38.0
 31
0.0
  0
LINE
  5
112
100
AcDbEntity
  8
D-STR-HID
  6
DASHED2
 62
       1
100
AcDbLine
 10
-83.41154273
 20
57.0
 30
0.0
 11
-83.41154273
 21
38.0
 31
0.0
  0
LINE
  5
113
100
AcDbEntity
  8
D-STR-HID
  6
DASHED2
 62
       1
100
AcDbLine
 10
-91.20577137
 20
57.0
 30
0.0
 11
-91.20577137
 21
38.0
 31
0.0
  0
LINE
  5
114
100
AcDbEntity
  8
D-STR-HID
  6
DASHED2
 62
       1
100
AcDbLine
 10
-106.79422863
 20
57.0
 30
0.0
 11
-106.79422863
 21
38.0
 31
0.0
  0
LINE
  5
115
100
AcDbEntity
  8
D-STR-HID
  6
DASHED2
 62
       1
100
AcDbLine
 10
-114.58845727
 20
57.0
 30
0.0
 11
-114.58845727
 21
38.0
 31
0.0
  0
LINE
  5
116
100
AcDbEntity
  8
D-STR-HID
  6
DASHED2
 62
       1
100
AcDbLine
 10
-83.41154273
 20
38.0
 30
0.0
 11
-99.0
 21
29.0
 31
0.0
  0
LINE
  5
117
100
AcDbEntity
  8
D-STR-HID
  6
DASHED2
 62
       1
100
AcDbLine
 10
-114.58845727
 20
38.0
 30
0.0
 11
-99.0
 21
29.0
 31
0.0
  0
ENDBLK
  5
118
100
AcDbEntity
  8
0
100
AcDbBlockEnd
  0
BLOCK
  5
119
100
AcDbEntity
  8
0
100
AcDbBlockBegin
  2
GROUP_11
 70
       0
 10
0.0
 20
0.0
 30
0.0
  3
GROUP_11
  1

  0
LINE
  5
11A
100
AcDbEntity
  8
D-BMK
  6
CENTER
 62
       2
100
AcDbLine
 10
-198.0
 20
118.5
 30
0.0
 11
-153.0
 21
118.5
 31
0.0
  0
LINE
  5
11B
100
AcDbEntity
  8
D-BMK
  6
CENTER
 62
       2
100
AcDbLine
 10
-175.5
 20
96.0
 30
0.0
 11
-175.5
 21
141.0
 31
0.0
  0
CIRCLE
  5
11C
100
AcDbEntity
  8
D-STR
  6
CONTINUOUS
 62
       1
100
AcDbCircle
 10
-175.5
 20
118.5
 30
0.0
 40
22.5
  0
LINE
  5
11D
100
AcDbEntity
  8
D-STR
  6
CONTINUOUS
 62
       1
100
AcDbLine
 10
-181.85085296
 20
129.5
 30
0.0
 11
-169.14914704
 21
129.5
 31
0.0
  0
LINE
  5
11E
100
AcDbEntity
  8
D-STR
  6
CONTINUOUS
 62
       1
100
AcDbLine
 10
-188.20170592
 20
118.5
 30
0.0
 11
-181.85085296
 21
129.5
 31
0.0
  0
LINE
  5
11F
100
AcDbEntity
  8
D-STR
  6
CONTINUOUS
 62
       1
100
AcDbLine
 10
-181.85085296
 20
107.5
 30
0.0
 11
-188.20170592
 21
118.5
 31
0.0
  0
LINE
  5
120
100
AcDbEntity
  8
D-STR
  6
CONTINUOUS
 62
       1
100
AcDbLine
 10
-169.14914704
 20
107.5
 30
0.0
 11
-181.85085296
 21
107.5
 31
0.0
  0
LINE
  5
121
100
AcDbEntity
  8
D-STR
  6
CONTINUOUS
 62
       1
100
AcDbLine
 10
-162.79829408
 20
118.5
 30
0.0
 11
-169.14914704
 21
107.5
 31
0.0
  0
LINE
  5
122
100
AcDbEntity
  8
D-STR
  6
CONTINUOUS
 62
       1
100
AcDbLine
 10
-169.14914704
 20
129.5
 30
0.0
 11
-162.79829408
 21
118.5
 31
0.0
  0
ENDBLK
  5
123
100
AcDbEntity
  8
0
100
AcDbBlockEnd
  0
BLOCK
  5
124
100
AcDbEntity
  8
0
100
AcDbBlockBegin
  2
GROUP_12
 70
       0
 10
0.0
 20
0.0
 30
0.0
  3
GROUP_12
  1

  0
LINE
  5
125
100
AcDbEntity
  8
D-STR
  6
CONTINUOUS
 62
       1
100
AcDbLine
 10
-198.0
 20
21.0
 30
0.0
 11
-153.0
 21
21.0
 31
0.0
  0
LINE
  5
126
100
AcDbEntity
  8
D-STR
  6
CONTINUOUS
 62
       1
100
AcDbLine
 10
-190.5
 20
21.0
 30
0.0
 11
-190.5
 21
-77.1055
 31
0.0
  0
LINE
  5
127
100
AcDbEntity
  8
D-STR
  6
CONTINUOUS
 62
       1
100
AcDbLine
 10
-160.5
 20
21.0
 30
0.0
 11
-160.5
 21
-77.1055
 31
0.0
  0
LINE
  5
128
100
AcDbEntity
  8
D-STR
  6
CONTINUOUS
 62
       1
100
AcDbLine
 10
-188.6055
 20
-79.0
 30
0.0
 11
-162.3945
 21
-79.0
 31
0.0
  0
LINE
  5
129
100
AcDbEntity
  8
D-STR
  6
CONTINUOUS
 62
       1
100
AcDbLine
 10
-190.5
 20
10.5
 30
0.0
 11
-160.5
 21
10.5
 31
0.0
  0
LINE
  5
12A
100
AcDbEntity
  8
D-STR
  6
CONTINUOUS
 62
       1
100
AcDbLine
 10
-188.6055
 20
10.5
 30
0.0
 11
-190.5
 21
13.78137025
 31
0.0
  0
LINE
  5
12B
100
AcDbEntity
  8
D-STR
  6
CONTINUOUS
 62
       1
100
AcDbLine
 10
-162.3945
 20
10.5
 30
0.0
 11
-160.5
 21
13.78137025
 31
0.0
  0
LINE
  5
12C
100
AcDbEntity
  8
D-STR
  6
CONTINUOUS
 62
       1
100
AcDbLine
 10
-190.5
 20
-77.1055
 30
0.0
 11
-188.6055
 21
-79.0
 31
0.0
  0
LINE
  5
12D
100
AcDbEntity
  8
D-STR
  6
CONTINUOUS
 62
       1
100
AcDbLine
 10
-162.3945
 20
-79.0
 30
0.0
 11
-160.5
 21
-77.1055
 31
0.0
  0
LINE
  5
12E
100
AcDbEntity
  8
D-STR
  6
CONTINUOUS
 62
       1
100
AcDbLine
 10
-190.5
 20
-77.1055
 30
0.0
 11
-160.5
 21
-77.1055
 31
0.0
  0
LINE
  5
12F
100
AcDbEntity
  8
D-STR
  6
CONTINUOUS
 62
       1
100
AcDbLine
 10
-198.0
 20
51.0
 30
0.0
 11
-153.0
 21
51.0
 31
0.0
  0
LINE
  5
130
100
AcDbEntity
  8
D-STR
  6
CONTINUOUS
 62
       1
100
AcDbLine
 10
-198.0
 20
51.0
 30
0.0
 11
-198.0
 21
21.0
 31
0.0
  0
LINE
  5
131
100
AcDbEntity
  8
D-STR
  6
CONTINUOUS
 62
       1
100
AcDbLine
 10
-153.0
 20
51.0
 30
0.0
 11
-153.0
 21
21.0
 31
0.0
  0
LINE
  5
132
100
AcDbEntity
  8
D-BMK
  6
CENTER
 62
       2
100
AcDbLine
 10
-175.5
 20
51.0
 30
0.0
 11
-175.5
 21
-79.0
 31
0.0
  0
LINE
  5
133
100
AcDbEntity
  8
D-STR
  6
CONTINUOUS
 62
       7
100
AcDbLine
 10
-188.6055
 20
10.5
 30
0.0
 11
-188.6055
 21
-79.0
 31
0.0
  0
LINE
  5
134
100
AcDbEntity
  8
D-STR
  6
CONTINUOUS
 62
       7
100
AcDbLine
 10
-162.3945
 20
10.5
 30
0.0
 11
-162.3945
 21
-79.0
 31
0.0
  0
LINE
  5
135
100
AcDbEntity
  8
D-STR-HID
  6
DASHED2
 62
       1
100
AcDbLine
 10
-188.20170592
 20
35.5
 30
0.0
 11
-162.79829408
 21
35.5
 31
0.0
  0
LINE
  5
136
100
AcDbEntity
  8
D-STR-HID
  6
DASHED2
 62
       1
100
AcDbLine
 10
-162.79829408
 20
51.0
 30
0.0
 11
-162.79829408
 21
35.5
 31
0.0
  0
LINE
  5
137
100
AcDbEntity
  8
D-STR-HID
  6
DASHED2
 62
       1
100
AcDbLine
 10
-169.14914704
 20
51.0
 30
0.0
 11
-169.14914704
 21
35.5
 31
0.0
  0
LINE
  5
138
100
AcDbEntity
  8
D-STR-HID
  6
DASHED2
 62
       1
100
AcDbLine
 10
-181.85085296
 20
51.0
 30
0.0
 11
-181.85085296
 21
35.5
 31
0.0
  0
LINE
  5
139
100
AcDbEntity
  8
D-STR-HID
  6
DASHED2
 62
       1
100
AcDbLine
 10
-188.20170592
 20
51.0
 30
0.0
 11
-188.20170592
 21
35.5
 31
0.0
  0
LINE
  5
13A
100
AcDbEntity
  8
D-STR-HID
  6
DASHED2
 62
       1
100
AcDbLine
 10
-162.79829408
 20
35.5
 30
0.0
 11
-175.5
 21
28.16666667
 31
0.0
  0
LINE
  5
13B
100
AcDbEntity
  8
D-STR-HID
  6
DASHED2
 62
       1
100
AcDbLine
 10
-188.20170592
 20
35.5
 30
0.0
 11
-175.5
 21
28.16666667
 31
0.0
  0
ENDBLK
  5
13C
100
AcDbEntity
  8
0
100
AcDbBlockEnd
  0
BLOCK
  5
13D
100
AcDbEntity
  8
0
100
AcDbBlockBegin
  2
GROUP_13
 70
       0
 10
0.0
 20
0.0
 30
0.0
  3
GROUP_13
  1

  0
LINE
  5
13E
100
AcDbEntity
  8
D-STR
  6
CONTINUOUS
 62
       1
100
AcDbLine
 10
-256.5
 20
21.0
 30
0.0
 11
-220.5
 21
21.0
 31
0.0
  0
LINE
  5
13F
100
AcDbEntity
  8
D-STR
  6
CONTINUOUS
 62
       1
100
AcDbLine
 10
-250.5
 20
21.0
 30
0.0
 11
-250.5
 21
-57.376
 31
0.0
  0
LINE
  5
140
100
AcDbEntity
  8
D-STR
  6
CONTINUOUS
 62
       1
100
AcDbLine
 10
-226.5
 20
21.0
 30
0.0
 11
-226.5
 21
-57.376
 31
0.0
  0
LINE
  5
141
100
AcDbEntity
  8
D-STR
  6
CONTINUOUS
 62
       1
100
AcDbLine
 10
-248.876
 20
-59.0
 30
0.0
 11
-228.124
 21
-59.0
 31
0.0
  0
LINE
  5
142
100
AcDbEntity
  8
D-STR
  6
CONTINUOUS
 62
       1
100
AcDbLine
 10
-250.5
 20
12.0
 30
0.0
 11
-226.5
 21
12.0
 31
0.0
  0
LINE
  5
143
100
AcDbEntity
  8
D-STR
  6
CONTINUOUS
 62
       1
100
AcDbLine
 10
-248.876
 20
12.0
 30
0.0
 11
-250.5
 21
14.81285051
 31
0.0
  0
LINE
  5
144
100
AcDbEntity
  8
D-STR
  6
CONTINUOUS
 62
       1
100
AcDbLine
 10
-228.124
 20
12.0
 30
0.0
 11
-226.5
 21
14.81285051
 31
0.0
  0
LINE
  5
145
100
AcDbEntity
  8
D-STR
  6
CONTINUOUS
 62
       1
100
AcDbLine
 10
-250.5
 20
-57.376
 30
0.0
 11
-248.876
 21
-59.0
 31
0.0
  0
LINE
  5
146
100
AcDbEntity
  8
D-STR
  6
CONTINUOUS
 62
       1
100
AcDbLine
 10
-228.124
 20
-59.0
 30
0.0
 11
-226.5
 21
-57.376
 31
0.0
  0
LINE
  5
147
100
AcDbEntity
  8
D-STR
  6
CONTINUOUS
 62
       1
100
AcDbLine
 10
-250.5
 20
-57.376
 30
0.0
 11
-226.5
 21
-57.376
 31
0.0
  0
LINE
  5
148
100
AcDbEntity
  8
D-STR
  6
CONTINUOUS
 62
       1
100
AcDbLine
 10
-256.5
 20
45.0
 30
0.0
 11
-220.5
 21
45.0
 31
0.0
  0
LINE
  5
149
100
AcDbEntity
  8
D-STR
  6
CONTINUOUS
 62
       1
100
AcDbLine
 10
-256.5
 20
45.0
 30
0.0
 11
-256.5
 21
21.0
 31
0.0
  0
LINE
  5
14A
100
AcDbEntity
  8
D-STR
  6
CONTINUOUS
 62
       1
100
AcDbLine
 10
-220.5
 20
45.0
 30
0.0
 11
-220.5
 21
21.0
 31
0.0
  0
LINE
  5
14B
100
AcDbEntity
  8
D-BMK
  6
CENTER
 62
       2
100
AcDbLine
 10
-238.5
 20
45.0
 30
0.0
 11
-238.5
 21
-59.0
 31
0.0
  0
LINE
  5
14C
100
AcDbEntity
  8
D-STR
  6
CONTINUOUS
 62
       7
100
AcDbLine
 10
-248.876
 20
12.0
 30
0.0
 11
-248.876
 21
-59.0
 31
0.0
  0
LINE
  5
14D
100
AcDbEntity
  8
D-STR
  6
CONTINUOUS
 62
       7
100
AcDbLine
 10
-228.124
 20
12.0
 30
0.0
 11
-228.124
 21
-59.0
 31
0.0
  0
LINE
  5
14E
100
AcDbEntity
  8
D-STR-HID
  6
DASHED2
 62
       1
100
AcDbLine
 10
-249.46965511
 20
33.0
 30
0.0
 11
-227.53034489
 21
33.0
 31
0.0
  0
LINE
  5
14F
100
AcDbEntity
  8
D-STR-HID
  6
DASHED2
 62
       1
100
AcDbLine
 10
-227.53034489
 20
45.0
 30
0.0
 11
-227.53034489
 21
33.0
 31
0.0
  0
LINE
  5
150
100
AcDbEntity
  8
D-STR-HID
  6
DASHED2
 62
       1
100
AcDbLine
 10
-233.01517244
 20
45.0
 30
0.0
 11
-233.01517244
 21
33.0
 31
0.0
  0
LINE
  5
151
100
AcDbEntity
  8
D-STR-HID
  6
DASHED2
 62
       1
100
AcDbLine
 10
-243.98482756
 20
45.0
 30
0.0
 11
-243.98482756
 21
33.0
 31
0.0
  0
LINE
  5
152
100
AcDbEntity
  8
D-STR-HID
  6
DASHED2
 62
       1
100
AcDbLine
 10
-249.46965511
 20
45.0
 30
0.0
 11
-249.46965511
 21
33.0
 31
0.0
  0
LINE
  5
153
100
AcDbEntity
  8
D-STR-HID
  6
DASHED2
 62
       1
100
AcDbLine
 10
-227.53034489
 20
33.0
 30
0.0
 11
-238.5
 21
26.66666667
 31
0.0
  0
LINE
  5
154
100
AcDbEntity
  8
D-STR-HID
  6
DASHED2
 62
       1
100
AcDbLine
 10
-249.46965511
 20
33.0
 30
0.0
 11
-238.5
 21
26.66666667
 31
0.0
  0
ENDBLK
  5
155
100
AcDbEntity
  8
0
100
AcDbBlockEnd
  0
BLOCK
  5
156
100
AcDbEntity
  8
0
100
AcDbBlockBegin
  2
GROUP_14
 70
       0
 10
0.0
 20
0.0
 30
0.0
  3
GROUP_14
  1

  0
LINE
  5
157
100
AcDbEntity
  8
D-BMK
  6
CENTER
 62
       2
100
AcDbLine
 10
-256.5
 20
99.0
 30
0.0
 11
-220.5
 21
99.0
 31
0.0
  0
LINE
  5
158
100
AcDbEntity
  8
D-BMK
  6
CENTER
 62
       2
100
AcDbLine
 10
-238.5
 20
81.0
 30
0.0
 11
-238.5
 21
117.0
 31
0.0
  0
CIRCLE
  5
159
100
AcDbEntity
  8
D-STR
  6
CONTINUOUS
 62
       1
100
AcDbCircle
 10
-238.5
 20
99.0
 30
0.0
 40
18.0
  0
LINE
  5
15A
100
AcDbEntity
  8
D-STR
  6
CONTINUOUS
 62
       1
100
AcDbLine
 10
-243.98482756
 20
108.5
 30
0.0
 11
-233.01517244
 21
108.5
 31
0.0
  0
LINE
  5
15B
100
AcDbEntity
  8
D-STR
  6
CONTINUOUS
 62
       1
100
AcDbLine
 10
-249.46965511
 20
99.0
 30
0.0
 11
-243.98482756
 21
108.5
 31
0.0
  0
LINE
  5
15C
100
AcDbEntity
  8
D-STR
  6
CONTINUOUS
 62
       1
100
AcDbLine
 10
-243.98482756
 20
89.5
 30
0.0
 11
-249.46965511
 21
99.0
 31
0.0
  0
LINE
  5
15D
100
AcDbEntity
  8
D-STR
  6
CONTINUOUS
 62
       1
100
AcDbLine
 10
-233.01517244
 20
89.5
 30
0.0
 11
-243.98482756
 21
89.5
 31
0.0
  0
LINE
  5
15E
100
AcDbEntity
  8
D-STR
  6
CONTINUOUS
 62
       1
100
AcDbLine
 10
-227.53034489
 20
99.0
 30
0.0
 11
-233.01517244
 21
89.5
 31
0.0
  0
LINE
  5
15F
100
AcDbEntity
  8
D-STR
  6
CONTINUOUS
 62
       1
100
AcDbLine
 10
-233.01517244
 20
108.5
 30
0.0
 11
-227.53034489
 21
99.0
 31
0.0
  0
ENDBLK
  5
160
100
AcDbEntity
  8
0
100
AcDbBlockEnd
  0
BLOCK
  5
161
100
AcDbEntity
  8
0
100
AcDbBlockBegin
  2
GROUP_15
 70
       0
 10
0.0
 20
0.0
 30
0.0
  3
GROUP_15
  1

  0
LINE
  5
162
100
AcDbEntity
  8
D-BMK
  6
CENTER
 62
       2
100
AcDbLine
 10
-400.5
 20
-200.9
 30
0.0
 11
-397.5
 21
-200.9
 31
0.0
  0
LINE
  5
163
100
AcDbEntity
  8
D-BMK
  6
CENTER
 62
       2
100
AcDbLine
 10
-399.0
 20
-202.4
 30
0.0
 11
-399.0
 21
-199.4
 31
0.0
  0
CIRCLE
  5
164
100
AcDbEntity
  8
D-STR
  6
CONTINUOUS
 62
       1
100
AcDbCircle
 10
-399.0
 20
-200.9
 30
0.0
 40
1.5
  0
LINE
  5
165
100
AcDbEntity
  8
D-STR
  6
CONTINUOUS
 62
       1
100
AcDbLine
 10
-399.4330127
 20
-200.15
 30
0.0
 11
-398.5669873
 21
-200.15
 31
0.0
  0
LINE
  5
166
100
AcDbEntity
  8
D-STR
  6
CONTINUOUS
 62
       1
100
AcDbLine
 10
-399.8660254
 20
-200.9
 30
0.0
 11
-399.4330127
 21
-200.15
 31
0.0
  0
LINE
  5
167
100
AcDbEntity
  8
D-STR
  6
CONTINUOUS
 62
       1
100
AcDbLine
 10
-399.4330127
 20
-201.65
 30
0.0
 11
-399.8660254
 21
-200.9
 31
0.0
  0
LINE
  5
168
100
AcDbEntity
  8
D-STR
  6
CONTINUOUS
 62
       1
100
AcDbLine
 10
-398.5669873
 20
-201.65
 30
0.0
 11
-399.4330127
 21
-201.65
 31
0.0
  0
LINE
  5
169
100
AcDbEntity
  8
D-STR
  6
CONTINUOUS
 62
       1
100
AcDbLine
 10
-398.1339746
 20
-200.9
 30
0.0
 11
-398.5669873
 21
-201.65
 31
0.0
  0
LINE
  5
16A
100
AcDbEntity
  8
D-STR
  6
CONTINUOUS
 62
       1
100
AcDbLine
 10
-398.5669873
 20
-200.15
 30
0.0
 11
-398.1339746
 21
-200.9
 31
0.0
  0
ENDBLK
  5
16B
100
AcDbEntity
  8
0
100
AcDbBlockEnd
  0
BLOCK
  5
16C
100
AcDbEntity
  8
0
100
AcDbBlockBegin
  2
GROUP_16
 70
       0
 10
0.0
 20
0.0
 30
0.0
  3
GROUP_16
  1

  0
LINE
  5
16D
100
AcDbEntity
  8
D-BMK
  6
CENTER
 62
       2
100
AcDbLine
 10
-399.0
 20
-205.4
 30
0.0
 11
-399.0
 21
-223.0
 31
0.0
  0
LINE
  5
16E
100
AcDbEntity
  8
D-STR
  6
CONTINUOUS
 62
       1
100
AcDbLine
 10
-398.2
 20
-207.0
 30
0.0
 11
-398.2
 21
-222.8105
 31
0.0
  0
LINE
  5
16F
100
AcDbEntity
  8
D-STR
  6
CONTINUOUS
 62
       1
100
AcDbLine
 10
-399.8
 20
-207.0
 30
0.0
 11
-399.8
 21
-222.8105
 31
0.0
  0
LINE
  5
170
100
AcDbEntity
  8
D-STR
  6
CONTINUOUS
 62
       1
100
AcDbLine
 10
-399.6105
 20
-223.0
 30
0.0
 11
-398.3895
 21
-223.0
 31
0.0
  0
LINE
  5
171
100
AcDbEntity
  8
D-STR
  6
CONTINUOUS
 62
       1
100
AcDbLine
 10
-399.8
 20
-208.05
 30
0.0
 11
-398.2
 21
-208.05
 31
0.0
  0
LINE
  5
172
100
AcDbEntity
  8
D-STR
  6
CONTINUOUS
 62
       1
100
AcDbLine
 10
-399.6105
 20
-208.05
 30
0.0
 11
-399.8
 21
-207.72177637
 31
0.0
  0
LINE
  5
173
100
AcDbEntity
  8
D-STR
  6
CONTINUOUS
 62
       1
100
AcDbLine
 10
-398.3895
 20
-208.05
 30
0.0
 11
-398.2
 21
-207.72177637
 31
0.0
  0
LINE
  5
174
100
AcDbEntity
  8
D-STR
  6
CONTINUOUS
 62
       1
100
AcDbLine
 10
-399.8
 20
-222.8105
 30
0.0
 11
-399.6105
 21
-223.0
 31
0.0
  0
LINE
  5
175
100
AcDbEntity
  8
D-STR
  6
CONTINUOUS
 62
       1
100
AcDbLine
 10
-398.3895
 20
-223.0
 30
0.0
 11
-398.2
 21
-222.8105
 31
0.0
  0
LINE
  5
176
100
AcDbEntity
  8
D-STR
  6
CONTINUOUS
 62
       1
100
AcDbLine
 10
-399.8
 20
-222.8105
 30
0.0
 11
-398.2
 21
-222.8105
 31
0.0
  0
LINE
  5
177
100
AcDbEntity
  8
D-STR
  6
CONTINUOUS
 62
       1
100
AcDbLine
 10
-400.5
 20
-207.0
 30
0.0
 11
-397.5
 21
-207.0
 31
0.0
  0
LINE
  5
178
100
AcDbEntity
  8
D-STR
  6
CONTINUOUS
 62
       1
100
AcDbLine
 10
-400.5
 20
-205.4
 30
0.0
 11
-397.5
 21
-205.4
 31
0.0
  0
LINE
  5
179
100
AcDbEntity
  8
D-STR
  6
CONTINUOUS
 62
       1
100
AcDbLine
 10
-400.5
 20
-205.4
 30
0.0
 11
-400.5
 21
-207.0
 31
0.0
  0
LINE
  5
17A
100
AcDbEntity
  8
D-STR
  6
CONTINUOUS
 62
       1
100
AcDbLine
 10
-397.5
 20
-205.4
 30
0.0
 11
-397.5
 21
-207.0
 31
0.0
  0
LINE
  5
17B
100
AcDbEntity
  8
D-STR
  6
CONTINUOUS
 62
       7
100
AcDbLine
 10
-399.6105
 20
-208.05
 30
0.0
 11
-399.6105
 21
-223.0
 31
0.0
  0
LINE
  5
17C
100
AcDbEntity
  8
D-STR
  6
CONTINUOUS
 62
       7
100
AcDbLine
 10
-398.3895
 20
-208.05
 30
0.0
 11
-398.3895
 21
-223.0
 31
0.0
  0
LINE
  5
17D
100
AcDbEntity
  8
D-STR-HID
  6
DASHED2
 62
       1
100
AcDbLine
 10
-399.8660254
 20
-206.1
 30
0.0
 11
-398.1339746
 21
-206.1
 31
0.0
  0
LINE
  5
17E
100
AcDbEntity
  8
D-STR-HID
  6
DASHED2
 62
       1
100
AcDbLine
 10
-398.1339746
 20
-205.4
 30
0.0
 11
-398.1339746
 21
-206.1
 31
0.0
  0
LINE
  5
17F
100
AcDbEntity
  8
D-STR-HID
  6
DASHED2
 62
       1
100
AcDbLine
 10
-398.5669873
 20
-205.4
 30
0.0
 11
-398.5669873
 21
-206.1
 31
0.0
  0
LINE
  5
180
100
AcDbEntity
  8
D-STR-HID
  6
DASHED2
 62
       1
100
AcDbLine
 10
-399.4330127
 20
-205.4
 30
0.0
 11
-399.4330127
 21
-206.1
 31
0.0
  0
LINE
  5
181
100
AcDbEntity
  8
D-STR-HID
  6
DASHED2
 62
       1
100
AcDbLine
 10
-399.8660254
 20
-205.4
 30
0.0
 11
-399.8660254
 21
-206.1
 31
0.0
  0
LINE
  5
182
100
AcDbEntity
  8
D-STR-HID
  6
DASHED2
 62
       1
100
AcDbLine
 10
-398.1339746
 20
-206.1
 30
0.0
 11
-399.0
 21
-206.6
 31
0.0
  0
LINE
  5
183
100
AcDbEntity
  8
D-STR-HID
  6
DASHED2
 62
       1
100
AcDbLine
 10
-399.8660254
 20
-206.1
 30
0.0
 11
-399.0
 21
-206.6
 31
0.0
  0
ENDBLK
  5
184
100
AcDbEntity
  8
0
100
AcDbBlockEnd
  0
BLOCK
  5
185
100
AcDbEntity
  8
0
100
AcDbBlockBegin
  2
GROUP_17
 70
       0
 10
0.0
 20
0.0
 30
0.0
  3
GROUP_17
  1

  0
LINE
  5
186
100
AcDbEntity
  8
D-BMK
  6
CENTER
 62
       2
100
AcDbLine
 10
-393.7
 20
-205.0
 30
0.0
 11
-393.7
 21
-223.0
 31
0.0
  0
LINE
  5
187
100
AcDbEntity
  8
D-STR
  6
CONTINUOUS
 62
       1
100
AcDbLine
 10
-392.7
 20
-207.0
 30
0.0
 11
-392.7
 21
-222.7835
 31
0.0
  0
LINE
  5
188
100
AcDbEntity
  8
D-STR
  6
CONTINUOUS
 62
       1
100
AcDbLine
 10
-392.9165
 20
-208.2
 30
0.0
 11
-392.7
 21
-207.825011
 31
0.0
  0
LINE
  5
189
100
AcDbEntity
  8
D-STR
  6
CONTINUOUS
 62
       1
100
AcDbLine
 10
-392.9165
 20
-223.0
 30
0.0
 11
-392.7
 21
-222.7835
 31
0.0
  0
LINE
  5
18A
100
AcDbEntity
  8
D-STR
  6
CONTINUOUS
 62
       1
100
AcDbLine
 10
-391.8
 20
-205.0
 30
0.0
 11
-391.8
 21
-207.0
 31
0.0
  0
LINE
  5
18B
100
AcDbEntity
  8
D-STR
  6
CONTINUOUS
 62
       1
100
AcDbLine
 10
-394.7
 20
-207.0
 30
0.0
 11
-394.7
 21
-222.7835
 31
0.0
  0
LINE
  5
18C
100
AcDbEntity
  8
D-STR
  6
CONTINUOUS
 62
       1
100
AcDbLine
 10
-394.4835
 20
-208.2
 30
0.0
 11
-394.7
 21
-207.825011
 31
0.0
  0
LINE
  5
18D
100
AcDbEntity
  8
D-STR
  6
CONTINUOUS
 62
       1
100
AcDbLine
 10
-394.7
 20
-222.7835
 30
0.0
 11
-394.4835
 21
-223.0
 31
0.0
  0
LINE
  5
18E
100
AcDbEntity
  8
D-STR
  6
CONTINUOUS
 62
       1
100
AcDbLine
 10
-395.6
 20
-205.0
 30
0.0
 11
-395.6
 21
-207.0
 31
0.0
  0
LINE
  5
18F
100
AcDbEntity
  8
D-STR
  6
CONTINUOUS
 62
       1
100
AcDbLine
 10
-394.4835
 20
-223.0
 30
0.0
 11
-392.9165
 21
-223.0
 31
0.0
  0
LINE
  5
190
100
AcDbEntity
  8
D-STR
  6
CONTINUOUS
 62
       1
100
AcDbLine
 10
-394.7
 20
-208.2
 30
0.0
 11
-392.7
 21
-208.2
 31
0.0
  0
LINE
  5
191
100
AcDbEntity
  8
D-STR
  6
CONTINUOUS
 62
       1
100
AcDbLine
 10
-394.7
 20
-222.7835
 30
0.0
 11
-392.7
 21
-222.7835
 31
0.0
  0
LINE
  5
192
100
AcDbEntity
  8
D-STR
  6
CONTINUOUS
 62
       1
100
AcDbLine
 10
-395.6
 20
-207.0
 30
0.0
 11
-391.8
 21
-207.0
 31
0.0
  0
LINE
  5
193
100
AcDbEntity
  8
D-STR
  6
CONTINUOUS
 62
       1
100
AcDbLine
 10
-395.6
 20
-205.0
 30
0.0
 11
-391.8
 21
-205.0
 31
0.0
  0
LINE
  5
194
100
AcDbEntity
  8
D-STR
  6
CONTINUOUS
 62
       7
100
AcDbLine
 10
-392.9165
 20
-208.2
 30
0.0
 11
-392.9165
 21
-223.0
 31
0.0
  0
LINE
  5
195
100
AcDbEntity
  8
D-STR
  6
CONTINUOUS
 62
       7
100
AcDbLine
 10
-394.4835
 20
-208.2
 30
0.0
 11
-394.4835
 21
-223.0
 31
0.0
  0
LINE
  5
196
100
AcDbEntity
  8
D-STR-HID
  6
DASHED2
 62
       1
100
AcDbLine
 10
-392.8339746
 20
-205.0
 30
0.0
 11
-392.8339746
 21
-206.0
 31
0.0
  0
LINE
  5
197
100
AcDbEntity
  8
D-STR-HID
  6
DASHED2
 62
       1
100
AcDbLine
 10
-393.2669873
 20
-205.0
 30
0.0
 11
-393.2669873
 21
-206.0
 31
0.0
  0
LINE
  5
198
100
AcDbEntity
  8
D-STR-HID
  6
DASHED2
 62
       1
100
AcDbLine
 10
-394.1330127
 20
-205.0
 30
0.0
 11
-394.1330127
 21
-206.0
 31
0.0
  0
LINE
  5
199
100
AcDbEntity
  8
D-STR-HID
  6
DASHED2
 62
       1
100
AcDbLine
 10
-392.8339746
 20
-206.0
 30
0.0
 11
-393.7
 21
-206.5
 31
0.0
  0
LINE
  5
19A
100
AcDbEntity
  8
D-STR-HID
  6
DASHED2
 62
       1
100
AcDbLine
 10
-394.5660254
 20
-205.0
 30
0.0
 11
-394.5660254
 21
-206.0
 31
0.0
  0
LINE
  5
19B
100
AcDbEntity
  8
D-STR-HID
  6
DASHED2
 62
       1
100
AcDbLine
 10
-394.5660254
 20
-206.0
 30
0.0
 11
-392.8339746
 21
-206.0
 31
0.0
  0
LINE
  5
19C
100
AcDbEntity
  8
D-STR-HID
  6
DASHED2
 62
       1
100
AcDbLine
 10
-394.5660254
 20
-206.0
 30
0.0
 11
-393.7
 21
-206.5
 31
0.0
  0
ENDBLK
  5
19D
100
AcDbEntity
  8
0
100
AcDbBlockEnd
  0
BLOCK
  5
19E
100
AcDbEntity
  8
0
100
AcDbBlockBegin
  2
GROUP_18
 70
       0
 10
0.0
 20
0.0
 30
0.0
  3
GROUP_18
  1

  0
LINE
  5
19F
100
AcDbEntity
  8
D-BMK
  6
CENTER
 62
       2
100
AcDbLine
 10
-395.6
 20
-199.3
 30
0.0
 11
-391.8
 21
-199.3
 31
0.0
  0
LINE
  5
1A0
100
AcDbEntity
  8
D-BMK
  6
CENTER
 62
       2
100
AcDbLine
 10
-393.7
 20
-201.2
 30
0.0
 11
-393.7
 21
-197.4
 31
0.0
  0
CIRCLE
  5
1A1
100
AcDbEntity
  8
D-STR
  6
CONTINUOUS
 62
       1
100
AcDbCircle
 10
-393.7
 20
-199.3
 30
0.0
 40
1.9
  0
LINE
  5
1A2
100
AcDbEntity
  8
D-STR
  6
CONTINUOUS
 62
       1
100
AcDbLine
 10
-394.1330127
 20
-198.55
 30
0.0
 11
-393.2669873
 21
-198.55
 31
0.0
  0
LINE
  5
1A3
100
AcDbEntity
  8
D-STR
  6
CONTINUOUS
 62
       1
100
AcDbLine
 10
-394.5660254
 20
-199.3
 30
0.0
 11
-394.1330127
 21
-198.55
 31
0.0
  0
LINE
  5
1A4
100
AcDbEntity
  8
D-STR
  6
CONTINUOUS
 62
       1
100
AcDbLine
 10
-394.1330127
 20
-200.05
 30
0.0
 11
-394.5660254
 21
-199.3
 31
0.0
  0
LINE
  5
1A5
100
AcDbEntity
  8
D-STR
  6
CONTINUOUS
 62
       1
100
AcDbLine
 10
-393.2669873
 20
-200.05
 30
0.0
 11
-394.1330127
 21
-200.05
 31
0.0
  0
LINE
  5
1A6
100
AcDbEntity
  8
D-STR
  6
CONTINUOUS
 62
       1
100
AcDbLine
 10
-392.8339746
 20
-199.3
 30
0.0
 11
-393.2669873
 21
-200.05
 31
0.0
  0
LINE
  5
1A7
100
AcDbEntity
  8
D-STR
  6
CONTINUOUS
 62
       1
100
AcDbLine
 10
-393.2669873
 20
-198.55
 30
0.0
 11
-392.8339746
 21
-199.3
 31
0.0
  0
ENDBLK
  5
1A8
100
AcDbEntity
  8
0
100
AcDbBlockEnd
  0
BLOCK
  5
1A9
100
AcDbEntity
  8
0
100
AcDbBlockBegin
  2
GROUP_19
 70
       0
 10
0.0
 20
0.0
 30
0.0
  3
GROUP_19
  1

  0
LINE
  5
1AA
100
AcDbEntity
  8
D-BMK
  6
CENTER
 62
       2
100
AcDbLine
 10
-389.55
 20
-197.75
 30
0.0
 11
-385.05
 21
-197.75
 31
0.0
  0
LINE
  5
1AB
100
AcDbEntity
  8
D-BMK
  6
CENTER
 62
       2
100
AcDbLine
 10
-387.3
 20
-200.0
 30
0.0
 11
-387.3
 21
-195.5
 31
0.0
  0
CIRCLE
  5
1AC
100
AcDbEntity
  8
D-STR
  6
CONTINUOUS
 62
       1
100
AcDbCircle
 10
-387.3
 20
-197.75
 30
0.0
 40
2.25
  0
LINE
  5
1AD
100
AcDbEntity
  8
D-STR
  6
CONTINUOUS
 62
       1
100
AcDbLine
 10
-387.87735027
 20
-196.75
 30
0.0
 11
-386.72264973
 21
-196.75
 31
0.0
  0
LINE
  5
1AE
100
AcDbEntity
  8
D-STR
  6
CONTINUOUS
 62
       1
100
AcDbLine
 10
-388.45470054
 20
-197.75
 30
0.0
 11
-387.87735027
 21
-196.75
 31
0.0
  0
LINE
  5
1AF
100
AcDbEntity
  8
D-STR
  6
CONTINUOUS
 62
       1
100
AcDbLine
 10
-387.87735027
 20
-198.75
 30
0.0
 11
-388.45470054
 21
-197.75
 31
0.0
  0
LINE
  5
1B0
100
AcDbEntity
  8
D-STR
  6
CONTINUOUS
 62
       1
100
AcDbLine
 10
-386.72264973
 20
-198.75
 30
0.0
 11
-387.87735027
 21
-198.75
 31
0.0
  0
LINE
  5
1B1
100
AcDbEntity
  8
D-STR
  6
CONTINUOUS
 62
       1
100
AcDbLine
 10
-386.14529946
 20
-197.75
 30
0.0
 11
-386.72264973
 21
-198.75
 31
0.0
  0
LINE
  5
1B2
100
AcDbEntity
  8
D-STR
  6
CONTINUOUS
 62
       1
100
AcDbLine
 10
-386.72264973
 20
-196.75
 30
0.0
 11
-386.14529946
 21
-197.75
 31
0.0
  0
ENDBLK
  5
1B3
100
AcDbEntity
  8
0
100
AcDbBlockEnd
  0
BLOCK
  5
1B4
100
AcDbEntity
  8
0
100
AcDbBlockBegin
  2
GROUP_20
 70
       0
 10
0.0
 20
0.0
 30
0.0
  3
GROUP_20
  1

  0
LINE
  5
1B5
100
AcDbEntity
  8
D-BMK
  6
CENTER
 62
       2
100
AcDbLine
 10
-387.3
 20
-204.5
 30
0.0
 11
-387.3
 21
-227.0
 31
0.0
  0
LINE
  5
1B6
100
AcDbEntity
  8
D-STR
  6
CONTINUOUS
 62
       1
100
AcDbLine
 10
-386.05
 20
-207.0
 30
0.0
 11
-386.05
 21
-226.7565
 31
0.0
  0
LINE
  5
1B7
100
AcDbEntity
  8
D-STR
  6
CONTINUOUS
 62
       1
100
AcDbLine
 10
-388.55
 20
-207.0
 30
0.0
 11
-388.55
 21
-226.7565
 31
0.0
  0
LINE
  5
1B8
100
AcDbEntity
  8
D-STR
  6
CONTINUOUS
 62
       1
100
AcDbLine
 10
-388.3065
 20
-227.0
 30
0.0
 11
-386.2935
 21
-227.0
 31
0.0
  0
LINE
  5
1B9
100
AcDbEntity
  8
D-STR
  6
CONTINUOUS
 62
       1
100
AcDbLine
 10
-388.55
 20
-208.35
 30
0.0
 11
-386.05
 21
-208.35
 31
0.0
  0
LINE
  5
1BA
100
AcDbEntity
  8
D-STR
  6
CONTINUOUS
 62
       1
100
AcDbLine
 10
-388.3065
 20
-208.35
 30
0.0
 11
-388.55
 21
-207.92824563
 31
0.0
  0
LINE
  5
1BB
100
AcDbEntity
  8
D-STR
  6
CONTINUOUS
 62
       1
100
AcDbLine
 10
-386.2935
 20
-208.35
 30
0.0
 11
-386.05
 21
-207.92824563
 31
0.0
  0
LINE
  5
1BC
100
AcDbEntity
  8
D-STR
  6
CONTINUOUS
 62
       1
100
AcDbLine
 10
-388.55
 20
-226.7565
 30
0.0
 11
-388.3065
 21
-227.0
 31
0.0
  0
LINE
  5
1BD
100
AcDbEntity
  8
D-STR
  6
CONTINUOUS
 62
       1
100
AcDbLine
 10
-386.2935
 20
-227.0
 30
0.0
 11
-386.05
 21
-226.7565
 31
0.0
  0
LINE
  5
1BE
100
AcDbEntity
  8
D-STR
  6
CONTINUOUS
 62
       1
100
AcDbLine
 10
-388.55
 20
-226.7565
 30
0.0
 11
-386.05
 21
-226.7565
 31
0.0
  0
LINE
  5
1BF
100
AcDbEntity
  8
D-STR
  6
CONTINUOUS
 62
       1
100
AcDbLine
 10
-389.55
 20
-207.0
 30
0.0
 11
-385.05
 21
-207.0
 31
0.0
  0
LINE
  5
1C0
100
AcDbEntity
  8
D-STR
  6
CONTINUOUS
 62
       1
100
AcDbLine
 10
-389.55
 20
-204.5
 30
0.0
 11
-385.05
 21
-204.5
 31
0.0
  0
LINE
  5
1C1
100
AcDbEntity
  8
D-STR
  6
CONTINUOUS
 62
       1
100
AcDbLine
 10
-389.55
 20
-204.5
 30
0.0
 11
-389.55
 21
-207.0
 31
0.0
  0
LINE
  5
1C2
100
AcDbEntity
  8
D-STR
  6
CONTINUOUS
 62
       1
100
AcDbLine
 10
-385.05
 20
-204.5
 30
0.0
 11
-385.05
 21
-207.0
 31
0.0
  0
LINE
  5
1C3
100
AcDbEntity
  8
D-STR
  6
CONTINUOUS
 62
       7
100
AcDbLine
 10
-388.3065
 20
-208.35
 30
0.0
 11
-388.3065
 21
-227.0
 31
0.0
  0
LINE
  5
1C4
100
AcDbEntity
  8
D-STR
  6
CONTINUOUS
 62
       7
100
AcDbLine
 10
-386.2935
 20
-208.35
 30
0.0
 11
-386.2935
 21
-227.0
 31
0.0
  0
LINE
  5
1C5
100
AcDbEntity
  8
D-STR-HID
  6
DASHED2
 62
       1
100
AcDbLine
 10
-388.45470054
 20
-205.6
 30
0.0
 11
-386.14529946
 21
-205.6
 31
0.0
  0
LINE
  5
1C6
100
AcDbEntity
  8
D-STR-HID
  6
DASHED2
 62
       1
100
AcDbLine
 10
-386.14529946
 20
-204.5
 30
0.0
 11
-386.14529946
 21
-205.6
 31
0.0
  0
LINE
  5
1C7
100
AcDbEntity
  8
D-STR-HID
  6
DASHED2
 62
       1
100
AcDbLine
 10
-386.72264973
 20
-204.5
 30
0.0
 11
-386.72264973
 21
-205.6
 31
0.0
  0
LINE
  5
1C8
100
AcDbEntity
  8
D-STR-HID
  6
DASHED2
 62
       1
100
AcDbLine
 10
-387.87735027
 20
-204.5
 30
0.0
 11
-387.87735027
 21
-205.6
 31
0.0
  0
LINE
  5
1C9
100
AcDbEntity
  8
D-STR-HID
  6
DASHED2
 62
       1
100
AcDbLine
 10
-388.45470054
 20
-204.5
 30
0.0
 11
-388.45470054
 21
-205.6
 31
0.0
  0
LINE
  5
1CA
100
AcDbEntity
  8
D-STR-HID
  6
DASHED2
 62
       1
100
AcDbLine
 10
-386.14529946
 20
-205.6
 30
0.0
 11
-387.3
 21
-206.26666667
 31
0.0
  0
LINE
  5
1CB
100
AcDbEntity
  8
D-STR-HID
  6
DASHED2
 62
       1
100
AcDbLine
 10
-388.45470054
 20
-205.6
 30
0.0
 11
-387.3
 21
-206.26666667
 31
0.0
  0
ENDBLK
  5
1CC
100
AcDbEntity
  8
0
100
AcDbBlockEnd
  0
BLOCK
  5
1CD
100
AcDbEntity
  8
0
100
AcDbBlockBegin
  2
GROUP_21
 70
       0
 10
0.0
 20
0.0
 30
0.0
  3
GROUP_21
  1

  0
LINE
  5
1CE
100
AcDbEntity
  8
D-BMK
  6
CENTER
 62
       2
100
AcDbLine
 10
-379.55
 20
-204.0
 30
0.0
 11
-379.55
 21
-227.0
 31
0.0
  0
LINE
  5
1CF
100
AcDbEntity
  8
D-STR
  6
CONTINUOUS
 62
       1
100
AcDbLine
 10
-378.05
 20
-207.0
 30
0.0
 11
-378.05
 21
-226.7295
 31
0.0
  0
LINE
  5
1D0
100
AcDbEntity
  8
D-STR
  6
CONTINUOUS
 62
       1
100
AcDbLine
 10
-381.05
 20
-207.0
 30
0.0
 11
-381.05
 21
-226.7295
 31
0.0
  0
LINE
  5
1D1
100
AcDbEntity
  8
D-STR
  6
CONTINUOUS
 62
       1
100
AcDbLine
 10
-380.7795
 20
-227.0
 30
0.0
 11
-378.3205
 21
-227.0
 31
0.0
  0
LINE
  5
1D2
100
AcDbEntity
  8
D-STR
  6
CONTINUOUS
 62
       1
100
AcDbLine
 10
-381.05
 20
-208.5
 30
0.0
 11
-378.05
 21
-208.5
 31
0.0
  0
LINE
  5
1D3
100
AcDbEntity
  8
D-STR
  6
CONTINUOUS
 62
       1
100
AcDbLine
 10
-380.7795
 20
-208.5
 30
0.0
 11
-381.05
 21
-208.03148026
 31
0.0
  0
LINE
  5
1D4
100
AcDbEntity
  8
D-STR
  6
CONTINUOUS
 62
       1
100
AcDbLine
 10
-378.3205
 20
-208.5
 30
0.0
 11
-378.05
 21
-208.03148026
 31
0.0
  0
LINE
  5
1D5
100
AcDbEntity
  8
D-STR
  6
CONTINUOUS
 62
       1
100
AcDbLine
 10
-381.05
 20
-226.7295
 30
0.0
 11
-380.7795
 21
-227.0
 31
0.0
  0
LINE
  5
1D6
100
AcDbEntity
  8
D-STR
  6
CONTINUOUS
 62
       1
100
AcDbLine
 10
-378.3205
 20
-227.0
 30
0.0
 11
-378.05
 21
-226.7295
 31
0.0
  0
LINE
  5
1D7
100
AcDbEntity
  8
D-STR
  6
CONTINUOUS
 62
       1
100
AcDbLine
 10
-381.05
 20
-226.7295
 30
0.0
 11
-378.05
 21
-226.7295
 31
0.0
  0
LINE
  5
1D8
100
AcDbEntity
  8
D-STR
  6
CONTINUOUS
 62
       1
100
AcDbLine
 10
-382.3
 20
-207.0
 30
0.0
 11
-376.8
 21
-207.0
 31
0.0
  0
LINE
  5
1D9
100
AcDbEntity
  8
D-STR
  6
CONTINUOUS
 62
       1
100
AcDbLine
 10
-382.3
 20
-204.0
 30
0.0
 11
-376.8
 21
-204.0
 31
0.0
  0
LINE
  5
1DA
100
AcDbEntity
  8
D-STR
  6
CONTINUOUS
 62
       1
100
AcDbLine
 10
-382.3
 20
-204.0
 30
0.0
 11
-382.3
 21
-207.0
 31
0.0
  0
LINE
  5
1DB
100
AcDbEntity
  8
D-STR
  6
CONTINUOUS
 62
       1
100
AcDbLine
 10
-376.8
 20
-204.0
 30
0.0
 11
-376.8
 21
-207.0
 31
0.0
  0
LINE
  5
1DC
100
AcDbEntity
  8
D-STR
  6
CONTINUOUS
 62
       7
100
AcDbLine
 10
-380.7795
 20
-208.5
 30
0.0
 11
-380.7795
 21
-227.0
 31
0.0
  0
LINE
  5
1DD
100
AcDbEntity
  8
D-STR
  6
CONTINUOUS
 62
       7
100
AcDbLine
 10
-378.3205
 20
-208.5
 30
0.0
 11
-378.3205
 21
-227.0
 31
0.0
  0
LINE
  5
1DE
100
AcDbEntity
  8
D-STR-HID
  6
DASHED2
 62
       1
100
AcDbLine
 10
-380.99337567
 20
-205.3
 30
0.0
 11
-378.10662433
 21
-205.3
 31
0.0
  0
LINE
  5
1DF
100
AcDbEntity
  8
D-STR-HID
  6
DASHED2
 62
       1
100
AcDbLine
 10
-378.10662433
 20
-204.0
 30
0.0
 11
-378.10662433
 21
-205.3
 31
0.0
  0
LINE
  5
1E0
100
AcDbEntity
  8
D-STR-HID
  6
DASHED2
 62
       1
100
AcDbLine
 10
-378.82831216
 20
-204.0
 30
0.0
 11
-378.82831216
 21
-205.3
 31
0.0
  0
LINE
  5
1E1
100
AcDbEntity
  8
D-STR-HID
  6
DASHED2
 62
       1
100
AcDbLine
 10
-380.27168784
 20
-204.0
 30
0.0
 11
-380.27168784
 21
-205.3
 31
0.0
  0
LINE
  5
1E2
100
AcDbEntity
  8
D-STR-HID
  6
DASHED2
 62
       1
100
AcDbLine
 10
-380.99337567
 20
-204.0
 30
0.0
 11
-380.99337567
 21
-205.3
 31
0.0
  0
LINE
  5
1E3
100
AcDbEntity
  8
D-STR-HID
  6
DASHED2
 62
       1
100
AcDbLine
 10
-378.10662433
 20
-205.3
 30
0.0
 11
-379.55
 21
-206.13333333
 31
0.0
  0
LINE
  5
1E4
100
AcDbEntity
  8
D-STR-HID
  6
DASHED2
 62
       1
100
AcDbLine
 10
-380.99337567
 20
-205.3
 30
0.0
 11
-379.55
 21
-206.13333333
 31
0.0
  0
ENDBLK
  5
1E5
100
AcDbEntity
  8
0
100
AcDbBlockEnd
  0
BLOCK
  5
1E6
100
AcDbEntity
  8
0
100
AcDbBlockBegin
  2
GROUP_22
 70
       0
 10
0.0
 20
0.0
 30
0.0
  3
GROUP_22
  1

  0
LINE
  5
1E7
100
AcDbEntity
  8
D-BMK
  6
CENTER
 62
       2
100
AcDbLine
 10
-379.55
 20
-198.5
 30
0.0
 11
-379.55
 21
-193.0
 31
0.0
  0
LINE
  5
1E8
100
AcDbEntity
  8
D-BMK
  6
CENTER
 62
       2
100
AcDbLine
 10
-382.3
 20
-195.75
 30
0.0
 11
-376.8
 21
-195.75
 31
0.0
  0
CIRCLE
  5
1E9
100
AcDbEntity
  8
D-STR
  6
CONTINUOUS
 62
       1
100
AcDbCircle
 10
-379.55
 20
-195.75
 30
0.0
 40
2.75
  0
LINE
  5
1EA
100
AcDbEntity
  8
D-STR
  6
CONTINUOUS
 62
       1
100
AcDbLine
 10
-380.27168784
 20
-194.5
 30
0.0
 11
-378.82831216
 21
-194.5
 31
0.0
  0
LINE
  5
1EB
100
AcDbEntity
  8
D-STR
  6
CONTINUOUS
 62
       1
100
AcDbLine
 10
-380.99337567
 20
-195.75
 30
0.0
 11
-380.27168784
 21
-194.5
 31
0.0
  0
LINE
  5
1EC
100
AcDbEntity
  8
D-STR
  6
CONTINUOUS
 62
       1
100
AcDbLine
 10
-380.27168784
 20
-197.0
 30
0.0
 11
-380.99337567
 21
-195.75
 31
0.0
  0
LINE
  5
1ED
100
AcDbEntity
  8
D-STR
  6
CONTINUOUS
 62
       1
100
AcDbLine
 10
-378.82831216
 20
-197.0
 30
0.0
 11
-380.27168784
 21
-197.0
 31
0.0
  0
LINE
  5
1EE
100
AcDbEntity
  8
D-STR
  6
CONTINUOUS
 62
       1
100
AcDbLine
 10
-378.10662433
 20
-195.75
 30
0.0
 11
-378.82831216
 21
-197.0
 31
0.0
  0
LINE
  5
1EF
100
AcDbEntity
  8
D-STR
  6
CONTINUOUS
 62
       1
100
AcDbLine
 10
-378.82831216
 20
-194.5
 30
0.0
 11
-378.10662433
 21
-195.75
 31
0.0
  0
ENDBLK
  5
1F0
100
AcDbEntity
  8
0
100
AcDbBlockEnd
  0
BLOCK
  5
1F1
100
AcDbEntity
  8
0
100
AcDbBlockBegin
  2
GROUP_23
 70
       0
 10
0.0
 20
0.0
 30
0.0
  3
GROUP_23
  1

  0
LINE
  5
1F2
100
AcDbEntity
  8
D-BMK
  6
CENTER
 62
       2
100
AcDbLine
 10
-369.8
 20
-196.0
 30
0.0
 11
-369.8
 21
-189.0
 31
0.0
  0
LINE
  5
1F3
100
AcDbEntity
  8
D-BMK
  6
CENTER
 62
       2
100
AcDbLine
 10
-373.3
 20
-192.5
 30
0.0
 11
-366.3
 21
-192.5
 31
0.0
  0
CIRCLE
  5
1F4
100
AcDbEntity
  8
D-STR
  6
CONTINUOUS
 62
       1
100
AcDbCircle
 10
-369.8
 20
-192.5
 30
0.0
 40
3.5
  0
LINE
  5
1F5
100
AcDbEntity
  8
D-STR
  6
CONTINUOUS
 62
       1
100
AcDbLine
 10
-370.6660254
 20
-191.0
 30
0.0
 11
-368.9339746
 21
-191.0
 31
0.0
  0
LINE
  5
1F6
100
AcDbEntity
  8
D-STR
  6
CONTINUOUS
 62
       1
100
AcDbLine
 10
-371.53205081
 20
-192.5
 30
0.0
 11
-370.6660254
 21
-191.0
 31
0.0
  0
LINE
  5
1F7
100
AcDbEntity
  8
D-STR
  6
CONTINUOUS
 62
       1
100
AcDbLine
 10
-370.6660254
 20
-194.0
 30
0.0
 11
-371.53205081
 21
-192.5
 31
0.0
  0
LINE
  5
1F8
100
AcDbEntity
  8
D-STR
  6
CONTINUOUS
 62
       1
100
AcDbLine
 10
-368.9339746
 20
-194.0
 30
0.0
 11
-370.6660254
 21
-194.0
 31
0.0
  0
LINE
  5
1F9
100
AcDbEntity
  8
D-STR
  6
CONTINUOUS
 62
       1
100
AcDbLine
 10
-368.06794919
 20
-192.5
 30
0.0
 11
-368.9339746
 21
-194.0
 31
0.0
  0
LINE
  5
1FA
100
AcDbEntity
  8
D-STR
  6
CONTINUOUS
 62
       1
100
AcDbLine
 10
-368.9339746
 20
-191.0
 30
0.0
 11
-368.06794919
 21
-192.5
 31
0.0
  0
ENDBLK
  5
1FB
100
AcDbEntity
  8
0
100
AcDbBlockEnd
  0
BLOCK
  5
1FC
100
AcDbEntity
  8
0
100
AcDbBlockBegin
  2
GROUP_24
 70
       0
 10
0.0
 20
0.0
 30
0.0
  3
GROUP_24
  1

  0
LINE
  5
1FD
100
AcDbEntity
  8
D-BMK
  6
CENTER
 62
       2
100
AcDbLine
 10
-369.8
 20
-203.0
 30
0.0
 11
-369.8
 21
-232.0
 31
0.0
  0
LINE
  5
1FE
100
AcDbEntity
  8
D-STR
  6
CONTINUOUS
 62
       1
100
AcDbLine
 10
-367.8
 20
-207.0
 30
0.0
 11
-367.8
 21
-231.621
 31
0.0
  0
LINE
  5
1FF
100
AcDbEntity
  8
D-STR
  6
CONTINUOUS
 62
       1
100
AcDbLine
 10
-371.8
 20
-207.0
 30
0.0
 11
-371.8
 21
-231.621
 31
0.0
  0
LINE
  5
200
100
AcDbEntity
  8
D-STR
  6
CONTINUOUS
 62
       1
100
AcDbLine
 10
-371.421
 20
-232.0
 30
0.0
 11
-368.179
 21
-232.0
 31
0.0
  0
LINE
  5
201
100
AcDbEntity
  8
D-STR
  6
CONTINUOUS
 62
       1
100
AcDbLine
 10
-371.8
 20
-209.1
 30
0.0
 11
-367.8
 21
-209.1
 31
0.0
  0
LINE
  5
202
100
AcDbEntity
  8
D-STR
  6
CONTINUOUS
 62
       1
100
AcDbLine
 10
-371.421
 20
-209.1
 30
0.0
 11
-371.8
 21
-208.44355274
 31
0.0
  0
LINE
  5
203
100
AcDbEntity
  8
D-STR
  6
CONTINUOUS
 62
       1
100
AcDbLine
 10
-368.179
 20
-209.1
 30
0.0
 11
-367.8
 21
-208.44355274
 31
0.0
  0
LINE
  5
204
100
AcDbEntity
  8
D-STR
  6
CONTINUOUS
 62
       1
100
AcDbLine
 10
-371.8
 20
-231.621
 30
0.0
 11
-371.421
 21
-232.0
 31
0.0
  0
LINE
  5
205
100
AcDbEntity
  8
D-STR
  6
CONTINUOUS
 62
       1
100
AcDbLine
 10
-368.179
 20
-232.0
 30
0.0
 11
-367.8
 21
-231.621
 31
0.0
  0
LINE
  5
206
100
AcDbEntity
  8
D-STR
  6
CONTINUOUS
 62
       1
100
AcDbLine
 10
-371.8
 20
-231.621
 30
0.0
 11
-367.8
 21
-231.621
 31
0.0
  0
LINE
  5
207
100
AcDbEntity
  8
D-STR
  6
CONTINUOUS
 62
       1
100
AcDbLine
 10
-373.3
 20
-207.0
 30
0.0
 11
-366.3
 21
-207.0
 31
0.0
  0
LINE
  5
208
100
AcDbEntity
  8
D-STR
  6
CONTINUOUS
 62
       1
100
AcDbLine
 10
-373.3
 20
-203.0
 30
0.0
 11
-366.3
 21
-203.0
 31
0.0
  0
LINE
  5
209
100
AcDbEntity
  8
D-STR
  6
CONTINUOUS
 62
       1
100
AcDbLine
 10
-373.3
 20
-203.0
 30
0.0
 11
-373.3
 21
-207.0
 31
0.0
  0
LINE
  5
20A
100
AcDbEntity
  8
D-STR
  6
CONTINUOUS
 62
       1
100
AcDbLine
 10
-366.3
 20
-203.0
 30
0.0
 11
-366.3
 21
-207.0
 31
0.0
  0
LINE
  5
20B
100
AcDbEntity
  8
D-STR
  6
CONTINUOUS
 62
       7
100
AcDbLine
 10
-371.421
 20
-209.1
 30
0.0
 11
-371.421
 21
-232.0
 31
0.0
  0
LINE
  5
20C
100
AcDbEntity
  8
D-STR
  6
CONTINUOUS
 62
       7
100
AcDbLine
 10
-368.179
 20
-209.1
 30
0.0
 11
-368.179
 21
-232.0
 31
0.0
  0
LINE
  5
20D
100
AcDbEntity
  8
D-STR-HID
  6
DASHED2
 62
       1
100
AcDbLine
 10
-371.53205081
 20
-205.0
 30
0.0
 11
-368.06794919
 21
-205.0
 31
0.0
  0
LINE
  5
20E
100
AcDbEntity
  8
D-STR-HID
  6
DASHED2
 62
       1
100
AcDbLine
 10
-368.06794919
 20
-203.0
 30
0.0
 11
-368.06794919
 21
-205.0
 31
0.0
  0
LINE
  5
20F
100
AcDbEntity
  8
D-STR-HID
  6
DASHED2
 62
       1
100
AcDbLine
 10
-368.9339746
 20
-203.0
 30
0.0
 11
-368.9339746
 21
-205.0
 31
0.0
  0
LINE
  5
210
100
AcDbEntity
  8
D-STR-HID
  6
DASHED2
 62
       1
100
AcDbLine
 10
-370.6660254
 20
-203.0
 30
0.0
 11
-370.6660254
 21
-205.0
 31
0.0
  0
LINE
  5
211
100
AcDbEntity
  8
D-STR-HID
  6
DASHED2
 62
       1
100
AcDbLine
 10
-371.53205081
 20
-203.0
 30
0.0
 11
-371.53205081
 21
-205.0
 31
0.0
  0
LINE
  5
212
100
AcDbEntity
  8
D-STR-HID
  6
DASHED2
 62
       1
100
AcDbLine
 10
-368.06794919
 20
-205.0
 30
0.0
 11
-369.8
 21
-206.0
 31
0.0
  0
LINE
  5
213
100
AcDbEntity
  8
D-STR-HID
  6
DASHED2
 62
       1
100
AcDbLine
 10
-371.53205081
 20
-205.0
 30
0.0
 11
-369.8
 21
-206.0
 31
0.0
  0
ENDBLK
  5
214
100
AcDbEntity
  8
0
100
AcDbBlockEnd
  0
BLOCK
  5
215
100
AcDbEntity
  8
0
100
AcDbBlockBegin
  2
GROUP_25
 70
       0
 10
0.0
 20
0.0
 30
0.0
  3
GROUP_25
  1

  0
LINE
  5
216
100
AcDbEntity
  8
D-BMK
  6
CENTER
 62
       2
100
AcDbLine
 10
-357.8
 20
-202.0
 30
0.0
 11
-357.8
 21
-232.0
 31
0.0
  0
LINE
  5
217
100
AcDbEntity
  8
D-STR
  6
CONTINUOUS
 62
       1
100
AcDbLine
 10
-355.3
 20
-207.0
 30
0.0
 11
-355.3
 21
-231.567
 31
0.0
  0
LINE
  5
218
100
AcDbEntity
  8
D-STR
  6
CONTINUOUS
 62
       1
100
AcDbLine
 10
-360.3
 20
-207.0
 30
0.0
 11
-360.3
 21
-231.567
 31
0.0
  0
LINE
  5
219
100
AcDbEntity
  8
D-STR
  6
CONTINUOUS
 62
       1
100
AcDbLine
 10
-359.867
 20
-232.0
 30
0.0
 11
-355.733
 21
-232.0
 31
0.0
  0
LINE
  5
21A
100
AcDbEntity
  8
D-STR
  6
CONTINUOUS
 62
       1
100
AcDbLine
 10
-360.3
 20
-209.4
 30
0.0
 11
-355.3
 21
-209.4
 31
0.0
  0
LINE
  5
21B
100
AcDbEntity
  8
D-STR
  6
CONTINUOUS
 62
       1
100
AcDbLine
 10
-359.867
 20
-209.4
 30
0.0
 11
-360.3
 21
-208.650022
 31
0.0
  0
LINE
  5
21C
100
AcDbEntity
  8
D-STR
  6
CONTINUOUS
 62
       1
100
AcDbLine
 10
-355.733
 20
-209.4
 30
0.0
 11
-355.3
 21
-208.650022
 31
0.0
  0
LINE
  5
21D
100
AcDbEntity
  8
D-STR
  6
CONTINUOUS
 62
       1
100
AcDbLine
 10
-360.3
 20
-231.567
 30
0.0
 11
-359.867
 21
-232.0
 31
0.0
  0
LINE
  5
21E
100
AcDbEntity
  8
D-STR
  6
CONTINUOUS
 62
       1
100
AcDbLine
 10
-355.733
 20
-232.0
 30
0.0
 11
-355.3
 21
-231.567
 31
0.0
  0
LINE
  5
21F
100
AcDbEntity
  8
D-STR
  6
CONTINUOUS
 62
       1
100
AcDbLine
 10
-360.3
 20
-231.567
 30
0.0
 11
-355.3
 21
-231.567
 31
0.0
  0
LINE
  5
220
100
AcDbEntity
  8
D-STR
  6
CONTINUOUS
 62
       1
100
AcDbLine
 10
-362.05
 20
-207.0
 30
0.0
 11
-353.55
 21
-207.0
 31
0.0
  0
LINE
  5
221
100
AcDbEntity
  8
D-STR
  6
CONTINUOUS
 62
       1
100
AcDbLine
 10
-362.05
 20
-202.0
 30
0.0
 11
-353.55
 21
-202.0
 31
0.0
  0
LINE
  5
222
100
AcDbEntity
  8
D-STR
  6
CONTINUOUS
 62
       1
100
AcDbLine
 10
-362.05
 20
-202.0
 30
0.0
 11
-362.05
 21
-207.0
 31
0.0
  0
LINE
  5
223
100
AcDbEntity
  8
D-STR
  6
CONTINUOUS
 62
       1
100
AcDbLine
 10
-353.55
 20
-202.0
 30
0.0
 11
-353.55
 21
-207.0
 31
0.0
  0
LINE
  5
224
100
AcDbEntity
  8
D-STR
  6
CONTINUOUS
 62
       7
100
AcDbLine
 10
-359.867
 20
-209.4
 30
0.0
 11
-359.867
 21
-232.0
 31
0.0
  0
LINE
  5
225
100
AcDbEntity
  8
D-STR
  6
CONTINUOUS
 62
       7
100
AcDbLine
 10
-355.733
 20
-209.4
 30
0.0
 11
-355.733
 21
-232.0
 31
0.0
  0
LINE
  5
226
100
AcDbEntity
  8
D-STR-HID
  6
DASHED2
 62
       1
100
AcDbLine
 10
-360.10940108
 20
-204.5
 30
0.0
 11
-355.49059892
 21
-204.5
 31
0.0
  0
LINE
  5
227
100
AcDbEntity
  8
D-STR-HID
  6
DASHED2
 62
       1
100
AcDbLine
 10
-355.49059892
 20
-202.0
 30
0.0
 11
-355.49059892
 21
-204.5
 31
0.0
  0
LINE
  5
228
100
AcDbEntity
  8
D-STR-HID
  6
DASHED2
 62
       1
100
AcDbLine
 10
-356.64529946
 20
-202.0
 30
0.0
 11
-356.64529946
 21
-204.5
 31
0.0
  0
LINE
  5
229
100
AcDbEntity
  8
D-STR-HID
  6
DASHED2
 62
       1
100
AcDbLine
 10
-358.95470054
 20
-202.0
 30
0.0
 11
-358.95470054
 21
-204.5
 31
0.0
  0
LINE
  5
22A
100
AcDbEntity
  8
D-STR-HID
  6
DASHED2
 62
       1
100
AcDbLine
 10
-360.10940108
 20
-202.0
 30
0.0
 11
-360.10940108
 21
-204.5
 31
0.0
  0
LINE
  5
22B
100
AcDbEntity
  8
D-STR-HID
  6
DASHED2
 62
       1
100
AcDbLine
 10
-355.49059892
 20
-204.5
 30
0.0
 11
-357.8
 21
-205.83333333
 31
0.0
  0
LINE
  5
22C
100
AcDbEntity
  8
D-STR-HID
  6
DASHED2
 62
       1
100
AcDbLine
 10
-360.10940108
 20
-204.5
 30
0.0
 11
-357.8
 21
-205.83333333
 31
0.0
  0
ENDBLK
  5
22D
100
AcDbEntity
  8
0
100
AcDbBlockEnd
  0
BLOCK
  5
22E
100
AcDbEntity
  8
0
100
AcDbBlockBegin
  2
GROUP_26
 70
       0
 10
0.0
 20
0.0
 30
0.0
  3
GROUP_26
  1

  0
LINE
  5
22F
100
AcDbEntity
  8
D-BMK
  6
CENTER
 62
       2
100
AcDbLine
 10
-362.05
 20
-189.25
 30
0.0
 11
-353.55
 21
-189.25
 31
0.0
  0
LINE
  5
230
100
AcDbEntity
  8
D-BMK
  6
CENTER
 62
       2
100
AcDbLine
 10
-357.8
 20
-193.5
 30
0.0
 11
-357.8
 21
-185.0
 31
0.0
  0
CIRCLE
  5
231
100
AcDbEntity
  8
D-STR
  6
CONTINUOUS
 62
       1
100
AcDbCircle
 10
-357.8
 20
-189.25
 30
0.0
 40
4.25
  0
LINE
  5
232
100
AcDbEntity
  8
D-STR
  6
CONTINUOUS
 62
       1
100
AcDbLine
 10
-358.95470054
 20
-187.25
 30
0.0
 11
-356.64529946
 21
-187.25
 31
0.0
  0
LINE
  5
233
100
AcDbEntity
  8
D-STR
  6
CONTINUOUS
 62
       1
100
AcDbLine
 10
-360.10940108
 20
-189.25
 30
0.0
 11
-358.95470054
 21
-187.25
 31
0.0
  0
LINE
  5
234
100
AcDbEntity
  8
D-STR
  6
CONTINUOUS
 62
       1
100
AcDbLine
 10
-358.95470054
 20
-191.25
 30
0.0
 11
-360.10940108
 21
-189.25
 31
0.0
  0
LINE
  5
235
100
AcDbEntity
  8
D-STR
  6
CONTINUOUS
 62
       1
100
AcDbLine
 10
-356.64529946
 20
-191.25
 30
0.0
 11
-358.95470054
 21
-191.25
 31
0.0
  0
LINE
  5
236
100
AcDbEntity
  8
D-STR
  6
CONTINUOUS
 62
       1
100
AcDbLine
 10
-355.49059892
 20
-189.25
 30
0.0
 11
-356.64529946
 21
-191.25
 31
0.0
  0
LINE
  5
237
100
AcDbEntity
  8
D-STR
  6
CONTINUOUS
 62
       1
100
AcDbLine
 10
-356.64529946
 20
-187.25
 30
0.0
 11
-355.49059892
 21
-189.25
 31
0.0
  0
ENDBLK
  5
238
100
AcDbEntity
  8
0
100
AcDbBlockEnd
  0
BLOCK
  5
239
100
AcDbEntity
  8
0
100
AcDbBlockBegin
  2
GROUP_27
 70
       0
 10
0.0
 20
0.0
 30
0.0
  3
GROUP_27
  1

  0
LINE
  5
23A
100
AcDbEntity
  8
D-BMK
  6
CENTER
 62
       2
100
AcDbLine
 10
-348.55
 20
-186.0
 30
0.0
 11
-338.55
 21
-186.0
 31
0.0
  0
LINE
  5
23B
100
AcDbEntity
  8
D-BMK
  6
CENTER
 62
       2
100
AcDbLine
 10
-343.55
 20
-191.0
 30
0.0
 11
-343.55
 21
-181.04601679
 31
0.0
  0
CIRCLE
  5
23C
100
AcDbEntity
  8
D-STR
  6
CONTINUOUS
 62
       1
100
AcDbCircle
 10
-343.55
 20
-186.0
 30
0.0
 40
5.0
  0
LINE
  5
23D
100
AcDbEntity
  8
D-STR
  6
CONTINUOUS
 62
       1
100
AcDbLine
 10
-344.99337567
 20
-183.5
 30
0.0
 11
-342.10662433
 21
-183.5
 31
0.0
  0
LINE
  5
23E
100
AcDbEntity
  8
D-STR
  6
CONTINUOUS
 62
       1
100
AcDbLine
 10
-346.43675135
 20
-186.0
 30
0.0
 11
-344.99337567
 21
-183.5
 31
0.0
  0
LINE
  5
23F
100
AcDbEntity
  8
D-STR
  6
CONTINUOUS
 62
       1
100
AcDbLine
 10
-344.99337567
 20
-188.5
 30
0.0
 11
-346.43675135
 21
-186.0
 31
0.0
  0
LINE
  5
240
100
AcDbEntity
  8
D-STR
  6
CONTINUOUS
 62
       1
100
AcDbLine
 10
-342.10662433
 20
-188.5
 30
0.0
 11
-344.99337567
 21
-188.5
 31
0.0
  0
LINE
  5
241
100
AcDbEntity
  8
D-STR
  6
CONTINUOUS
 62
       1
100
AcDbLine
 10
-340.66324865
 20
-186.0
 30
0.0
 11
-342.10662433
 21
-188.5
 31
0.0
  0
LINE
  5
242
100
AcDbEntity
  8
D-STR
  6
CONTINUOUS
 62
       1
100
AcDbLine
 10
-342.10662433
 20
-183.5
 30
0.0
 11
-340.66324865
 21
-186.0
 31
0.0
  0
ENDBLK
  5
243
100
AcDbEntity
  8
0
100
AcDbBlockEnd
  0
BLOCK
  5
244
100
AcDbEntity
  8
0
100
AcDbBlockBegin
  2
GROUP_28
 70
       0
 10
0.0
 20
0.0
 30
0.0
  3
GROUP_28
  1

  0
LINE
  5
245
100
AcDbEntity
  8
D-BMK
  6
CENTER
 62
       2
100
AcDbLine
 10
-343.55
 20
-201.0
 30
0.0
 11
-343.55
 21
-237.0
 31
0.0
  0
LINE
  5
246
100
AcDbEntity
  8
D-STR
  6
CONTINUOUS
 62
       1
100
AcDbLine
 10
-340.55
 20
-207.0
 30
0.0
 11
-340.55
 21
-236.4585
 31
0.0
  0
LINE
  5
247
100
AcDbEntity
  8
D-STR
  6
CONTINUOUS
 62
       1
100
AcDbLine
 10
-346.55
 20
-207.0
 30
0.0
 11
-346.55
 21
-236.4585
 31
0.0
  0
LINE
  5
248
100
AcDbEntity
  8
D-STR
  6
CONTINUOUS
 62
       1
100
AcDbLine
 10
-346.0085
 20
-237.0
 30
0.0
 11
-341.0915
 21
-237.0
 31
0.0
  0
LINE
  5
249
100
AcDbEntity
  8
D-STR
  6
CONTINUOUS
 62
       1
100
AcDbLine
 10
-346.55
 20
-210.0
 30
0.0
 11
-340.55
 21
-210.0
 31
0.0
  0
LINE
  5
24A
100
AcDbEntity
  8
D-STR
  6
CONTINUOUS
 62
       1
100
AcDbLine
 10
-346.0085
 20
-210.0
 30
0.0
 11
-346.55
 21
-209.06209449
 31
0.0
  0
LINE
  5
24B
100
AcDbEntity
  8
D-STR
  6
CONTINUOUS
 62
       1
100
AcDbLine
 10
-341.0915
 20
-210.0
 30
0.0
 11
-340.55
 21
-209.06209449
 31
0.0
  0
LINE
  5
24C
100
AcDbEntity
  8
D-STR
  6
CONTINUOUS
 62
       1
100
AcDbLine
 10
-346.55
 20
-236.4585
 30
0.0
 11
-346.0085
 21
-237.0
 31
0.0
  0
LINE
  5
24D
100
AcDbEntity
  8
D-STR
  6
CONTINUOUS
 62
       1
100
AcDbLine
 10
-341.0915
 20
-237.0
 30
0.0
 11
-340.55
 21
-236.4585
 31
0.0
  0
LINE
  5
24E
100
AcDbEntity
  8
D-STR
  6
CONTINUOUS
 62
       1
100
AcDbLine
 10
-346.55
 20
-236.4585
 30
0.0
 11
-340.55
 21
-236.4585
 31
0.0
  0
LINE
  5
24F
100
AcDbEntity
  8
D-STR
  6
CONTINUOUS
 62
       1
100
AcDbLine
 10
-348.55
 20
-207.0
 30
0.0
 11
-338.55
 21
-207.0
 31
0.0
  0
LINE
  5
250
100
AcDbEntity
  8
D-STR
  6
CONTINUOUS
 62
       1
100
AcDbLine
 10
-348.55
 20
-201.0
 30
0.0
 11
-338.55
 21
-201.0
 31
0.0
  0
LINE
  5
251
100
AcDbEntity
  8
D-STR
  6
CONTINUOUS
 62
       1
100
AcDbLine
 10
-348.55
 20
-201.0
 30
0.0
 11
-348.55
 21
-207.0
 31
0.0
  0
LINE
  5
252
100
AcDbEntity
  8
D-STR
  6
CONTINUOUS
 62
       1
100
AcDbLine
 10
-338.55
 20
-201.0
 30
0.0
 11
-338.55
 21
-207.0
 31
0.0
  0
LINE
  5
253
100
AcDbEntity
  8
D-STR
  6
CONTINUOUS
 62
       7
100
AcDbLine
 10
-346.0085
 20
-210.0
 30
0.0
 11
-346.0085
 21
-237.0
 31
0.0
  0
LINE
  5
254
100
AcDbEntity
  8
D-STR
  6
CONTINUOUS
 62
       7
100
AcDbLine
 10
-341.0915
 20
-210.0
 30
0.0
 11
-341.0915
 21
-237.0
 31
0.0
  0
LINE
  5
255
100
AcDbEntity
  8
D-STR-HID
  6
DASHED2
 62
       1
100
AcDbLine
 10
-346.43675135
 20
-204.0
 30
0.0
 11
-340.66324865
 21
-204.0
 31
0.0
  0
LINE
  5
256
100
AcDbEntity
  8
D-STR-HID
  6
DASHED2
 62
       1
100
AcDbLine
 10
-340.66324865
 20
-201.0
 30
0.0
 11
-340.66324865
 21
-204.0
 31
0.0
  0
LINE
  5
257
100
AcDbEntity
  8
D-STR-HID
  6
DASHED2
 62
       1
100
AcDbLine
 10
-342.10662433
 20
-201.0
 30
0.0
 11
-342.10662433
 21
-204.0
 31
0.0
  0
LINE
  5
258
100
AcDbEntity
  8
D-STR-HID
  6
DASHED2
 62
       1
100
AcDbLine
 10
-344.99337567
 20
-201.0
 30
0.0
 11
-344.99337567
 21
-204.0
 31
0.0
  0
LINE
  5
259
100
AcDbEntity
  8
D-STR-HID
  6
DASHED2
 62
       1
100
AcDbLine
 10
-346.43675135
 20
-201.0
 30
0.0
 11
-346.43675135
 21
-204.0
 31
0.0
  0
LINE
  5
25A
100
AcDbEntity
  8
D-STR-HID
  6
DASHED2
 62
       1
100
AcDbLine
 10
-340.66324865
 20
-204.0
 30
0.0
 11
-343.55
 21
-205.66666667
 31
0.0
  0
LINE
  5
25B
100
AcDbEntity
  8
D-STR-HID
  6
DASHED2
 62
       1
100
AcDbLine
 10
-346.43675135
 20
-204.0
 30
0.0
 11
-343.55
 21
-205.66666667
 31
0.0
  0
ENDBLK
  5
25C
100
AcDbEntity
  8
0
100
AcDbBlockEnd
  0
BLOCK
  5
25D
100
AcDbEntity
  8
0
100
AcDbBlockBegin
  2
GROUP_29
 70
       0
 10
0.0
 20
0.0
 30
0.0
  3
GROUP_29
  1

  0
LINE
  5
25E
100
AcDbEntity
  8
D-BMK
  6
CENTER
 62
       2
100
AcDbLine
 10
-325.55
 20
-199.0
 30
0.0
 11
-325.55
 21
-242.0
 31
0.0
  0
LINE
  5
25F
100
AcDbEntity
  8
D-STR
  6
CONTINUOUS
 62
       1
100
AcDbLine
 10
-321.55
 20
-207.0
 30
0.0
 11
-321.55
 21
-241.3235
 31
0.0
  0
LINE
  5
260
100
AcDbEntity
  8
D-STR
  6
CONTINUOUS
 62
       1
100
AcDbLine
 10
-329.55
 20
-207.0
 30
0.0
 11
-329.55
 21
-241.3235
 31
0.0
  0
LINE
  5
261
100
AcDbEntity
  8
D-STR
  6
CONTINUOUS
 62
       1
100
AcDbLine
 10
-328.8735
 20
-242.0
 30
0.0
 11
-322.2265
 21
-242.0
 31
0.0
  0
LINE
  5
262
100
AcDbEntity
  8
D-STR
  6
CONTINUOUS
 62
       1
100
AcDbLine
 10
-329.55
 20
-210.75
 30
0.0
 11
-321.55
 21
-210.75
 31
0.0
  0
LINE
  5
263
100
AcDbEntity
  8
D-STR
  6
CONTINUOUS
 62
       1
100
AcDbLine
 10
-328.8735
 20
-210.75
 30
0.0
 11
-329.55
 21
-209.57826763
 31
0.0
  0
LINE
  5
264
100
AcDbEntity
  8
D-STR
  6
CONTINUOUS
 62
       1
100
AcDbLine
 10
-322.2265
 20
-210.75
 30
0.0
 11
-321.55
 21
-209.57826763
 31
0.0
  0
LINE
  5
265
100
AcDbEntity
  8
D-STR
  6
CONTINUOUS
 62
       1
100
AcDbLine
 10
-329.55
 20
-241.3235
 30
0.0
 11
-328.8735
 21
-242.0
 31
0.0
  0
LINE
  5
266
100
AcDbEntity
  8
D-STR
  6
CONTINUOUS
 62
       1
100
AcDbLine
 10
-322.2265
 20
-242.0
 30
0.0
 11
-321.55
 21
-241.3235
 31
0.0
  0
LINE
  5
267
100
AcDbEntity
  8
D-STR
  6
CONTINUOUS
 62
       1
100
AcDbLine
 10
-329.55
 20
-241.3235
 30
0.0
 11
-321.55
 21
-241.3235
 31
0.0
  0
LINE
  5
268
100
AcDbEntity
  8
D-STR
  6
CONTINUOUS
 62
       1
100
AcDbLine
 10
-332.05
 20
-207.0
 30
0.0
 11
-319.05
 21
-207.0
 31
0.0
  0
LINE
  5
269
100
AcDbEntity
  8
D-STR
  6
CONTINUOUS
 62
       1
100
AcDbLine
 10
-332.05
 20
-199.0
 30
0.0
 11
-319.05
 21
-199.0
 31
0.0
  0
LINE
  5
26A
100
AcDbEntity
  8
D-STR
  6
CONTINUOUS
 62
       1
100
AcDbLine
 10
-332.05
 20
-199.0
 30
0.0
 11
-332.05
 21
-207.0
 31
0.0
  0
LINE
  5
26B
100
AcDbEntity
  8
D-STR
  6
CONTINUOUS
 62
       1
100
AcDbLine
 10
-319.05
 20
-199.0
 30
0.0
 11
-319.05
 21
-207.0
 31
0.0
  0
LINE
  5
26C
100
AcDbEntity
  8
D-STR
  6
CONTINUOUS
 62
       7
100
AcDbLine
 10
-328.8735
 20
-210.75
 30
0.0
 11
-328.8735
 21
-242.0
 31
0.0
  0
LINE
  5
26D
100
AcDbEntity
  8
D-STR
  6
CONTINUOUS
 62
       7
100
AcDbLine
 10
-322.2265
 20
-210.75
 30
0.0
 11
-322.2265
 21
-242.0
 31
0.0
  0
LINE
  5
26E
100
AcDbEntity
  8
D-STR-HID
  6
DASHED2
 62
       1
100
AcDbLine
 10
-329.01410162
 20
-203.0
 30
0.0
 11
-322.08589838
 21
-203.0
 31
0.0
  0
LINE
  5
26F
100
AcDbEntity
  8
D-STR-HID
  6
DASHED2
 62
       1
100
AcDbLine
 10
-322.08589838
 20
-199.0
 30
0.0
 11
-322.08589838
 21
-203.0
 31
0.0
  0
LINE
  5
270
100
AcDbEntity
  8
D-STR-HID
  6
DASHED2
 62
       1
100
AcDbLine
 10
-323.81794919
 20
-199.0
 30
0.0
 11
-323.81794919
 21
-203.0
 31
0.0
  0
LINE
  5
271
100
AcDbEntity
  8
D-STR-HID
  6
DASHED2
 62
       1
100
AcDbLine
 10
-327.28205081
 20
-199.0
 30
0.0
 11
-327.28205081
 21
-203.0
 31
0.0
  0
LINE
  5
272
100
AcDbEntity
  8
D-STR-HID
  6
DASHED2
 62
       1
100
AcDbLine
 10
-329.01410162
 20
-199.0
 30
0.0
 11
-329.01410162
 21
-203.0
 31
0.0
  0
LINE
  5
273
100
AcDbEntity
  8
D-STR-HID
  6
DASHED2
 62
       1
100
AcDbLine
 10
-322.08589838
 20
-203.0
 30
0.0
 11
-325.55
 21
-205.0
 31
0.0
  0
LINE
  5
274
100
AcDbEntity
  8
D-STR-HID
  6
DASHED2
 62
       1
100
AcDbLine
 10
-329.01410162
 20
-203.0
 30
0.0
 11
-325.55
 21
-205.0
 31
0.0
  0
ENDBLK
  5
275
100
AcDbEntity
  8
0
100
AcDbBlockEnd
  0
BLOCK
  5
276
100
AcDbEntity
  8
0
100
AcDbBlockBegin
  2
GROUP_30
 70
       0
 10
0.0
 20
0.0
 30
0.0
  3
GROUP_30
  1

  0
LINE
  5
277
100
AcDbEntity
  8
D-BMK
  6
CENTER
 62
       2
100
AcDbLine
 10
-332.05
 20
-179.5
 30
0.0
 11
-319.05
 21
-179.5
 31
0.0
  0
LINE
  5
278
100
AcDbEntity
  8
D-BMK
  6
CENTER
 62
       2
100
AcDbLine
 10
-325.55
 20
-186.0
 30
0.0
 11
-325.55
 21
-173.0
 31
0.0
  0
CIRCLE
  5
279
100
AcDbEntity
  8
D-STR
  6
CONTINUOUS
 62
       1
100
AcDbCircle
 10
-325.55
 20
-179.5
 30
0.0
 40
6.5
  0
LINE
  5
27A
100
AcDbEntity
  8
D-STR
  6
CONTINUOUS
 62
       1
100
AcDbLine
 10
-327.28205081
 20
-176.5
 30
0.0
 11
-323.81794919
 21
-176.5
 31
0.0
  0
LINE
  5
27B
100
AcDbEntity
  8
D-STR
  6
CONTINUOUS
 62
       1
100
AcDbLine
 10
-329.01410162
 20
-179.5
 30
0.0
 11
-327.28205081
 21
-176.5
 31
0.0
  0
LINE
  5
27C
100
AcDbEntity
  8
D-STR
  6
CONTINUOUS
 62
       1
100
AcDbLine
 10
-327.28205081
 20
-182.5
 30
0.0
 11
-329.01410162
 21
-179.5
 31
0.0
  0
LINE
  5
27D
100
AcDbEntity
  8
D-STR
  6
CONTINUOUS
 62
       1
100
AcDbLine
 10
-323.81794919
 20
-182.5
 30
0.0
 11
-327.28205081
 21
-182.5
 31
0.0
  0
LINE
  5
27E
100
AcDbEntity
  8
D-STR
  6
CONTINUOUS
 62
       1
100
AcDbLine
 10
-322.08589838
 20
-179.5
 30
0.0
 11
-323.81794919
 21
-182.5
 31
0.0
  0
LINE
  5
27F
100
AcDbEntity
  8
D-STR
  6
CONTINUOUS
 62
       1
100
AcDbLine
 10
-323.81794919
 20
-176.5
 30
0.0
 11
-322.08589838
 21
-179.5
 31
0.0
  0
ENDBLK
  5
280
100
AcDbEntity
  8
0
100
AcDbBlockEnd
  0
BLOCK
  5
281
100
AcDbEntity
  8
0
100
AcDbBlockBegin
  2
GROUP_31
 70
       0
 10
0.0
 20
0.0
 30
0.0
  3
GROUP_31
  1

  0
LINE
  5
282
100
AcDbEntity
  8
D-BMK
  6
CENTER
 62
       2
100
AcDbLine
 10
-311.05
 20
-173.0
 30
0.0
 11
-295.05
 21
-173.0
 31
0.0
  0
LINE
  5
283
100
AcDbEntity
  8
D-BMK
  6
CENTER
 62
       2
100
AcDbLine
 10
-303.05
 20
-181.0
 30
0.0
 11
-303.05
 21
-165.0
 31
0.0
  0
CIRCLE
  5
284
100
AcDbEntity
  8
D-STR
  6
CONTINUOUS
 62
       1
100
AcDbCircle
 10
-303.05
 20
-173.0
 30
0.0
 40
8.0
  0
LINE
  5
285
100
AcDbEntity
  8
D-STR
  6
CONTINUOUS
 62
       1
100
AcDbLine
 10
-305.35940108
 20
-169.0
 30
0.0
 11
-300.74059892
 21
-169.0
 31
0.0
  0
LINE
  5
286
100
AcDbEntity
  8
D-STR
  6
CONTINUOUS
 62
       1
100
AcDbLine
 10
-307.66880215
 20
-173.0
 30
0.0
 11
-305.35940108
 21
-169.0
 31
0.0
  0
LINE
  5
287
100
AcDbEntity
  8
D-STR
  6
CONTINUOUS
 62
       1
100
AcDbLine
 10
-305.35940108
 20
-177.0
 30
0.0
 11
-307.66880215
 21
-173.0
 31
0.0
  0
LINE
  5
288
100
AcDbEntity
  8
D-STR
  6
CONTINUOUS
 62
       1
100
AcDbLine
 10
-300.74059892
 20
-177.0
 30
0.0
 11
-305.35940108
 21
-177.0
 31
0.0
  0
LINE
  5
289
100
AcDbEntity
  8
D-STR
  6
CONTINUOUS
 62
       1
100
AcDbLine
 10
-298.43119785
 20
-173.0
 30
0.0
 11
-300.74059892
 21
-177.0
 31
0.0
  0
LINE
  5
28A
100
AcDbEntity
  8
D-STR
  6
CONTINUOUS
 62
       1
100
AcDbLine
 10
-300.74059892
 20
-169.0
 30
0.0
 11
-298.43119785
 21
-173.0
 31
0.0
  0
ENDBLK
  5
28B
100
AcDbEntity
  8
0
100
AcDbBlockEnd
  0
BLOCK
  5
28C
100
AcDbEntity
  8
0
100
AcDbBlockBegin
  2
GROUP_32
 70
       0
 10
0.0
 20
0.0
 30
0.0
  3
GROUP_32
  1

  0
LINE
  5
28D
100
AcDbEntity
  8
D-BMK
  6
CENTER
 62
       2
100
AcDbLine
 10
-303.05
 20
-197.0
 30
0.0
 11
-303.05
 21
-247.0
 31
0.0
  0
LINE
  5
28E
100
AcDbEntity
  8
D-STR
  6
CONTINUOUS
 62
       1
100
AcDbLine
 10
-308.05
 20
-207.0
 30
0.0
 11
-308.05
 21
-246.1875
 31
0.0
  0
LINE
  5
28F
100
AcDbEntity
  8
D-STR
  6
CONTINUOUS
 62
       1
100
AcDbLine
 10
-298.05
 20
-207.0
 30
0.0
 11
-298.05
 21
-246.1875
 31
0.0
  0
LINE
  5
290
100
AcDbEntity
  8
D-STR
  6
CONTINUOUS
 62
       1
100
AcDbLine
 10
-307.2375
 20
-247.0
 30
0.0
 11
-298.8625
 21
-247.0
 31
0.0
  0
LINE
  5
291
100
AcDbEntity
  8
D-STR
  6
CONTINUOUS
 62
       1
100
AcDbLine
 10
-308.05
 20
-211.5
 30
0.0
 11
-298.05
 21
-211.5
 31
0.0
  0
LINE
  5
292
100
AcDbEntity
  8
D-STR
  6
CONTINUOUS
 62
       1
100
AcDbLine
 10
-307.2375
 20
-211.5
 30
0.0
 11
-308.05
 21
-210.09270872
 31
0.0
  0
LINE
  5
293
100
AcDbEntity
  8
D-STR
  6
CONTINUOUS
 62
       1
100
AcDbLine
 10
-298.8625
 20
-211.5
 30
0.0
 11
-298.05
 21
-210.09270872
 31
0.0
  0
LINE
  5
294
100
AcDbEntity
  8
D-STR
  6
CONTINUOUS
 62
       1
100
AcDbLine
 10
-308.05
 20
-246.1875
 30
0.0
 11
-307.2375
 21
-247.0
 31
0.0
  0
LINE
  5
295
100
AcDbEntity
  8
D-STR
  6
CONTINUOUS
 62
       1
100
AcDbLine
 10
-298.8625
 20
-247.0
 30
0.0
 11
-298.05
 21
-246.1875
 31
0.0
  0
LINE
  5
296
100
AcDbEntity
  8
D-STR
  6
CONTINUOUS
 62
       1
100
AcDbLine
 10
-308.05
 20
-246.1875
 30
0.0
 11
-298.05
 21
-246.1875
 31
0.0
  0
LINE
  5
297
100
AcDbEntity
  8
D-STR
  6
CONTINUOUS
 62
       1
100
AcDbLine
 10
-311.05
 20
-207.0
 30
0.0
 11
-295.05
 21
-207.0
 31
0.0
  0
LINE
  5
298
100
AcDbEntity
  8
D-STR
  6
CONTINUOUS
 62
       1
100
AcDbLine
 10
-311.05
 20
-197.0
 30
0.0
 11
-295.05
 21
-197.0
 31
0.0
  0
LINE
  5
299
100
AcDbEntity
  8
D-STR
  6
CONTINUOUS
 62
       1
100
AcDbLine
 10
-311.05
 20
-197.0
 30
0.0
 11
-311.05
 21
-207.0
 31
0.0
  0
LINE
  5
29A
100
AcDbEntity
  8
D-STR
  6
CONTINUOUS
 62
       1
100
AcDbLine
 10
-295.05
 20
-197.0
 30
0.0
 11
-295.05
 21
-207.0
 31
0.0
  0
LINE
  5
29B
100
AcDbEntity
  8
D-STR
  6
CONTINUOUS
 62
       7
100
AcDbLine
 10
-307.2375
 20
-211.5
 30
0.0
 11
-307.2375
 21
-247.0
 31
0.0
  0
LINE
  5
29C
100
AcDbEntity
  8
D-STR
  6
CONTINUOUS
 62
       7
100
AcDbLine
 10
-298.8625
 20
-211.5
 30
0.0
 11
-298.8625
 21
-247.0
 31
0.0
  0
LINE
  5
29D
100
AcDbEntity
  8
D-STR-HID
  6
DASHED2
 62
       1
100
AcDbLine
 10
-307.66880215
 20
-202.0
 30
0.0
 11
-298.43119785
 21
-202.0
 31
0.0
  0
LINE
  5
29E
100
AcDbEntity
  8
D-STR-HID
  6
DASHED2
 62
       1
100
AcDbLine
 10
-298.43119785
 20
-197.0
 30
0.0
 11
-298.43119785
 21
-202.0
 31
0.0
  0
LINE
  5
29F
100
AcDbEntity
  8
D-STR-HID
  6
DASHED2
 62
       1
100
AcDbLine
 10
-300.74059892
 20
-197.0
 30
0.0
 11
-300.74059892
 21
-202.0
 31
0.0
  0
LINE
  5
2A0
100
AcDbEntity
  8
D-STR-HID
  6
DASHED2
 62
       1
100
AcDbLine
 10
-305.35940108
 20
-197.0
 30
0.0
 11
-305.35940108
 21
-202.0
 31
0.0
  0
LINE
  5
2A1
100
AcDbEntity
  8
D-STR-HID
  6
DASHED2
 62
       1
100
AcDbLine
 10
-307.66880215
 20
-197.0
 30
0.0
 11
-307.66880215
 21
-202.0
 31
0.0
  0
LINE
  5
2A2
100
AcDbEntity
  8
D-STR-HID
  6
DASHED2
 62
       1
100
AcDbLine
 10
-298.43119785
 20
-202.0
 30
0.0
 11
-303.05
 21
-204.66666667
 31
0.0
  0
LINE
  5
2A3
100
AcDbEntity
  8
D-STR-HID
  6
DASHED2
 62
       1
100
AcDbLine
 10
-307.66880215
 20
-202.0
 30
0.0
 11
-303.05
 21
-204.66666667
 31
0.0
  0
ENDBLK
  5
2A4
100
AcDbEntity
  8
0
100
AcDbBlockEnd
  0
BLOCK
  5
2A5
100
AcDbEntity
  8
0
100
AcDbBlockBegin
  2
GROUP_33
 70
       0
 10
0.0
 20
0.0
 30
0.0
  3
GROUP_33
  1

  0
LINE
  5
2A6
100
AcDbEntity
  8
D-BMK
  6
CENTER
 62
       2
100
AcDbLine
 10
-277.05
 20
-195.0
 30
0.0
 11
-277.05
 21
-257.0
 31
0.0
  0
LINE
  5
2A7
100
AcDbEntity
  8
D-STR
  6
CONTINUOUS
 62
       1
100
AcDbLine
 10
-283.05
 20
-207.0
 30
0.0
 11
-283.05
 21
-256.053
 31
0.0
  0
LINE
  5
2A8
100
AcDbEntity
  8
D-STR
  6
CONTINUOUS
 62
       1
100
AcDbLine
 10
-271.05
 20
-207.0
 30
0.0
 11
-271.05
 21
-256.053
 31
0.0
  0
LINE
  5
2A9
100
AcDbEntity
  8
D-STR
  6
CONTINUOUS
 62
       1
100
AcDbLine
 10
-282.103
 20
-257.0
 30
0.0
 11
-271.997
 21
-257.0
 31
0.0
  0
LINE
  5
2AA
100
AcDbEntity
  8
D-STR
  6
CONTINUOUS
 62
       1
100
AcDbLine
 10
-283.05
 20
-212.25
 30
0.0
 11
-271.05
 21
-212.25
 31
0.0
  0
LINE
  5
2AB
100
AcDbEntity
  8
D-STR
  6
CONTINUOUS
 62
       1
100
AcDbLine
 10
-282.103
 20
-212.25
 30
0.0
 11
-283.05
 21
-210.60974789
 31
0.0
  0
LINE
  5
2AC
100
AcDbEntity
  8
D-STR
  6
CONTINUOUS
 62
       1
100
AcDbLine
 10
-271.997
 20
-212.25
 30
0.0
 11
-271.05
 21
-210.60974789
 31
0.0
  0
LINE
  5
2AD
100
AcDbEntity
  8
D-STR
  6
CONTINUOUS
 62
       1
100
AcDbLine
 10
-283.05
 20
-256.053
 30
0.0
 11
-282.103
 21
-257.0
 31
0.0
  0
LINE
  5
2AE
100
AcDbEntity
  8
D-STR
  6
CONTINUOUS
 62
       1
100
AcDbLine
 10
-271.997
 20
-257.0
 30
0.0
 11
-271.05
 21
-256.053
 31
0.0
  0
LINE
  5
2AF
100
AcDbEntity
  8
D-STR
  6
CONTINUOUS
 62
       1
100
AcDbLine
 10
-283.05
 20
-256.053
 30
0.0
 11
-271.05
 21
-256.053
 31
0.0
  0
LINE
  5
2B0
100
AcDbEntity
  8
D-STR
  6
CONTINUOUS
 62
       1
100
AcDbLine
 10
-286.05
 20
-207.0
 30
0.0
 11
-268.05
 21
-207.0
 31
0.0
  0
LINE
  5
2B1
100
AcDbEntity
  8
D-STR
  6
CONTINUOUS
 62
       1
100
AcDbLine
 10
-286.05
 20
-195.0
 30
0.0
 11
-268.05
 21
-195.0
 31
0.0
  0
LINE
  5
2B2
100
AcDbEntity
  8
D-STR
  6
CONTINUOUS
 62
       1
100
AcDbLine
 10
-286.05
 20
-195.0
 30
0.0
 11
-286.05
 21
-207.0
 31
0.0
  0
LINE
  5
2B3
100
AcDbEntity
  8
D-STR
  6
CONTINUOUS
 62
       1
100
AcDbLine
 10
-268.05
 20
-195.0
 30
0.0
 11
-268.05
 21
-207.0
 31
0.0
  0
LINE
  5
2B4
100
AcDbEntity
  8
D-STR
  6
CONTINUOUS
 62
       7
100
AcDbLine
 10
-282.103
 20
-212.25
 30
0.0
 11
-282.103
 21
-257.0
 31
0.0
  0
LINE
  5
2B5
100
AcDbEntity
  8
D-STR
  6
CONTINUOUS
 62
       7
100
AcDbLine
 10
-271.997
 20
-212.25
 30
0.0
 11
-271.997
 21
-257.0
 31
0.0
  0
LINE
  5
2B6
100
AcDbEntity
  8
D-STR-HID
  6
DASHED2
 62
       1
100
AcDbLine
 10
-282.82350269
 20
-201.0
 30
0.0
 11
-271.27649731
 21
-201.0
 31
0.0
  0
LINE
  5
2B7
100
AcDbEntity
  8
D-STR-HID
  6
DASHED2
 62
       1
100
AcDbLine
 10
-271.27649731
 20
-195.0
 30
0.0
 11
-271.27649731
 21
-201.0
 31
0.0
  0
LINE
  5
2B8
100
AcDbEntity
  8
D-STR-HID
  6
DASHED2
 62
       1
100
AcDbLine
 10
-274.16324865
 20
-195.0
 30
0.0
 11
-274.16324865
 21
-201.0
 31
0.0
  0
LINE
  5
2B9
100
AcDbEntity
  8
D-STR-HID
  6
DASHED2
 62
       1
100
AcDbLine
 10
-279.93675135
 20
-195.0
 30
0.0
 11
-279.93675135
 21
-201.0
 31
0.0
  0
LINE
  5
2BA
100
AcDbEntity
  8
D-STR-HID
  6
DASHED2
 62
       1
100
AcDbLine
 10
-282.82350269
 20
-195.0
 30
0.0
 11
-282.82350269
 21
-201.0
 31
0.0
  0
LINE
  5
2BB
100
AcDbEntity
  8
D-STR-HID
  6
DASHED2
 62
       1
100
AcDbLine
 10
-271.27649731
 20
-201.0
 30
0.0
 11
-277.05
 21
-204.33333333
 31
0.0
  0
LINE
  5
2BC
100
AcDbEntity
  8
D-STR-HID
  6
DASHED2
 62
       1
100
AcDbLine
 10
-282.82350269
 20
-201.0
 30
0.0
 11
-277.05
 21
-204.33333333
 31
0.0
  0
ENDBLK
  5
2BD
100
AcDbEntity
  8
0
100
AcDbBlockEnd
  0
BLOCK
  5
2BE
100
AcDbEntity
  8
0
100
AcDbBlockBegin
  2
GROUP_34
 70
       0
 10
0.0
 20
0.0
 30
0.0
  3
GROUP_34
  1

  0
LINE
  5
2BF
100
AcDbEntity
  8
D-BMK
  6
CENTER
 62
       2
100
AcDbLine
 10
-286.05
 20
-168.0
 30
0.0
 11
-268.05
 21
-168.0
 31
0.0
  0
LINE
  5
2C0
100
AcDbEntity
  8
D-BMK
  6
CENTER
 62
       2
100
AcDbLine
 10
-277.05
 20
-177.0
 30
0.0
 11
-277.05
 21
-159.0
 31
0.0
  0
CIRCLE
  5
2C1
100
AcDbEntity
  8
D-STR
  6
CONTINUOUS
 62
       1
100
AcDbCircle
 10
-277.05
 20
-168.0
 30
0.0
 40
9.0
  0
LINE
  5
2C2
100
AcDbEntity
  8
D-STR
  6
CONTINUOUS
 62
       1
100
AcDbLine
 10
-279.93675135
 20
-163.0
 30
0.0
 11
-274.16324865
 21
-163.0
 31
0.0
  0
LINE
  5
2C3
100
AcDbEntity
  8
D-STR
  6
CONTINUOUS
 62
       1
100
AcDbLine
 10
-282.82350269
 20
-168.0
 30
0.0
 11
-279.93675135
 21
-163.0
 31
0.0
  0
LINE
  5
2C4
100
AcDbEntity
  8
D-STR
  6
CONTINUOUS
 62
       1
100
AcDbLine
 10
-279.93675135
 20
-173.0
 30
0.0
 11
-282.82350269
 21
-168.0
 31
0.0
  0
LINE
  5
2C5
100
AcDbEntity
  8
D-STR
  6
CONTINUOUS
 62
       1
100
AcDbLine
 10
-274.16324865
 20
-173.0
 30
0.0
 11
-279.93675135
 21
-173.0
 31
0.0
  0
LINE
  5
2C6
100
AcDbEntity
  8
D-STR
  6
CONTINUOUS
 62
       1
100
AcDbLine
 10
-271.27649731
 20
-168.0
 30
0.0
 11
-274.16324865
 21
-173.0
 31
0.0
  0
LINE
  5
2C7
100
AcDbEntity
  8
D-STR
  6
CONTINUOUS
 62
       1
100
AcDbLine
 10
-274.16324865
 20
-163.0
 30
0.0
 11
-271.27649731
 21
-168.0
 31
0.0
  0
ENDBLK
  5
2C8
100
AcDbEntity
  8
0
100
AcDbBlockEnd
  0
BLOCK
  5
2C9
100
AcDbEntity
  8
0
100
AcDbBlockBegin
  2
GROUP_35
 70
       0
 10
0.0
 20
0.0
 30
0.0
  3
GROUP_35
  1

  0
LINE
  5
2CA
100
AcDbEntity
  8
D-BMK
  6
CENTER
 62
       2
100
AcDbLine
 10
-257.55
 20
-161.5
 30
0.0
 11
-236.55
 21
-161.5
 31
0.0
  0
LINE
  5
2CB
100
AcDbEntity
  8
D-BMK
  6
CENTER
 62
       2
100
AcDbLine
 10
-247.05
 20
-172.0
 30
0.0
 11
-247.05
 21
-151.0
 31
0.0
  0
CIRCLE
  5
2CC
100
AcDbEntity
  8
D-STR
  6
CONTINUOUS
 62
       1
100
AcDbCircle
 10
-247.05
 20
-161.5
 30
0.0
 40
10.5
  0
LINE
  5
2CD
100
AcDbEntity
  8
D-STR
  6
CONTINUOUS
 62
       1
100
AcDbLine
 10
-250.51410162
 20
-155.5
 30
0.0
 11
-243.58589838
 21
-155.5
 31
0.0
  0
LINE
  5
2CE
100
AcDbEntity
  8
D-STR
  6
CONTINUOUS
 62
       1
100
AcDbLine
 10
-253.97820323
 20
-161.5
 30
0.0
 11
-250.51410162
 21
-155.5
 31
0.0
  0
LINE
  5
2CF
100
AcDbEntity
  8
D-STR
  6
CONTINUOUS
 62
       1
100
AcDbLine
 10
-250.51410162
 20
-167.5
 30
0.0
 11
-253.97820323
 21
-161.5
 31
0.0
  0
LINE
  5
2D0
100
AcDbEntity
  8
D-STR
  6
CONTINUOUS
 62
       1
100
AcDbLine
 10
-243.58589838
 20
-167.5
 30
0.0
 11
-250.51410162
 21
-167.5
 31
0.0
  0
LINE
  5
2D1
100
AcDbEntity
  8
D-STR
  6
CONTINUOUS
 62
       1
100
AcDbLine
 10
-240.12179677
 20
-161.5
 30
0.0
 11
-243.58589838
 21
-167.5
 31
0.0
  0
LINE
  5
2D2
100
AcDbEntity
  8
D-STR
  6
CONTINUOUS
 62
       1
100
AcDbLine
 10
-243.58589838
 20
-155.5
 30
0.0
 11
-240.12179677
 21
-161.5
 31
0.0
  0
ENDBLK
  5
2D3
100
AcDbEntity
  8
0
100
AcDbBlockEnd
  0
BLOCK
  5
2D4
100
AcDbEntity
  8
0
100
AcDbBlockBegin
  2
GROUP_36
 70
       0
 10
0.0
 20
0.0
 30
0.0
  3
GROUP_36
  1

  0
LINE
  5
2D5
100
AcDbEntity
  8
D-BMK
  6
CENTER
 62
       2
100
AcDbLine
 10
-247.05
 20
-193.0
 30
0.0
 11
-247.05
 21
-262.0
 31
0.0
  0
LINE
  5
2D6
100
AcDbEntity
  8
D-STR
  6
CONTINUOUS
 62
       1
100
AcDbLine
 10
-254.05
 20
-207.0
 30
0.0
 11
-254.05
 21
-260.9175
 31
0.0
  0
LINE
  5
2D7
100
AcDbEntity
  8
D-STR
  6
CONTINUOUS
 62
       1
100
AcDbLine
 10
-240.05
 20
-207.0
 30
0.0
 11
-240.05
 21
-260.9175
 31
0.0
  0
LINE
  5
2D8
100
AcDbEntity
  8
D-STR
  6
CONTINUOUS
 62
       1
100
AcDbLine
 10
-252.9675
 20
-262.0
 30
0.0
 11
-241.1325
 21
-262.0
 31
0.0
  0
LINE
  5
2D9
100
AcDbEntity
  8
D-STR
  6
CONTINUOUS
 62
       1
100
AcDbLine
 10
-254.05
 20
-213.0
 30
0.0
 11
-240.05
 21
-213.0
 31
0.0
  0
LINE
  5
2DA
100
AcDbEntity
  8
D-STR
  6
CONTINUOUS
 62
       1
100
AcDbLine
 10
-252.9675
 20
-213.0
 30
0.0
 11
-254.05
 21
-211.125055
 31
0.0
  0
LINE
  5
2DB
100
AcDbEntity
  8
D-STR
  6
CONTINUOUS
 62
       1
100
AcDbLine
 10
-241.1325
 20
-213.0
 30
0.0
 11
-240.05
 21
-211.125055
 31
0.0
  0
LINE
  5
2DC
100
AcDbEntity
  8
D-STR
  6
CONTINUOUS
 62
       1
100
AcDbLine
 10
-254.05
 20
-260.9175
 30
0.0
 11
-252.9675
 21
-262.0
 31
0.0
  0
LINE
  5
2DD
100
AcDbEntity
  8
D-STR
  6
CONTINUOUS
 62
       1
100
AcDbLine
 10
-241.1325
 20
-262.0
 30
0.0
 11
-240.05
 21
-260.9175
 31
0.0
  0
LINE
  5
2DE
100
AcDbEntity
  8
D-STR
  6
CONTINUOUS
 62
       1
100
AcDbLine
 10
-254.05
 20
-260.9175
 30
0.0
 11
-240.05
 21
-260.9175
 31
0.0
  0
LINE
  5
2DF
100
AcDbEntity
  8
D-STR
  6
CONTINUOUS
 62
       1
100
AcDbLine
 10
-257.55
 20
-207.0
 30
0.0
 11
-236.55
 21
-207.0
 31
0.0
  0
LINE
  5
2E0
100
AcDbEntity
  8
D-STR
  6
CONTINUOUS
 62
       1
100
AcDbLine
 10
-257.55
 20
-193.0
 30
0.0
 11
-236.55
 21
-193.0
 31
0.0
  0
LINE
  5
2E1
100
AcDbEntity
  8
D-STR
  6
CONTINUOUS
 62
       1
100
AcDbLine
 10
-257.55
 20
-193.0
 30
0.0
 11
-257.55
 21
-207.0
 31
0.0
  0
LINE
  5
2E2
100
AcDbEntity
  8
D-STR
  6
CONTINUOUS
 62
       1
100
AcDbLine
 10
-236.55
 20
-193.0
 30
0.0
 11
-236.55
 21
-207.0
 31
0.0
  0
LINE
  5
2E3
100
AcDbEntity
  8
D-STR
  6
CONTINUOUS
 62
       7
100
AcDbLine
 10
-252.9675
 20
-213.0
 30
0.0
 11
-252.9675
 21
-262.0
 31
0.0
  0
LINE
  5
2E4
100
AcDbEntity
  8
D-STR
  6
CONTINUOUS
 62
       7
100
AcDbLine
 10
-241.1325
 20
-213.0
 30
0.0
 11
-241.1325
 21
-262.0
 31
0.0
  0
LINE
  5
2E5
100
AcDbEntity
  8
D-STR-HID
  6
DASHED2
 62
       1
100
AcDbLine
 10
-253.97820323
 20
-200.0
 30
0.0
 11
-240.12179677
 21
-200.0
 31
0.0
  0
LINE
  5
2E6
100
AcDbEntity
  8
D-STR-HID
  6
DASHED2
 62
       1
100
AcDbLine
 10
-240.12179677
 20
-193.0
 30
0.0
 11
-240.12179677
 21
-200.0
 31
0.0
  0
LINE
  5
2E7
100
AcDbEntity
  8
D-STR-HID
  6
DASHED2
 62
       1
100
AcDbLine
 10
-243.58589838
 20
-193.0
 30
0.0
 11
-243.58589838
 21
-200.0
 31
0.0
  0
LINE
  5
2E8
100
AcDbEntity
  8
D-STR-HID
  6
DASHED2
 62
       1
100
AcDbLine
 10
-250.51410162
 20
-193.0
 30
0.0
 11
-250.51410162
 21
-200.0
 31
0.0
  0
LINE
  5
2E9
100
AcDbEntity
  8
D-STR-HID
  6
DASHED2
 62
       1
100
AcDbLine
 10
-253.97820323
 20
-193.0
 30
0.0
 11
-253.97820323
 21
-200.0
 31
0.0
  0
LINE
  5
2EA
100
AcDbEntity
  8
D-STR-HID
  6
DASHED2
 62
       1
100
AcDbLine
 10
-240.12179677
 20
-200.0
 30
0.0
 11
-247.05
 21
-204.0
 31
0.0
  0
LINE
  5
2EB
100
AcDbEntity
  8
D-STR-HID
  6
DASHED2
 62
       1
100
AcDbLine
 10
-253.97820323
 20
-200.0
 30
0.0
 11
-247.05
 21
-204.0
 31
0.0
  0
ENDBLK
  5
2EC
100
AcDbEntity
  8
0
100
AcDbBlockEnd
  0
BLOCK
  5
2ED
100
AcDbEntity
  8
0
100
AcDbBlockBegin
  2
GROUP_37
 70
       0
 10
0.0
 20
0.0
 30
0.0
  3
GROUP_37
  1

  0
LINE
  5
2EE
100
AcDbEntity
  8
D-BMK
  6
CENTER
 62
       2
100
AcDbLine
 10
-212.55
 20
-191.0
 30
0.0
 11
-212.55
 21
-267.0
 31
0.0
  0
LINE
  5
2EF
100
AcDbEntity
  8
D-STR
  6
CONTINUOUS
 62
       1
100
AcDbLine
 10
-220.55
 20
-207.0
 30
0.0
 11
-220.55
 21
-265.9175
 31
0.0
  0
LINE
  5
2F0
100
AcDbEntity
  8
D-STR
  6
CONTINUOUS
 62
       1
100
AcDbLine
 10
-204.55
 20
-207.0
 30
0.0
 11
-204.55
 21
-265.9175
 31
0.0
  0
LINE
  5
2F1
100
AcDbEntity
  8
D-STR
  6
CONTINUOUS
 62
       1
100
AcDbLine
 10
-219.4675
 20
-267.0
 30
0.0
 11
-205.6325
 21
-267.0
 31
0.0
  0
LINE
  5
2F2
100
AcDbEntity
  8
D-STR
  6
CONTINUOUS
 62
       1
100
AcDbLine
 10
-220.55
 20
-213.0
 30
0.0
 11
-204.55
 21
-213.0
 31
0.0
  0
LINE
  5
2F3
100
AcDbEntity
  8
D-STR
  6
CONTINUOUS
 62
       1
100
AcDbLine
 10
-219.4675
 20
-213.0
 30
0.0
 11
-220.55
 21
-211.125055
 31
0.0
  0
LINE
  5
2F4
100
AcDbEntity
  8
D-STR
  6
CONTINUOUS
 62
       1
100
AcDbLine
 10
-205.6325
 20
-213.0
 30
0.0
 11
-204.55
 21
-211.125055
 31
0.0
  0
LINE
  5
2F5
100
AcDbEntity
  8
D-STR
  6
CONTINUOUS
 62
       1
100
AcDbLine
 10
-220.55
 20
-265.9175
 30
0.0
 11
-219.4675
 21
-267.0
 31
0.0
  0
LINE
  5
2F6
100
AcDbEntity
  8
D-STR
  6
CONTINUOUS
 62
       1
100
AcDbLine
 10
-205.6325
 20
-267.0
 30
0.0
 11
-204.55
 21
-265.9175
 31
0.0
  0
LINE
  5
2F7
100
AcDbEntity
  8
D-STR
  6
CONTINUOUS
 62
       1
100
AcDbLine
 10
-220.55
 20
-265.9175
 30
0.0
 11
-204.55
 21
-265.9175
 31
0.0
  0
LINE
  5
2F8
100
AcDbEntity
  8
D-STR
  6
CONTINUOUS
 62
       1
100
AcDbLine
 10
-224.55
 20
-207.0
 30
0.0
 11
-200.55
 21
-207.0
 31
0.0
  0
LINE
  5
2F9
100
AcDbEntity
  8
D-STR
  6
CONTINUOUS
 62
       1
100
AcDbLine
 10
-224.55
 20
-191.0
 30
0.0
 11
-200.55
 21
-191.0
 31
0.0
  0
LINE
  5
2FA
100
AcDbEntity
  8
D-STR
  6
CONTINUOUS
 62
       1
100
AcDbLine
 10
-224.55
 20
-191.0
 30
0.0
 11
-224.55
 21
-207.0
 31
0.0
  0
LINE
  5
2FB
100
AcDbEntity
  8
D-STR
  6
CONTINUOUS
 62
       1
100
AcDbLine
 10
-200.55
 20
-191.0
 30
0.0
 11
-200.55
 21
-207.0
 31
0.0
  0
LINE
  5
2FC
100
AcDbEntity
  8
D-STR
  6
CONTINUOUS
 62
       7
100
AcDbLine
 10
-219.4675
 20
-213.0
 30
0.0
 11
-219.4675
 21
-267.0
 31
0.0
  0
LINE
  5
2FD
100
AcDbEntity
  8
D-STR
  6
CONTINUOUS
 62
       7
100
AcDbLine
 10
-205.6325
 20
-213.0
 30
0.0
 11
-205.6325
 21
-267.0
 31
0.0
  0
LINE
  5
2FE
100
AcDbEntity
  8
D-STR-HID
  6
DASHED2
 62
       1
100
AcDbLine
 10
-220.63290377
 20
-199.0
 30
0.0
 11
-204.46709623
 21
-199.0
 31
0.0
  0
LINE
  5
2FF
100
AcDbEntity
  8
D-STR-HID
  6
DASHED2
 62
       1
100
AcDbLine
 10
-204.46709623
 20
-191.0
 30
0.0
 11
-204.46709623
 21
-199.0
 31
0.0
  0
LINE
  5
300
100
AcDbEntity
  8
D-STR-HID
  6
DASHED2
 62
       1
100
AcDbLine
 10
-208.50854812
 20
-191.0
 30
0.0
 11
-208.50854812
 21
-199.0
 31
0.0
  0
LINE
  5
301
100
AcDbEntity
  8
D-STR-HID
  6
DASHED2
 62
       1
100
AcDbLine
 10
-216.59145188
 20
-191.0
 30
0.0
 11
-216.59145188
 21
-199.0
 31
0.0
  0
LINE
  5
302
100
AcDbEntity
  8
D-STR-HID
  6
DASHED2
 62
       1
100
AcDbLine
 10
-220.63290377
 20
-191.0
 30
0.0
 11
-220.63290377
 21
-199.0
 31
0.0
  0
LINE
  5
303
100
AcDbEntity
  8
D-STR-HID
  6
DASHED2
 62
       1
100
AcDbLine
 10
-204.46709623
 20
-199.0
 30
0.0
 11
-212.55
 21
-203.66666667
 31
0.0
  0
LINE
  5
304
100
AcDbEntity
  8
D-STR-HID
  6
DASHED2
 62
       1
100
AcDbLine
 10
-220.63290377
 20
-199.0
 30
0.0
 11
-212.55
 21
-203.66666667
 31
0.0
  0
ENDBLK
  5
305
100
AcDbEntity
  8
0
100
AcDbBlockEnd
  0
BLOCK
  5
306
100
AcDbEntity
  8
0
100
AcDbBlockBegin
  2
GROUP_38
 70
       0
 10
0.0
 20
0.0
 30
0.0
  3
GROUP_38
  1

  0
LINE
  5
307
100
AcDbEntity
  8
D-BMK
  6
CENTER
 62
       2
100
AcDbLine
 10
-224.55
 20
-155.0
 30
0.0
 11
-200.55
 21
-155.0
 31
0.0
  0
LINE
  5
308
100
AcDbEntity
  8
D-BMK
  6
CENTER
 62
       2
100
AcDbLine
 10
-212.55
 20
-167.0
 30
0.0
 11
-212.55
 21
-143.0
 31
0.0
  0
CIRCLE
  5
309
100
AcDbEntity
  8
D-STR
  6
CONTINUOUS
 62
       1
100
AcDbCircle
 10
-212.55
 20
-155.0
 30
0.0
 40
12.0
  0
LINE
  5
30A
100
AcDbEntity
  8
D-STR
  6
CONTINUOUS
 62
       1
100
AcDbLine
 10
-216.59145188
 20
-148.0
 30
0.0
 11
-208.50854812
 21
-148.0
 31
0.0
  0
LINE
  5
30B
100
AcDbEntity
  8
D-STR
  6
CONTINUOUS
 62
       1
100
AcDbLine
 10
-220.63290377
 20
-155.0
 30
0.0
 11
-216.59145188
 21
-148.0
 31
0.0
  0
LINE
  5
30C
100
AcDbEntity
  8
D-STR
  6
CONTINUOUS
 62
       1
100
AcDbLine
 10
-216.59145188
 20
-162.0
 30
0.0
 11
-220.63290377
 21
-155.0
 31
0.0
  0
LINE
  5
30D
100
AcDbEntity
  8
D-STR
  6
CONTINUOUS
 62
       1
100
AcDbLine
 10
-208.50854812
 20
-162.0
 30
0.0
 11
-216.59145188
 21
-162.0
 31
0.0
  0
LINE
  5
30E
100
AcDbEntity
  8
D-STR
  6
CONTINUOUS
 62
       1
100
AcDbLine
 10
-204.46709623
 20
-155.0
 30
0.0
 11
-208.50854812
 21
-162.0
 31
0.0
  0
LINE
  5
30F
100
AcDbEntity
  8
D-STR
  6
CONTINUOUS
 62
       1
100
AcDbLine
 10
-208.50854812
 20
-148.0
 30
0.0
 11
-204.46709623
 21
-155.0
 31
0.0
  0
ENDBLK
  5
310
100
AcDbEntity
  8
0
100
AcDbBlockEnd
  0
BLOCK
  5
311
100
AcDbEntity
  8
0
100
AcDbBlockBegin
  2
GROUP_39
 70
       0
 10
0.0
 20
0.0
 30
0.0
  3
GROUP_39
  1

  0
LINE
  5
312
100
AcDbEntity
  8
D-BMK
  6
CENTER
 62
       2
100
AcDbLine
 10
-185.55
 20
-142.0
 30
0.0
 11
-155.55
 21
-142.0
 31
0.0
  0
LINE
  5
313
100
AcDbEntity
  8
D-BMK
  6
CENTER
 62
       2
100
AcDbLine
 10
-170.55
 20
-157.0
 30
0.0
 11
-170.55
 21
-127.0
 31
0.0
  0
CIRCLE
  5
314
100
AcDbEntity
  8
D-STR
  6
CONTINUOUS
 62
       1
100
AcDbCircle
 10
-170.55
 20
-142.0
 30
0.0
 40
15.0
  0
LINE
  5
315
100
AcDbEntity
  8
D-STR
  6
CONTINUOUS
 62
       1
100
AcDbLine
 10
-175.45747729
 20
-133.5
 30
0.0
 11
-165.64252271
 21
-133.5
 31
0.0
  0
LINE
  5
316
100
AcDbEntity
  8
D-STR
  6
CONTINUOUS
 62
       1
100
AcDbLine
 10
-180.36495458
 20
-142.0
 30
0.0
 11
-175.45747729
 21
-133.5
 31
0.0
  0
LINE
  5
317
100
AcDbEntity
  8
D-STR
  6
CONTINUOUS
 62
       1
100
AcDbLine
 10
-175.45747729
 20
-150.5
 30
0.0
 11
-180.36495458
 21
-142.0
 31
0.0
  0
LINE
  5
318
100
AcDbEntity
  8
D-STR
  6
CONTINUOUS
 62
       1
100
AcDbLine
 10
-165.64252271
 20
-150.5
 30
0.0
 11
-175.45747729
 21
-150.5
 31
0.0
  0
LINE
  5
319
100
AcDbEntity
  8
D-STR
  6
CONTINUOUS
 62
       1
100
AcDbLine
 10
-160.73504542
 20
-142.0
 30
0.0
 11
-165.64252271
 21
-150.5
 31
0.0
  0
LINE
  5
31A
100
AcDbEntity
  8
D-STR
  6
CONTINUOUS
 62
       1
100
AcDbLine
 10
-165.64252271
 20
-133.5
 30
0.0
 11
-160.73504542
 21
-142.0
 31
0.0
  0
ENDBLK
  5
31B
100
AcDbEntity
  8
0
100
AcDbBlockEnd
  0
BLOCK
  5
31C
100
AcDbEntity
  8
0
100
AcDbBlockBegin
  2
GROUP_40
 70
       0
 10
0.0
 20
0.0
 30
0.0
  3
GROUP_40
  1

  0
LINE
  5
31D
100
AcDbEntity
  8
D-BMK
  6
CENTER
 62
       2
100
AcDbLine
 10
-170.55
 20
-187.0
 30
0.0
 11
-170.55
 21
-277.0
 31
0.0
  0
LINE
  5
31E
100
AcDbEntity
  8
D-STR
  6
CONTINUOUS
 62
       1
100
AcDbLine
 10
-180.55
 20
-207.0
 30
0.0
 11
-180.55
 21
-275.647
 31
0.0
  0
LINE
  5
31F
100
AcDbEntity
  8
D-STR
  6
CONTINUOUS
 62
       1
100
AcDbLine
 10
-160.55
 20
-207.0
 30
0.0
 11
-160.55
 21
-275.647
 31
0.0
  0
LINE
  5
320
100
AcDbEntity
  8
D-STR
  6
CONTINUOUS
 62
       1
100
AcDbLine
 10
-179.197
 20
-277.0
 30
0.0
 11
-161.903
 21
-277.0
 31
0.0
  0
LINE
  5
321
100
AcDbEntity
  8
D-STR
  6
CONTINUOUS
 62
       1
100
AcDbLine
 10
-180.55
 20
-214.5
 30
0.0
 11
-160.55
 21
-214.5
 31
0.0
  0
LINE
  5
322
100
AcDbEntity
  8
D-STR
  6
CONTINUOUS
 62
       1
100
AcDbLine
 10
-179.197
 20
-214.5
 30
0.0
 11
-180.55
 21
-212.15653526
 31
0.0
  0
LINE
  5
323
100
AcDbEntity
  8
D-STR
  6
CONTINUOUS
 62
       1
100
AcDbLine
 10
-161.903
 20
-214.5
 30
0.0
 11
-160.55
 21
-212.15653526
 31
0.0
  0
LINE
  5
324
100
AcDbEntity
  8
D-STR
  6
CONTINUOUS
 62
       1
100
AcDbLine
 10
-180.55
 20
-275.647
 30
0.0
 11
-179.197
 21
-277.0
 31
0.0
  0
LINE
  5
325
100
AcDbEntity
  8
D-STR
  6
CONTINUOUS
 62
       1
100
AcDbLine
 10
-161.903
 20
-277.0
 30
0.0
 11
-160.55
 21
-275.647
 31
0.0
  0
LINE
  5
326
100
AcDbEntity
  8
D-STR
  6
CONTINUOUS
 62
       1
100
AcDbLine
 10
-180.55
 20
-275.647
 30
0.0
 11
-160.55
 21
-275.647
 31
0.0
  0
LINE
  5
327
100
AcDbEntity
  8
D-STR
  6
CONTINUOUS
 62
       1
100
AcDbLine
 10
-185.55
 20
-207.0
 30
0.0
 11
-155.55
 21
-207.0
 31
0.0
  0
LINE
  5
328
100
AcDbEntity
  8
D-STR
  6
CONTINUOUS
 62
       1
100
AcDbLine
 10
-185.55
 20
-187.0
 30
0.0
 11
-155.55
 21
-187.0
 31
0.0
  0
LINE
  5
329
100
AcDbEntity
  8
D-STR
  6
CONTINUOUS
 62
       1
100
AcDbLine
 10
-185.55
 20
-187.0
 30
0.0
 11
-185.55
 21
-207.0
 31
0.0
  0
LINE
  5
32A
100
AcDbEntity
  8
D-STR
  6
CONTINUOUS
 62
       1
100
AcDbLine
 10
-155.55
 20
-187.0
 30
0.0
 11
-155.55
 21
-207.0
 31
0.0
  0
LINE
  5
32B
100
AcDbEntity
  8
D-STR
  6
CONTINUOUS
 62
       7
100
AcDbLine
 10
-179.197
 20
-214.5
 30
0.0
 11
-179.197
 21
-277.0
 31
0.0
  0
LINE
  5
32C
100
AcDbEntity
  8
D-STR
  6
CONTINUOUS
 62
       7
100
AcDbLine
 10
-161.903
 20
-214.5
 30
0.0
 11
-161.903
 21
-277.0
 31
0.0
  0
LINE
  5
32D
100
AcDbEntity
  8
D-STR-HID
  6
DASHED2
 62
       1
100
AcDbLine
 10
-180.36495458
 20
-197.0
 30
0.0
 11
-160.73504542
 21
-197.0
 31
0.0
  0
LINE
  5
32E
100
AcDbEntity
  8
D-STR-HID
  6
DASHED2
 62
       1
100
AcDbLine
 10
-160.73504542
 20
-187.0
 30
0.0
 11
-160.73504542
 21
-197.0
 31
0.0
  0
LINE
  5
32F
100
AcDbEntity
  8
D-STR-HID
  6
DASHED2
 62
       1
100
AcDbLine
 10
-165.64252271
 20
-187.0
 30
0.0
 11
-165.64252271
 21
-197.0
 31
0.0
  0
LINE
  5
330
100
AcDbEntity
  8
D-STR-HID
  6
DASHED2
 62
       1
100
AcDbLine
 10
-175.45747729
 20
-187.0
 30
0.0
 11
-175.45747729
 21
-197.0
 31
0.0
  0
LINE
  5
331
100
AcDbEntity
  8
D-STR-HID
  6
DASHED2
 62
       1
100
AcDbLine
 10
-180.36495458
 20
-187.0
 30
0.0
 11
-180.36495458
 21
-197.0
 31
0.0
  0
LINE
  5
332
100
AcDbEntity
  8
D-STR-HID
  6
DASHED2
 62
       1
100
AcDbLine
 10
-160.73504542
 20
-197.0
 30
0.0
 11
-170.55
 21
-202.66666667
 31
0.0
  0
LINE
  5
333
100
AcDbEntity
  8
D-STR-HID
  6
DASHED2
 62
       1
100
AcDbLine
 10
-180.36495458
 20
-197.0
 30
0.0
 11
-170.55
 21
-202.66666667
 31
0.0
  0
ENDBLK
  5
334
100
AcDbEntity
  8
0
100
AcDbBlockEnd
  0
ENDSEC
  0
SECTION
  2
ENTITIES
  0
TEXT
  5
335
100
AcDbEntity
  8
D-STR-TXT
 62
       7
100
AcDbText
 10
-400.5
 20
273.5
 30
0.0
 40
3.5
  1
六角穴付きボルト並目(全ねじ)
 41
1.2
 72
       5
 11
-341.7
 21
273.5
 31
0.0
100
AcDbText
  0
TEXT
  5
336
100
AcDbEntity
  8
D-STR-TXT
 62
       7
100
AcDbText
 10
-400.5
 20
269.0
 30
0.0
 40
3.5
  1
M1.6,M2,M2.5,M3,M4,M5,M6,M8,M10,M12,(M14),M16,M20,M24,M30,M36,M42,M48,M56,M64
 41
1.2
 72
       5
 11
-238.8
 21
269.0
 31
0.0
100
AcDbText
  0
INSERT
  5
337
100
AcDbEntity
  8
0
  6
CONTINUOUS
100
AcDbBlockReference
  2
GROUP_1
 10
0.0
 20
0.0
 30
0.0
  0
INSERT
  5
338
100
AcDbEntity
  8
0
  6
CONTINUOUS
100
AcDbBlockReference
  2
GROUP_2
 10
0.0
 20
0.0
 30
0.0
  0
INSERT
  5
339
100
AcDbEntity
  8
0
  6
CONTINUOUS
100
AcDbBlockReference
  2
GROUP_3
 10
0.0
 20
0.0
 30
0.0
  0
INSERT
  5
33A
100
AcDbEntity
  8
0
  6
CONTINUOUS
100
AcDbBlockReference
  2
GROUP_4
 10
0.0
 20
0.0
 30
0.0
  0
INSERT
  5
33B
100
AcDbEntity
  8
0
  6
CONTINUOUS
100
AcDbBlockReference
  2
GROUP_5
 10
0.0
 20
0.0
 30
0.0
  0
INSERT
  5
33C
100
AcDbEntity
  8
0
  6
CONTINUOUS
100
AcDbBlockReference
  2
GROUP_6
 10
0.0
 20
0.0
 30
0.0
  0
INSERT
  5
33D
100
AcDbEntity
  8
0
  6
CONTINUOUS
100
AcDbBlockReference
  2
GROUP_7
 10
0.0
 20
0.0
 30
0.0
  0
INSERT
  5
33E
100
AcDbEntity
  8
0
  6
CONTINUOUS
100
AcDbBlockReference
  2
GROUP_8
 10
0.0
 20
0.0
 30
0.0
  0
INSERT
  5
33F
100
AcDbEntity
  8
0
  6
CONTINUOUS
100
AcDbBlockReference
  2
GROUP_9
 10
0.0
 20
0.0
 30
0.0
  0
INSERT
  5
340
100
AcDbEntity
  8
0
  6
CONTINUOUS
100
AcDbBlockReference
  2
GROUP_10
 10
0.0
 20
0.0
 30
0.0
  0
INSERT
  5
341
100
AcDbEntity
  8
0
  6
CONTINUOUS
100
AcDbBlockReference
  2
GROUP_11
 10
0.0
 20
0.0
 30
0.0
  0
INSERT
  5
342
100
AcDbEntity
  8
0
  6
CONTINUOUS
100
AcDbBlockReference
  2
GROUP_12
 10
0.0
 20
0.0
 30
0.0
  0
INSERT
  5
343
100
AcDbEntity
  8
0
  6
CONTINUOUS
100
AcDbBlockReference
  2
GROUP_13
 10
0.0
 20
0.0
 30
0.0
  0
INSERT
  5
344
100
AcDbEntity
  8
0
  6
CONTINUOUS
100
AcDbBlockReference
  2
GROUP_14
 10
0.0
 20
0.0
 30
0.0
  0
INSERT
  5
345
100
AcDbEntity
  8
0
  6
CONTINUOUS
100
AcDbBlockReference
  2
GROUP_15
 10
0.0
 20
0.0
 30
0.0
  0
INSERT
  5
346
100
AcDbEntity
  8
0
  6
CONTINUOUS
100
AcDbBlockReference
  2
GROUP_16
 10
0.0
 20
0.0
 30
0.0
  0
INSERT
  5
347
100
AcDbEntity
  8
0
  6
CONTINUOUS
100
AcDbBlockReference
  2
GROUP_17
 10
0.0
 20
0.0
 30
0.0
  0
INSERT
  5
348
100
AcDbEntity
  8
0
  6
CONTINUOUS
100
AcDbBlockReference
  2
GROUP_18
 10
0.0
 20
0.0
 30
0.0
  0
INSERT
  5
349
100
AcDbEntity
  8
0
  6
CONTINUOUS
100
AcDbBlockReference
  2
GROUP_19
 10
0.0
 20
0.0
 30
0.0
  0
INSERT
  5
34A
100
AcDbEntity
  8
0
  6
CONTINUOUS
100
AcDbBlockReference
  2
GROUP_20
 10
0.0
 20
0.0
 30
0.0
  0
INSERT
  5
34B
100
AcDbEntity
  8
0
  6
CONTINUOUS
100
AcDbBlockReference
  2
GROUP_21
 10
0.0
 20
0.0
 30
0.0
  0
INSERT
  5
34C
100
AcDbEntity
  8
0
  6
CONTINUOUS
100
AcDbBlockReference
  2
GROUP_22
 10
0.0
 20
0.0
 30
0.0
  0
INSERT
  5
34D
100
AcDbEntity
  8
0
  6
CONTINUOUS
100
AcDbBlockReference
  2
GROUP_23
 10
0.0
 20
0.0
 30
0.0
  0
INSERT
  5
34E
100
AcDbEntity
  8
0
  6
CONTINUOUS
100
AcDbBlockReference
  2
GROUP_24
 10
0.0
 20
0.0
 30
0.0
  0
INSERT
  5
34F
100
AcDbEntity
  8
0
  6
CONTINUOUS
100
AcDbBlockReference
  2
GROUP_25
 10
0.0
 20
0.0
 30
0.0
  0
INSERT
  5
350
100
AcDbEntity
  8
0
  6
CONTINUOUS
100
AcDbBlockReference
  2
GROUP_26
 10
0.0
 20
0.0
 30
0.0
  0
INSERT
  5
351
100
AcDbEntity
  8
0
  6
CONTINUOUS
100
AcDbBlockReference
  2
GROUP_27
 10
0.0
 20
0.0
 30
0.0
  0
INSERT
  5
352
100
AcDbEntity
  8
0
  6
CONTINUOUS
100
AcDbBlockReference
  2
GROUP_28
 10
0.0
 20
0.0
 30
0.0
  0
INSERT
  5
353
100
AcDbEntity
  8
0
  6
CONTINUOUS
100
AcDbBlockReference
  2
GROUP_29
 10
0.0
 20
0.0
 30
0.0
  0
INSERT
  5
354
100
AcDbEntity
  8
0
  6
CONTINUOUS
100
AcDbBlockReference
  2
GROUP_30
 10
0.0
 20
0.0
 30
0.0
  0
INSERT
  5
355
100
AcDbEntity
  8
0
  6
CONTINUOUS
100
AcDbBlockReference
  2
GROUP_31
 10
0.0
 20
0.0
 30
0.0
  0
INSERT
  5
356
100
AcDbEntity
  8
0
  6
CONTINUOUS
100
AcDbBlockReference
  2
GROUP_32
 10
0.0
 20
0.0
 30
0.0
  0
INSERT
  5
357
100
AcDbEntity
  8
0
  6
CONTINUOUS
100
AcDbBlockReference
  2
GROUP_33
 10
0.0
 20
0.0
 30
0.0
  0
INSERT
  5
358
100
AcDbEntity
  8
0
  6
CONTINUOUS
100
AcDbBlockReference
  2
GROUP_34
 10
0.0
 20
0.0
 30
0.0
  0
INSERT
  5
359
100
AcDbEntity
  8
0
  6
CONTINUOUS
100
AcDbBlockReference
  2
GROUP_35
 10
0.0
 20
0.0
 30
0.0
  0
INSERT
  5
35A
100
AcDbEntity
  8
0
  6
CONTINUOUS
100
AcDbBlockReference
  2
GROUP_36
 10
0.0
 20
0.0
 30
0.0
  0
INSERT
  5
35B
100
AcDbEntity
  8
0
  6
CONTINUOUS
100
AcDbBlockReference
  2
GROUP_37
 10
0.0
 20
0.0
 30
0.0
  0
INSERT
  5
35C
100
AcDbEntity
  8
0
  6
CONTINUOUS
100
AcDbBlockReference
  2
GROUP_38
 10
0.0
 20
0.0
 30
0.0
  0
INSERT
  5
35D
100
AcDbEntity
  8
0
  6
CONTINUOUS
100
AcDbBlockReference
  2
GROUP_39
 10
0.0
 20
0.0
 30
0.0
  0
INSERT
  5
35E
100
AcDbEntity
  8
0
  6
CONTINUOUS
100
AcDbBlockReference
  2
GROUP_40
 10
0.0
 20
0.0
 30
0.0
  0
ENDSEC
  0
SECTION
  2
OBJECTS
  0
DICTIONARY
  5
19
100
AcDbDictionary
  3
ACAD_GROUP
350
1A
  3
ACAD_MLINESTYLE
350
1B
  0
DICTIONARY
  5
1A
102
{ACAD_REACTORS
330
19
102
}
100
AcDbDictionary
  0
DICTIONARY
  5
1B
102
{ACAD_REACTORS
330
19
102
}
100
AcDbDictionary
  3
STANDARD
350
1C
  0
MLINESTYLE
  5
1C
102
{ACAD_REACTORS
330
1B
102
}
100
AcDbMlineStyle
  2
STANDARD
 70
       0
  3

 62
       0
 51
90.0
 52
90.0
 71
       2
 49
0.5
 62
     256
  6
BYLAYER
 49
-0.5
 62
     256
  6
BYLAYER
  0
ENDSEC
  0
EOF
