  0
SECTION
  2
HEADER
  9
$ACADVER
  1
AC1014
  9
$ACADMAINTVER
 70
       0
  9
$DWGCODEPAGE
  3
ANSI_932
  9
$INSBASE
 10
0.0
 20
0.0
 30
0.0
  9
$EXTMIN
 10
-416.52
 20
-288.08
 30
0.0
  9
$EXTMAX
 10
416.52
 20
288.08
 30
0.0
  9
$LIMMIN
 10
-442.5525
 20
-306.085
  9
$LIMMAX
 10
442.5525
 20
306.085
  9
$ORTHOMODE
 70
       0
  9
$REGENMODE
 70
       1
  9
$FILLMODE
 70
       1
  9
$QTEXTMODE
 70
       0
  9
$MIRRTEXT
 70
       1
  9
$DRAGMODE
 70
       2
  9
$LTSCALE
 40
1.0
  9
$OSMODE
 70
       0
  9
$ATTMODE
 70
       1
  9
$TEXTSIZE
 40
0.2
  9
$TRACEWID
 40
0.05
  9
$TEXTSTYLE
  7
STANDARD
  9
$CLAYER
  8
0
  9
$CELTYPE
  6
CONTINUOUS
  9
$CECOLOR
 62
     256
  9
$CELTSCALE
 40
1.0
  9
$DELOBJ
 70
       1
  9
$DISPSILH
 70
       0
  9
$DIMSCALE
 40
1.0
  9
$DIMASZ
 40
0.18
  9
$DIMEXO
 40
0.0625
  9
$DIMDLI
 40
0.38
  9
$DIMRND
 40
0.0
  9
$DIMDLE
 40
0.0
  9
$DIMEXE
 40
0.18
  9
$DIMTP
 40
0.0
  9
$DIMTM
 40
0.0
  9
$DIMTXT
 40
0.18
  9
$DIMCEN
 40
0.09
  9
$DIMTSZ
 40
0.0
  9
$DIMTOL
 70
       0
  9
$DIMLIM
 70
       0
  9
$DIMTIH
 70
       1
  9
$DIMTOH
 70
       1
  9
$DIMSE1
 70
       0
  9
$DIMSE2
 70
       0
  9
$DIMTAD
 70
       0
  9
$DIMZIN
 70
       0
  9
$DIMBLK
  1

  9
$DIMASO
 70
       1
  9
$DIMSHO
 70
       1
  9
$DIMPOST
  1

  9
$DIMAPOST
  1

  9
$DIMALT
 70
       0
  9
$DIMALTD
 70
       2
  9
$DIMALTF
 40
25.4
  9
$DIMLFAC
 40
1.0
  9
$DIMTOFL
 70
       0
  9
$DIMTVP
 40
0.0
  9
$DIMTIX
 70
       0
  9
$DIMSOXD
 70
       0
  9
$DIMSAH
 70
       0
  9
$DIMBLK1
  1

  9
$DIMBLK2
  1

  9
$DIMSTYLE
  2
STANDARD
  9
$DIMCLRD
 70
       0
  9
$DIMCLRE
 70
       0
  9
$DIMCLRT
 70
       0
  9
$DIMTFAC
 40
1.0
  9
$DIMGAP
 40
0.09
  9
$DIMJUST
 70
       0
  9
$DIMSD1
 70
       0
  9
$DIMSD2
 70
       0
  9
$DIMTOLJ
 70
       1
  9
$DIMTZIN
 70
       0
  9
$DIMALTZ
 70
       0
  9
$DIMALTTZ
 70
       0
  9
$DIMFIT
 70
       3
  9
$DIMUPT
 70
       0
  9
$DIMUNIT
 70
       2
  9
$DIMDEC
 70
       4
  9
$DIMTDEC
 70
       4
  9
$DIMALTU
 70
       2
  9
$DIMALTTD
 70
       2
  9
$DIMTXSTY
  7
STANDARD
  9
$DIMAUNIT
 70
       0
  9
$LUNITS
 70
       2
  9
$LUPREC
 70
       4
  9
$SKETCHINC
 40
0.1
  9
$FILLETRAD
 40
0.0
  9
$AUNITS
 70
       0
  9
$AUPREC
 70
       0
  9
$MENU
  1
acad
  9
$ELEVATION
 40
0.0
  9
$PELEVATION
 40
0.0
  9
$THICKNESS
 40
0.0
  9
$LIMCHECK
 70
       0
  9
$BLIPMODE
 70
       1
  9
$CHAMFERA
 40
0.0
  9
$CHAMFERB
 40
0.0
  9
$CHAMFERC
 40
0.0
  9
$CHAMFERD
 40
0.0
  9
$SKPOLY
 70
       0
  9
$TDCREATE
 40
0.000000000
  9
$TDUPDATE
 40
0.000000000
  9
$TDINDWG
 40
0.0000000000
  9
$TDUSRTIMER
 40
0.0000000000
  9
$USRTIMER
 70
       1
  9
$ANGBASE
 50
0.0
  9
$ANGDIR
 70
       0
  9
$PDMODE
 70
       0
  9
$PDSIZE
 40
1.0
  9
$PLINEWID
 40
0.0
  9
$COORDS
 70
       1
  9
$SPLFRAME
 70
       0
  9
$SPLINETYPE
 70
       6
  9
$SPLINESEGS
 70
       8
  9
$ATTDIA
 70
       0
  9
$ATTREQ
 70
       1
  9
$HANDLING
 70
       1
  9
$HANDSEED
  5
36F
  9
$SURFTAB1
 70
       6
  9
$SURFTAB2
 70
       6
  9
$SURFTYPE
 70
       6
  9
$SURFU
 70
       6
  9
$SURFV
 70
       6
  9
$UCSNAME
  2

  9
$UCSORG
 10
0.0
 20
0.0
 30
0.0
  9
$UCSXDIR
 10
1.0
 20
0.0
 30
0.0
  9
$UCSYDIR
 10
0.0
 20
1.0
 30
0.0
  9
$PUCSNAME
  2

  9
$PUCSORG
 10
0.0
 20
0.0
 30
0.0
  9
$PUCSXDIR
 10
1.0
 20
0.0
 30
0.0
  9
$PUCSYDIR
 10
0.0
 20
1.0
 30
0.0
  9
$USERI1
 70
       0
  9
$USERI2
 70
       0
  9
$USERI3
 70
       0
  9
$USERI4
 70
       0
  9
$USERI5
 70
       0
  9
$USERR1
 40
0.0
  9
$USERR2
 40
0.0
  9
$USERR3
 40
0.0
  9
$USERR4
 40
0.0
  9
$USERR5
 40
0.0
  9
$WORLDVIEW
 70
       1
  9
$SHADEDGE
 70
       3
  9
$SHADEDIF
 70
      70
  9
$TILEMODE
 70
       1
  9
$MAXACTVP
 70
      16
  9
$PINSBASE
 10
0.0
 20
0.0
 30
0.0
  9
$PLIMCHECK
 70
       0
  9
$PEXTMIN
 10
1.00000000E+20
 20
1.00000000E+20
 30
1.00000000E+20
  9
$PEXTMAX
 10
-1.00000000E+20
 20
-1.00000000E+20
 30
-1.00000000E+20
  9
$PLIMMIN
 10
0.0
 20
0.0
  9
$PLIMMAX
 10
12.0
 20
9.0
  9
$UNITMODE
 70
       0
  9
$VISRETAIN
 70
       0
  9
$PLINEGEN
 70
       1
  9
$PSLTSCALE
 70
       0
  9
$TREEDEPTH
 70
    3020
  9
$PICKSTYLE
 70
       1
  9
$CMLSTYLE
  2
STANDARD
  9
$CMLJUST
 70
       0
  9
$CMLSCALE
 40
1.0
  9
$PROXYGRAPHICS
 70
       0
  9
$MEASUREMENT
 70
       0
  0
ENDSEC
  0
SECTION
  2
CLASSES
  0
CLASS
  1
LWPOLYLINE
  2
AcDbPolyline
  3
"AutoCAD"
 90
        0
280
       0
281
       1
  0
CLASS
  1
IMAGE
  2
AcDbRasterImage
  3
ISM
 90
      127
280
       0
281
       1
  0
CLASS
  1
OLE2FRAME
  2
AcDbOle2Frame
  3
""
 90
        0
280
       0
281
       1
  0
CLASS
  1
HATCH
  2
AcDbHatch
  3
"ACAD_SEDONA"
 90
        0
280
       0
281
       1
  0
CLASS
  1
DICTIONARYVAR
  2
AcDbDictionaryVar
  3
"AutoCAD"
 90
        0
280
       0
281
       0
  0
CLASS
  1
RASTERVARIABLES
  2
AcDbRasterVariables
  3
ISM
 90
        0
280
       0
281
       0
  0
CLASS
  1
IMAGEDEF
  2
AcDbRasterImageDef
  3
ISM
 90
        0
280
       0
281
       0
  0
CLASS
  1
IMAGEDEF_REACTOR
  2
AcDbRasterImageDefReactor
  3
ISM
 90
        1
280
       0
281
       0
  0
CLASS
  1
IDBUFFER
  2
AcDbIdBuffer
  3
"Acad"
 90
        0
280
       0
281
       0
  0
CLASS
  1
SPATIAL_FILTER
  2
AcDbSpatialFilter
  3
"Acad"
 90
        0
280
       0
281
       0
  0
CLASS
  1
XRECORD
  2
AcDbXrecord
  3
"<Built In>"
 90
        0
280
       0
281
       0
  0
CLASS
  1
SORTENTSTABLE
  2
AcDbSortentsTable
  3
"AutoCAD"
 90
        0
280
       0
281
       0
  0
CLASS
  1
LAYER_INDEX
  2
AcDbLayerIndex
  3
"Acad"
 90
        0
280
       0
281
       0
  0
CLASS
  1
SPATIAL_INDEX
  2
AcDbSpatialIndex
  3
"Acad"
 90
        0
280
       0
281
       0
  0
CLASS
  1
OBJECT_PTR
  2
CAseDLPNTableRecord
  3
"ASE-LPNTableRecord"
 90
        1
280
       0
281
       0
  0
CLASS
  1
LAYOUT
  2
AcDbLayout
  3
"AutoCAD 2000"
 90
        1
280
       0
281
       0
  0
CLASS
  1
PLOTSETTINGS
  2
AcDbPlotSettings
  3
"AutoCAD 2000"
 90
        1
280
       0
281
       0
  0
CLASS
  1
ACDBDICTIONARYWDFLT
  2
AcDbDictionaryWithDefault
  3
"AutoCAD 2000"
 90
        1
280
       0
281
       0
  0
CLASS
  1
ACDBPLACEHOLDER
  2
AcDbPlaceHolder
  3
"AutoCAD 2000"
 90
        1
280
       0
281
       0
  0
CLASS
  1
VBA_PROJECT
  2
AcDbVbaProject
  3
"acadvba"
 90
        1
280
       0
281
       0
  0
CLASS
  1
WIPEOUT
  2
AcDbWipeout
  3
WipeOut|AutoCAD Express Tool|expresstools@autodesk.com
 90
      127
280
       0
281
       1
  0
CLASS
  1
WIPEOUTVARIABLES
  2
AcDbWipeoutVariables
  3
WipeOut|AutoCAD Express Tool|expresstools@autodesk.com
 90
        0
280
       0
281
       0
  0
CLASS
  1
RTEXT
  2
RText
  3
RText|AutoCAD Express Tool|expresstools@autodesk.com
 90
        0
280
       0
281
       1
  0
CLASS
  1
ARCALIGNEDTEXT
  2
AcDbArcAlignedText
  3
ATEXT|AutoCAD Express Tool|expresstools@autodesk.com
 90
        0
280
       0
281
       1
  0
ENDSEC
  0
SECTION
  2
TABLES
  0
TABLE
  2
VPORT
  5
7
100
AcDbSymbolTable
 70
       1
  0
VPORT
  5
15
100
AcDbSymbolTableRecord
100
AcDbViewportTableRecord
  2
*ACTIVE
 70
       0
 10
0.0
 20
0.0
 11
1.0
 21
1.0
 12
0.0
 22
0.0
 13
0.0
 23
0.0
 14
1.0
 24
1.0
 15
0.0
 25
0.0
 16
0.0
 26
0.0
 36
1.0
 17
0.0
 27
0.0
 37
0.0
 40
612.17
 41
1.44584838
 42
50.0
 43
0.0
 44
0.0
 50
0.0
 51
0.0
 71
       0
 72
     100
 73
       1
 74
       1
 75
       0
 76
       0
 77
       0
 78
       0
  0
ENDTAB
  0
TABLE
  2
LTYPE
  5
4
100
AcDbSymbolTable
 70
      30
  0
LTYPE
  5
11
100
AcDbSymbolTableRecord
100
AcDbLinetypeTableRecord
  2
BYBLOCK
 70
      64
  3

 72
      65
 73
       0
 40
0.0
  0
LTYPE
  5
12
100
AcDbSymbolTableRecord
100
AcDbLinetypeTableRecord
  2
BYLAYER
 70
      64
  3

 72
      65
 73
       0
 40
0.0
  0
LTYPE
  5
13
100
AcDbSymbolTableRecord
100
AcDbLinetypeTableRecord
  2
CONTINUOUS
 70
      64
  3
Solid line
 72
      65
 73
       0
 40
0.0
  0
LTYPE
  5
1D
100
AcDbSymbolTableRecord
100
AcDbLinetypeTableRecord
  2
HIDDENX2
 70
      64
  3
CADPAC LINETYPE
 72
      65
 73
       2
 40
33.64
 49
25.23
 74
       0
 49
-8.41
 74
       0
  0
LTYPE
  5
1E
100
AcDbSymbolTableRecord
100
AcDbLinetypeTableRecord
  2
HIDDEN
 70
      64
  3
CADPAC LINETYPE
 72
      65
 73
       2
 40
25.23
 49
16.82
 74
       0
 49
-8.41
 74
       0
  0
LTYPE
  5
1F
100
AcDbSymbolTableRecord
100
AcDbLinetypeTableRecord
  2
HIDDEN2
 70
      64
  3
CADPAC LINETYPE
 72
      65
 73
       2
 40
21.025
 49
12.615
 74
       0
 49
-8.41
 74
       0
  0
LTYPE
  5
20
100
AcDbSymbolTableRecord
100
AcDbLinetypeTableRecord
  2
DASHED
 70
      64
  3
CADPAC LINETYPE
 72
      65
 73
       2
 40
25.23
 49
16.82
 74
       0
 49
-8.41
 74
       0
  0
LTYPE
  5
21
100
AcDbSymbolTableRecord
100
AcDbLinetypeTableRecord
  2
DASHED2
 70
      64
  3
CADPAC LINETYPE
 72
      65
 73
       2
 40
18.9225
 49
12.615
 74
       0
 49
-6.3075
 74
       0
  0
LTYPE
  5
22
100
AcDbSymbolTableRecord
100
AcDbLinetypeTableRecord
  2
DASHEDX2
 70
      64
  3
CADPAC LINETYPE
 72
      65
 73
       2
 40
37.845
 49
25.23
 74
       0
 49
-12.615
 74
       0
  0
LTYPE
  5
23
100
AcDbSymbolTableRecord
100
AcDbLinetypeTableRecord
  2
DOTX2
 70
      64
  3
CADPAC LINETYPE
 72
      65
 73
       2
 40
10.5125
 49
0.0
 74
       0
 49
-10.5125
 74
       0
  0
LTYPE
  5
24
100
AcDbSymbolTableRecord
100
AcDbLinetypeTableRecord
  2
DOT
 70
      64
  3
CADPAC LINETYPE
 72
      65
 73
       2
 40
8.41
 49
0.0
 74
       0
 49
-8.41
 74
       0
  0
LTYPE
  5
25
100
AcDbSymbolTableRecord
100
AcDbLinetypeTableRecord
  2
DOT2
 70
      64
  3
CADPAC LINETYPE
 72
      65
 73
       2
 40
6.3075
 49
0.0
 74
       0
 49
-6.3075
 74
       0
  0
LTYPE
  5
26
100
AcDbSymbolTableRecord
100
AcDbLinetypeTableRecord
  2
CENTERX2
 70
      64
  3
CADPAC LINETYPE
 72
      65
 73
       4
 40
50.46
 49
21.025
 74
       0
 49
-10.5125
 74
       0
 49
8.41
 74
       0
 49
-10.5125
 74
       0
  0
LTYPE
  5
27
100
AcDbSymbolTableRecord
100
AcDbLinetypeTableRecord
  2
CENTER
 70
      64
  3
CADPAC LINETYPE
 72
      65
 73
       4
 40
38.686
 49
16.82
 74
       0
 49
-8.41
 74
       0
 49
5.046
 74
       0
 49
-8.41
 74
       0
  0
LTYPE
  5
28
100
AcDbSymbolTableRecord
100
AcDbLinetypeTableRecord
  2
CENTER2
 70
      64
  3
CADPAC LINETYPE
 72
      65
 73
       4
 40
26.912
 49
12.615
 74
       0
 49
-6.3075
 74
       0
 49
1.682
 74
       0
 49
-6.3075
 74
       0
  0
LTYPE
  5
29
100
AcDbSymbolTableRecord
100
AcDbLinetypeTableRecord
  2
DASHDOTX2
 70
      64
  3
CADPAC LINETYPE
 72
      65
 73
       4
 40
42.05
 49
21.025
 74
       0
 49
-10.5125
 74
       0
 49
0.0
 74
       0
 49
-10.5125
 74
       0
  0
LTYPE
  5
2A
100
AcDbSymbolTableRecord
100
AcDbLinetypeTableRecord
  2
DASHDOT
 70
      64
  3
CADPAC LINETYPE
 72
      65
 73
       4
 40
33.64
 49
16.82
 74
       0
 49
-8.41
 74
       0
 49
0.0
 74
       0
 49
-8.41
 74
       0
  0
LTYPE
  5
2B
100
AcDbSymbolTableRecord
100
AcDbLinetypeTableRecord
  2
DASHDOT2
 70
      64
  3
CADPAC LINETYPE
 72
      65
 73
       4
 40
25.23
 49
12.615
 74
       0
 49
-6.3075
 74
       0
 49
0.0
 74
       0
 49
-6.3075
 74
       0
  0
LTYPE
  5
2C
100
AcDbSymbolTableRecord
100
AcDbLinetypeTableRecord
  2
DIVIDEX2
 70
      64
  3
CADPAC LINETYPE
 72
      65
 73
       6
 40
52.5625
 49
21.025
 74
       0
 49
-10.5125
 74
       0
 49
0.0
 74
       0
 49
-10.5125
 74
       0
 49
0.0
 74
       0
 49
-10.5125
 74
       0
  0
LTYPE
  5
2D
100
AcDbSymbolTableRecord
100
AcDbLinetypeTableRecord
  2
DIVIDE
 70
      64
  3
CADPAC LINETYPE
 72
      65
 73
       6
 40
42.05
 49
16.82
 74
       0
 49
-8.41
 74
       0
 49
0.0
 74
       0
 49
-8.41
 74
       0
 49
0.0
 74
       0
 49
-8.41
 74
       0
  0
LTYPE
  5
2E
100
AcDbSymbolTableRecord
100
AcDbLinetypeTableRecord
  2
DIVIDE2
 70
      64
  3
CADPAC LINETYPE
 72
      65
 73
       6
 40
31.5375
 49
12.615
 74
       0
 49
-6.3075
 74
       0
 49
0.0
 74
       0
 49
-6.3075
 74
       0
 49
0.0
 74
       0
 49
-6.3075
 74
       0
  0
LTYPE
  5
2F
100
AcDbSymbolTableRecord
100
AcDbLinetypeTableRecord
  2
BORDERX2
 70
      64
  3
CADPAC LINETYPE
 72
      65
 73
       6
 40
73.5875
 49
21.025
 74
       0
 49
-10.5125
 74
       0
 49
21.025
 74
       0
 49
-10.5125
 74
       0
 49
0.0
 74
       0
 49
-10.5125
 74
       0
  0
LTYPE
  5
30
100
AcDbSymbolTableRecord
100
AcDbLinetypeTableRecord
  2
BORDER
 70
      64
  3
CADPAC LINETYPE
 72
      65
 73
       6
 40
58.87
 49
16.82
 74
       0
 49
-8.41
 74
       0
 49
16.82
 74
       0
 49
-8.41
 74
       0
 49
0.0
 74
       0
 49
-8.41
 74
       0
  0
LTYPE
  5
31
100
AcDbSymbolTableRecord
100
AcDbLinetypeTableRecord
  2
BORDER2
 70
      64
  3
CADPAC LINETYPE
 72
      65
 73
       6
 40
44.1525
 49
12.615
 74
       0
 49
-6.3075
 74
       0
 49
12.615
 74
       0
 49
-6.3075
 74
       0
 49
0.0
 74
       0
 49
-6.3075
 74
       0
  0
LTYPE
  5
32
100
AcDbSymbolTableRecord
100
AcDbLinetypeTableRecord
  2
PHANTOMX2
 70
      64
  3
CADPAC LINETYPE
 72
      65
 73
       6
 40
63.075
 49
21.025
 74
       0
 49
-8.41
 74
       0
 49
8.41
 74
       0
 49
-8.41
 74
       0
 49
8.41
 74
       0
 49
-8.41
 74
       0
  0
LTYPE
  5
33
100
AcDbSymbolTableRecord
100
AcDbLinetypeTableRecord
  2
PHANTOM
 70
      64
  3
CADPAC LINETYPE
 72
      65
 73
       6
 40
52.142
 49
16.82
 74
       0
 49
-8.41
 74
       0
 49
5.046
 74
       0
 49
-8.41
 74
       0
 49
5.046
 74
       0
 49
-8.41
 74
       0
  0
LTYPE
  5
34
100
AcDbSymbolTableRecord
100
AcDbLinetypeTableRecord
  2
PHANTOM2
 70
      64
  3
CADPAC LINETYPE
 72
      65
 73
       6
 40
44.573
 49
12.615
 74
       0
 49
-8.41
 74
       0
 49
3.364
 74
       0
 49
-8.41
 74
       0
 49
3.364
 74
       0
 49
-8.41
 74
       0
  0
LTYPE
  5
35
100
AcDbSymbolTableRecord
100
AcDbLinetypeTableRecord
  2
ACAD_ISO06W100
 70
      64
  3
CADPAC LINETYPE
 72
      65
 73
       8
 40
56.7675
 49
21.025
 74
       0
 49
-10.5125
 74
       0
 49
0.0
 74
       0
 49
-8.41
 74
       0
 49
0.0
 74
       0
 49
-8.41
 74
       0
 49
0.0
 74
       0
 49
-8.41
 74
       0
  0
LTYPE
  5
36
100
AcDbSymbolTableRecord
100
AcDbLinetypeTableRecord
  2
ACAD_ISO13W100
 70
      64
  3
CADPAC LINETYPE
 72
      65
 73
       8
 40
67.28
 49
16.82
 74
       0
 49
-8.41
 74
       0
 49
16.82
 74
       0
 49
-8.41
 74
       0
 49
0.0
 74
       0
 49
-8.41
 74
       0
 49
0.0
 74
       0
 49
-8.41
 74
       0
  0
LTYPE
  5
37
100
AcDbSymbolTableRecord
100
AcDbLinetypeTableRecord
  2
ACAD_ISO14W100
 70
      64
  3
CADPAC LINETYPE
 72
      65
 73
       8
 40
50.46
 49
16.82
 74
       0
 49
-8.41
 74
       0
 49
0.0
 74
       0
 49
-8.41
 74
       0
 49
0.0
 74
       0
 49
-8.41
 74
       0
 49
0.0
 74
       0
 49
-8.41
 74
       0
  0
ENDTAB
  0
TABLE
  2
LAYER
  5
2
100
AcDbSymbolTable
 70
       4
  0
LAYER
  5
14
100
AcDbSymbolTableRecord
100
AcDbLayerTableRecord
  2
0
 70
       0
 62
       7
  6
CONTINUOUS
  0
LAYER
  5
38
100
AcDbSymbolTableRecord
100
AcDbLayerTableRecord
  2
D-BMK
 70
       0
 62
       7
  6
CONTINUOUS
  0
LAYER
  5
39
100
AcDbSymbolTableRecord
100
AcDbLayerTableRecord
  2
D-STR
 70
       0
 62
       7
  6
CONTINUOUS
  0
LAYER
  5
3A
100
AcDbSymbolTableRecord
100
AcDbLayerTableRecord
  2
D-STR-TXT
 70
       0
 62
       7
  6
CONTINUOUS
  0
ENDTAB
  0
TABLE
  2
STYLE
  5
3
100
AcDbSymbolTable
 70
       1
  0
STYLE
  5
17
100
AcDbSymbolTableRecord
100
AcDbTextStyleTableRecord
  2
STANDARD
 70
       0
 40
0.0
 41
1.2
 50
0.0
 71
       0
 42
3.5
  3
MS Gothic.ttf
  4

1001
ACAD
1000
MS Gothic
1071
    32786
  0
ENDTAB
  0
TABLE
  2
VIEW
  5
5
100
AcDbSymbolTable
 70
       1
  0
VIEW
  5
3B
100
AcDbSymbolTableRecord
100
AcDbViewTableRecord
  2
QQQQ
 70
       0
 40
612.17
 10
0.0
 20
0.0
 41
885.105
 11
0.0
 21
0.0
 31
1.0
 12
100.0
 22
100.0
 32
0.0
 42
50.0
 43
0.0
 44
0.0
 50
0.0
 71
       0
  0
ENDTAB
  0
TABLE
  2
UCS
  5
6
100
AcDbSymbolTable
 70
       0
  0
ENDTAB
  0
TABLE
  2
APPID
  5
8
100
AcDbSymbolTable
 70
       1
  0
APPID
  5
16
100
AcDbSymbolTableRecord
100
AcDbRegAppTableRecord
  2
ACAD
 70
       0
  0
ENDTAB
  0
TABLE
  2
DIMSTYLE
  5
9
100
AcDbSymbolTable
 70
       1
  0
DIMSTYLE
105
18
100
AcDbSymbolTableRecord
100
AcDbDimStyleTableRecord
  2
STANDARD
 70
       0
  3

  4

  5

  6

  7

 40
1.0
 41
0.18
 42
0.0625
 43
0.38
 44
0.18
 45
0.0
 46
0.0
 47
0.0
 48
0.0
 71
       0
 72
       0
 73
       1
 74
       1
 75
       0
 76
       0
 77
       0
 78
       0
140
0.18
141
0.09
142
0.0
143
25.4
144
1.0
145
0.0
146
1.0
147
0.09
170
       0
171
       2
172
       0
173
       0
174
       0
175
       0
176
       0
177
       0
178
       0
270
       2
271
       4
272
       4
273
       2
274
       2
275
       0
280
       0
281
       0
282
       0
283
       1
284
       0
285
       0
286
       0
287
       0
288
       0
340
17
  0
ENDTAB
  0
TABLE
  2
BLOCK_RECORD
  5
1
100
AcDbSymbolTable
 70
      38
  0
BLOCK_RECORD
  5
A
100
AcDbSymbolTableRecord
100
AcDbBlockTableRecord
  2
*MODEL_SPACE
  0
BLOCK_RECORD
  5
B
100
AcDbSymbolTableRecord
100
AcDbBlockTableRecord
  2
*PAPER_SPACE
  0
BLOCK_RECORD
  5
3C
100
AcDbSymbolTableRecord
100
AcDbBlockTableRecord
  2
GROUP_1
  0
BLOCK_RECORD
  5
3D
100
AcDbSymbolTableRecord
100
AcDbBlockTableRecord
  2
GROUP_2
  0
BLOCK_RECORD
  5
3E
100
AcDbSymbolTableRecord
100
AcDbBlockTableRecord
  2
GROUP_3
  0
BLOCK_RECORD
  5
3F
100
AcDbSymbolTableRecord
100
AcDbBlockTableRecord
  2
GROUP_4
  0
BLOCK_RECORD
  5
40
100
AcDbSymbolTableRecord
100
AcDbBlockTableRecord
  2
GROUP_5
  0
BLOCK_RECORD
  5
41
100
AcDbSymbolTableRecord
100
AcDbBlockTableRecord
  2
GROUP_6
  0
BLOCK_RECORD
  5
42
100
AcDbSymbolTableRecord
100
AcDbBlockTableRecord
  2
GROUP_7
  0
BLOCK_RECORD
  5
43
100
AcDbSymbolTableRecord
100
AcDbBlockTableRecord
  2
GROUP_8
  0
BLOCK_RECORD
  5
44
100
AcDbSymbolTableRecord
100
AcDbBlockTableRecord
  2
GROUP_9
  0
BLOCK_RECORD
  5
45
100
AcDbSymbolTableRecord
100
AcDbBlockTableRecord
  2
GROUP_10
  0
BLOCK_RECORD
  5
46
100
AcDbSymbolTableRecord
100
AcDbBlockTableRecord
  2
GROUP_11
  0
BLOCK_RECORD
  5
47
100
AcDbSymbolTableRecord
100
AcDbBlockTableRecord
  2
GROUP_12
  0
BLOCK_RECORD
  5
48
100
AcDbSymbolTableRecord
100
AcDbBlockTableRecord
  2
GROUP_13
  0
BLOCK_RECORD
  5
49
100
AcDbSymbolTableRecord
100
AcDbBlockTableRecord
  2
GROUP_14
  0
BLOCK_RECORD
  5
4A
100
AcDbSymbolTableRecord
100
AcDbBlockTableRecord
  2
GROUP_15
  0
BLOCK_RECORD
  5
4B
100
AcDbSymbolTableRecord
100
AcDbBlockTableRecord
  2
GROUP_16
  0
BLOCK_RECORD
  5
4C
100
AcDbSymbolTableRecord
100
AcDbBlockTableRecord
  2
GROUP_17
  0
BLOCK_RECORD
  5
4D
100
AcDbSymbolTableRecord
100
AcDbBlockTableRecord
  2
GROUP_18
  0
BLOCK_RECORD
  5
4E
100
AcDbSymbolTableRecord
100
AcDbBlockTableRecord
  2
GROUP_19
  0
BLOCK_RECORD
  5
4F
100
AcDbSymbolTableRecord
100
AcDbBlockTableRecord
  2
GROUP_20
  0
BLOCK_RECORD
  5
50
100
AcDbSymbolTableRecord
100
AcDbBlockTableRecord
  2
GROUP_21
  0
BLOCK_RECORD
  5
51
100
AcDbSymbolTableRecord
100
AcDbBlockTableRecord
  2
GROUP_22
  0
BLOCK_RECORD
  5
52
100
AcDbSymbolTableRecord
100
AcDbBlockTableRecord
  2
GROUP_23
  0
BLOCK_RECORD
  5
53
100
AcDbSymbolTableRecord
100
AcDbBlockTableRecord
  2
GROUP_24
  0
BLOCK_RECORD
  5
54
100
AcDbSymbolTableRecord
100
AcDbBlockTableRecord
  2
GROUP_25
  0
BLOCK_RECORD
  5
55
100
AcDbSymbolTableRecord
100
AcDbBlockTableRecord
  2
GROUP_26
  0
BLOCK_RECORD
  5
56
100
AcDbSymbolTableRecord
100
AcDbBlockTableRecord
  2
GROUP_27
  0
BLOCK_RECORD
  5
57
100
AcDbSymbolTableRecord
100
AcDbBlockTableRecord
  2
GROUP_28
  0
BLOCK_RECORD
  5
58
100
AcDbSymbolTableRecord
100
AcDbBlockTableRecord
  2
GROUP_29
  0
BLOCK_RECORD
  5
59
100
AcDbSymbolTableRecord
100
AcDbBlockTableRecord
  2
GROUP_30
  0
BLOCK_RECORD
  5
5A
100
AcDbSymbolTableRecord
100
AcDbBlockTableRecord
  2
GROUP_31
  0
BLOCK_RECORD
  5
5B
100
AcDbSymbolTableRecord
100
AcDbBlockTableRecord
  2
GROUP_32
  0
BLOCK_RECORD
  5
5C
100
AcDbSymbolTableRecord
100
AcDbBlockTableRecord
  2
GROUP_33
  0
BLOCK_RECORD
  5
5D
100
AcDbSymbolTableRecord
100
AcDbBlockTableRecord
  2
GROUP_34
  0
BLOCK_RECORD
  5
5E
100
AcDbSymbolTableRecord
100
AcDbBlockTableRecord
  2
GROUP_35
  0
BLOCK_RECORD
  5
5F
100
AcDbSymbolTableRecord
100
AcDbBlockTableRecord
  2
GROUP_36
  0
BLOCK_RECORD
  5
60
100
AcDbSymbolTableRecord
100
AcDbBlockTableRecord
  2
GROUP_37
  0
BLOCK_RECORD
  5
61
100
AcDbSymbolTableRecord
100
AcDbBlockTableRecord
  2
GROUP_38
  0
ENDTAB
  0
ENDSEC
  0
SECTION
  2
BLOCKS
  0
BLOCK
  5
D
100
AcDbEntity
  8
0
100
AcDbBlockBegin
  2
*MODEL_SPACE
 70
       0
 10
0.0
 20
0.0
 30
0.0
  3
*MODEL_SPACE
  1

  0
ENDBLK
  5
E
100
AcDbEntity
  8
0
100
AcDbBlockEnd
  0
BLOCK
  5
F
100
AcDbEntity
 67
       1
  8
0
100
AcDbBlockBegin
  2
*PAPER_SPACE
 70
       0
 10
0.0
 20
0.0
 30
0.0
  3
*PAPER_SPACE
  1

  0
ENDBLK
  5
10
100
AcDbEntity
 67
       1
  8
0
100
AcDbBlockEnd
  0
BLOCK
  5
62
100
AcDbEntity
  8
0
100
AcDbBlockBegin
  2
GROUP_1
 70
       0
 10
0.0
 20
0.0
 30
0.0
  3
GROUP_1
  1

  0
CIRCLE
  5
63
100
AcDbEntity
  8
D-STR
  6
CONTINUOUS
 62
       1
100
AcDbCircle
 10
-398.65247914
 20
-190.55
 30
0.0
 40
1.6
  0
LINE
  5
64
100
AcDbEntity
  8
D-STR
  6
CONTINUOUS
 62
       1
100
AcDbLine
 10
-399.57623957
 20
-188.95
 30
0.0
 11
-397.72871871
 21
-188.95
 31
0.0
  0
LINE
  5
65
100
AcDbEntity
  8
D-STR
  6
CONTINUOUS
 62
       1
100
AcDbLine
 10
-400.5
 20
-190.55
 30
0.0
 11
-399.57623957
 21
-188.95
 31
0.0
  0
LINE
  5
66
100
AcDbEntity
  8
D-STR
  6
CONTINUOUS
 62
       1
100
AcDbLine
 10
-399.57623957
 20
-192.15
 30
0.0
 11
-400.5
 21
-190.55
 31
0.0
  0
LINE
  5
67
100
AcDbEntity
  8
D-STR
  6
CONTINUOUS
 62
       1
100
AcDbLine
 10
-397.72871871
 20
-192.15
 30
0.0
 11
-399.57623957
 21
-192.15
 31
0.0
  0
LINE
  5
68
100
AcDbEntity
  8
D-STR
  6
CONTINUOUS
 62
       1
100
AcDbLine
 10
-396.80495828
 20
-190.55
 30
0.0
 11
-397.72871871
 21
-192.15
 31
0.0
  0
LINE
  5
69
100
AcDbEntity
  8
D-STR
  6
CONTINUOUS
 62
       1
100
AcDbLine
 10
-397.72871871
 20
-188.95
 30
0.0
 11
-396.80495828
 21
-190.55
 31
0.0
  0
LINE
  5
6A
100
AcDbEntity
  8
D-BMK
  6
CENTER
 62
       2
100
AcDbLine
 10
-400.5
 20
-190.55
 30
0.0
 11
-396.80495828
 21
-190.55
 31
0.0
  0
LINE
  5
6B
100
AcDbEntity
  8
D-BMK
  6
CENTER
 62
       2
100
AcDbLine
 10
-398.65247914
 20
-192.15
 30
0.0
 11
-398.65247914
 21
-188.95
 31
0.0
  0
ENDBLK
  5
6C
100
AcDbEntity
  8
0
100
AcDbBlockEnd
  0
BLOCK
  5
6D
100
AcDbEntity
  8
0
100
AcDbBlockBegin
  2
GROUP_2
 70
       0
 10
0.0
 20
0.0
 30
0.0
  3
GROUP_2
  1

  0
CIRCLE
  5
6E
100
AcDbEntity
  8
D-STR
  6
CONTINUOUS
 62
       1
100
AcDbCircle
 10
-392.18615612
 20
-189.05
 30
0.0
 40
2.0
  0
LINE
  5
6F
100
AcDbEntity
  8
D-STR
  6
CONTINUOUS
 62
       1
100
AcDbLine
 10
-393.34085666
 20
-187.05
 30
0.0
 11
-391.03145559
 21
-187.05
 31
0.0
  0
LINE
  5
70
100
AcDbEntity
  8
D-STR
  6
CONTINUOUS
 62
       1
100
AcDbLine
 10
-394.4955572
 20
-189.05
 30
0.0
 11
-393.34085666
 21
-187.05
 31
0.0
  0
LINE
  5
71
100
AcDbEntity
  8
D-STR
  6
CONTINUOUS
 62
       1
100
AcDbLine
 10
-393.34085666
 20
-191.05
 30
0.0
 11
-394.4955572
 21
-189.05
 31
0.0
  0
LINE
  5
72
100
AcDbEntity
  8
D-STR
  6
CONTINUOUS
 62
       1
100
AcDbLine
 10
-391.03145559
 20
-191.05
 30
0.0
 11
-393.34085666
 21
-191.05
 31
0.0
  0
LINE
  5
73
100
AcDbEntity
  8
D-STR
  6
CONTINUOUS
 62
       1
100
AcDbLine
 10
-389.87675505
 20
-189.05
 30
0.0
 11
-391.03145559
 21
-191.05
 31
0.0
  0
LINE
  5
74
100
AcDbEntity
  8
D-STR
  6
CONTINUOUS
 62
       1
100
AcDbLine
 10
-391.03145559
 20
-187.05
 30
0.0
 11
-389.87675505
 21
-189.05
 31
0.0
  0
LINE
  5
75
100
AcDbEntity
  8
D-BMK
  6
CENTER
 62
       2
100
AcDbLine
 10
-394.4955572
 20
-189.05
 30
0.0
 11
-389.87675505
 21
-189.05
 31
0.0
  0
LINE
  5
76
100
AcDbEntity
  8
D-BMK
  6
CENTER
 62
       2
100
AcDbLine
 10
-392.18615612
 20
-191.05
 30
0.0
 11
-392.18615612
 21
-187.05
 31
0.0
  0
ENDBLK
  5
77
100
AcDbEntity
  8
0
100
AcDbBlockEnd
  0
BLOCK
  5
78
100
AcDbEntity
  8
0
100
AcDbBlockBegin
  2
GROUP_3
 70
       0
 10
0.0
 20
0.0
 30
0.0
  3
GROUP_3
  1

  0
CIRCLE
  5
79
100
AcDbEntity
  8
D-STR
  6
CONTINUOUS
 62
       1
100
AcDbCircle
 10
-384.10325236
 20
-187.25
 30
0.0
 40
2.5
  0
LINE
  5
7A
100
AcDbEntity
  8
D-STR
  6
CONTINUOUS
 62
       1
100
AcDbLine
 10
-385.54662803
 20
-184.75
 30
0.0
 11
-382.65987668
 21
-184.75
 31
0.0
  0
LINE
  5
7B
100
AcDbEntity
  8
D-STR
  6
CONTINUOUS
 62
       1
100
AcDbLine
 10
-386.9900037
 20
-187.25
 30
0.0
 11
-385.54662803
 21
-184.75
 31
0.0
  0
LINE
  5
7C
100
AcDbEntity
  8
D-STR
  6
CONTINUOUS
 62
       1
100
AcDbLine
 10
-385.54662803
 20
-189.75
 30
0.0
 11
-386.9900037
 21
-187.25
 31
0.0
  0
LINE
  5
7D
100
AcDbEntity
  8
D-STR
  6
CONTINUOUS
 62
       1
100
AcDbLine
 10
-382.65987668
 20
-189.75
 30
0.0
 11
-385.54662803
 21
-189.75
 31
0.0
  0
LINE
  5
7E
100
AcDbEntity
  8
D-STR
  6
CONTINUOUS
 62
       1
100
AcDbLine
 10
-381.21650101
 20
-187.25
 30
0.0
 11
-382.65987668
 21
-189.75
 31
0.0
  0
LINE
  5
7F
100
AcDbEntity
  8
D-STR
  6
CONTINUOUS
 62
       1
100
AcDbLine
 10
-382.65987668
 20
-184.75
 30
0.0
 11
-381.21650101
 21
-187.25
 31
0.0
  0
LINE
  5
80
100
AcDbEntity
  8
D-BMK
  6
CENTER
 62
       2
100
AcDbLine
 10
-386.9900037
 20
-187.25
 30
0.0
 11
-381.21650101
 21
-187.25
 31
0.0
  0
LINE
  5
81
100
AcDbEntity
  8
D-BMK
  6
CENTER
 62
       2
100
AcDbLine
 10
-384.10325236
 20
-189.75
 30
0.0
 11
-384.10325236
 21
-184.75
 31
0.0
  0
ENDBLK
  5
82
100
AcDbEntity
  8
0
100
AcDbBlockEnd
  0
BLOCK
  5
83
100
AcDbEntity
  8
0
100
AcDbBlockBegin
  2
GROUP_4
 70
       0
 10
0.0
 20
0.0
 30
0.0
  3
GROUP_4
  1

  0
CIRCLE
  5
84
100
AcDbEntity
  8
D-STR
  6
CONTINUOUS
 62
       1
100
AcDbCircle
 10
-374.86564805
 20
-186.35
 30
0.0
 40
2.75
  0
LINE
  5
85
100
AcDbEntity
  8
D-STR
  6
CONTINUOUS
 62
       1
100
AcDbLine
 10
-376.45336129
 20
-183.6
 30
0.0
 11
-373.27793481
 21
-183.6
 31
0.0
  0
LINE
  5
86
100
AcDbEntity
  8
D-STR
  6
CONTINUOUS
 62
       1
100
AcDbLine
 10
-378.04107453
 20
-186.35
 30
0.0
 11
-376.45336129
 21
-183.6
 31
0.0
  0
LINE
  5
87
100
AcDbEntity
  8
D-STR
  6
CONTINUOUS
 62
       1
100
AcDbLine
 10
-376.45336129
 20
-189.1
 30
0.0
 11
-378.04107453
 21
-186.35
 31
0.0
  0
LINE
  5
88
100
AcDbEntity
  8
D-STR
  6
CONTINUOUS
 62
       1
100
AcDbLine
 10
-373.27793481
 20
-189.1
 30
0.0
 11
-376.45336129
 21
-189.1
 31
0.0
  0
LINE
  5
89
100
AcDbEntity
  8
D-STR
  6
CONTINUOUS
 62
       1
100
AcDbLine
 10
-371.69022157
 20
-186.35
 30
0.0
 11
-373.27793481
 21
-189.1
 31
0.0
  0
LINE
  5
8A
100
AcDbEntity
  8
D-STR
  6
CONTINUOUS
 62
       1
100
AcDbLine
 10
-373.27793481
 20
-183.6
 30
0.0
 11
-371.69022157
 21
-186.35
 31
0.0
  0
LINE
  5
8B
100
AcDbEntity
  8
D-BMK
  6
CENTER
 62
       2
100
AcDbLine
 10
-374.86564805
 20
-189.1
 30
0.0
 11
-374.86564805
 21
-183.6
 31
0.0
  0
LINE
  5
8C
100
AcDbEntity
  8
D-BMK
  6
CENTER
 62
       2
100
AcDbLine
 10
-378.04107453
 20
-186.35
 30
0.0
 11
-371.69022157
 21
-186.35
 31
0.0
  0
ENDBLK
  5
8D
100
AcDbEntity
  8
0
100
AcDbBlockEnd
  0
BLOCK
  5
8E
100
AcDbEntity
  8
0
100
AcDbBlockBegin
  2
GROUP_5
 70
       0
 10
0.0
 20
0.0
 30
0.0
  3
GROUP_5
  1

  0
CIRCLE
  5
8F
100
AcDbEntity
  8
D-STR
  6
CONTINUOUS
 62
       1
100
AcDbCircle
 10
-363.6073178
 20
-183.3
 30
0.0
 40
3.5
  0
LINE
  5
90
100
AcDbEntity
  8
D-STR
  6
CONTINUOUS
 62
       1
100
AcDbLine
 10
-365.62804374
 20
-179.8
 30
0.0
 11
-361.58659186
 21
-179.8
 31
0.0
  0
LINE
  5
91
100
AcDbEntity
  8
D-STR
  6
CONTINUOUS
 62
       1
100
AcDbLine
 10
-367.64876968
 20
-183.3
 30
0.0
 11
-365.62804374
 21
-179.8
 31
0.0
  0
LINE
  5
92
100
AcDbEntity
  8
D-STR
  6
CONTINUOUS
 62
       1
100
AcDbLine
 10
-365.62804374
 20
-186.8
 30
0.0
 11
-367.64876968
 21
-183.3
 31
0.0
  0
LINE
  5
93
100
AcDbEntity
  8
D-STR
  6
CONTINUOUS
 62
       1
100
AcDbLine
 10
-361.58659186
 20
-186.8
 30
0.0
 11
-365.62804374
 21
-186.8
 31
0.0
  0
LINE
  5
94
100
AcDbEntity
  8
D-STR
  6
CONTINUOUS
 62
       1
100
AcDbLine
 10
-359.56586591
 20
-183.3
 30
0.0
 11
-361.58659186
 21
-186.8
 31
0.0
  0
LINE
  5
95
100
AcDbEntity
  8
D-STR
  6
CONTINUOUS
 62
       1
100
AcDbLine
 10
-361.58659186
 20
-179.8
 30
0.0
 11
-359.56586591
 21
-183.3
 31
0.0
  0
LINE
  5
96
100
AcDbEntity
  8
D-BMK
  6
CENTER
 62
       2
100
AcDbLine
 10
-363.6073178
 20
-186.8
 30
0.0
 11
-363.6073178
 21
-179.8
 31
0.0
  0
LINE
  5
97
100
AcDbEntity
  8
D-BMK
  6
CENTER
 62
       2
100
AcDbLine
 10
-367.64876968
 20
-183.3
 30
0.0
 11
-359.56586591
 21
-183.3
 31
0.0
  0
ENDBLK
  5
98
100
AcDbEntity
  8
0
100
AcDbBlockEnd
  0
BLOCK
  5
99
100
AcDbEntity
  8
0
100
AcDbBlockBegin
  2
GROUP_6
 70
       0
 10
0.0
 20
0.0
 30
0.0
  3
GROUP_6
  1

  0
CIRCLE
  5
9A
100
AcDbEntity
  8
D-STR
  6
CONTINUOUS
 62
       1
100
AcDbCircle
 10
-350.32826161
 20
-181.2
 30
0.0
 40
4.0
  0
LINE
  5
9B
100
AcDbEntity
  8
D-STR
  6
CONTINUOUS
 62
       1
100
AcDbLine
 10
-352.63766268
 20
-177.2
 30
0.0
 11
-348.01886053
 21
-177.2
 31
0.0
  0
LINE
  5
9C
100
AcDbEntity
  8
D-STR
  6
CONTINUOUS
 62
       1
100
AcDbLine
 10
-354.94706376
 20
-181.2
 30
0.0
 11
-352.63766268
 21
-177.2
 31
0.0
  0
LINE
  5
9D
100
AcDbEntity
  8
D-STR
  6
CONTINUOUS
 62
       1
100
AcDbLine
 10
-352.63766268
 20
-185.2
 30
0.0
 11
-354.94706376
 21
-181.2
 31
0.0
  0
LINE
  5
9E
100
AcDbEntity
  8
D-STR
  6
CONTINUOUS
 62
       1
100
AcDbLine
 10
-348.01886053
 20
-185.2
 30
0.0
 11
-352.63766268
 21
-185.2
 31
0.0
  0
LINE
  5
9F
100
AcDbEntity
  8
D-STR
  6
CONTINUOUS
 62
       1
100
AcDbLine
 10
-345.70945945
 20
-181.2
 30
0.0
 11
-348.01886053
 21
-185.2
 31
0.0
  0
LINE
  5
A0
100
AcDbEntity
  8
D-STR
  6
CONTINUOUS
 62
       1
100
AcDbLine
 10
-348.01886053
 20
-177.2
 30
0.0
 11
-345.70945945
 21
-181.2
 31
0.0
  0
LINE
  5
A1
100
AcDbEntity
  8
D-BMK
  6
CENTER
 62
       2
100
AcDbLine
 10
-354.94706376
 20
-181.2
 30
0.0
 11
-345.70945945
 21
-181.2
 31
0.0
  0
LINE
  5
A2
100
AcDbEntity
  8
D-BMK
  6
CENTER
 62
       2
100
AcDbLine
 10
-350.32826161
 20
-185.2
 30
0.0
 11
-350.32826161
 21
-177.2
 31
0.0
  0
ENDBLK
  5
A3
100
AcDbEntity
  8
0
100
AcDbBlockEnd
  0
BLOCK
  5
A4
100
AcDbEntity
  8
0
100
AcDbBlockBegin
  2
GROUP_7
 70
       0
 10
0.0
 20
0.0
 30
0.0
  3
GROUP_7
  1

  0
CIRCLE
  5
A5
100
AcDbEntity
  8
D-STR
  6
CONTINUOUS
 62
       1
100
AcDbCircle
 10
-334.16245407
 20
-177.7
 30
0.0
 40
5.0
  0
LINE
  5
A6
100
AcDbEntity
  8
D-STR
  6
CONTINUOUS
 62
       1
100
AcDbLine
 10
-337.04920542
 20
-172.7
 30
0.0
 11
-331.27570272
 21
-172.7
 31
0.0
  0
LINE
  5
A7
100
AcDbEntity
  8
D-STR
  6
CONTINUOUS
 62
       1
100
AcDbLine
 10
-339.93595676
 20
-177.7
 30
0.0
 11
-337.04920542
 21
-172.7
 31
0.0
  0
LINE
  5
A8
100
AcDbEntity
  8
D-STR
  6
CONTINUOUS
 62
       1
100
AcDbLine
 10
-337.04920542
 20
-182.7
 30
0.0
 11
-339.93595676
 21
-177.7
 31
0.0
  0
LINE
  5
A9
100
AcDbEntity
  8
D-STR
  6
CONTINUOUS
 62
       1
100
AcDbLine
 10
-331.27570272
 20
-182.7
 30
0.0
 11
-337.04920542
 21
-182.7
 31
0.0
  0
LINE
  5
AA
100
AcDbEntity
  8
D-STR
  6
CONTINUOUS
 62
       1
100
AcDbLine
 10
-328.38895138
 20
-177.7
 30
0.0
 11
-331.27570272
 21
-182.7
 31
0.0
  0
LINE
  5
AB
100
AcDbEntity
  8
D-STR
  6
CONTINUOUS
 62
       1
100
AcDbLine
 10
-331.27570272
 20
-172.7
 30
0.0
 11
-328.38895138
 21
-177.7
 31
0.0
  0
LINE
  5
AC
100
AcDbEntity
  8
D-BMK
  6
CENTER
 62
       2
100
AcDbLine
 10
-339.93595676
 20
-177.7
 30
0.0
 11
-328.38895138
 21
-177.7
 31
0.0
  0
LINE
  5
AD
100
AcDbEntity
  8
D-BMK
  6
CENTER
 62
       2
100
AcDbLine
 10
-334.16245407
 20
-182.7
 30
0.0
 11
-334.16245407
 21
-172.7
 31
0.0
  0
ENDBLK
  5
AE
100
AcDbEntity
  8
0
100
AcDbBlockEnd
  0
BLOCK
  5
AF
100
AcDbEntity
  8
0
100
AcDbBlockBegin
  2
GROUP_8
 70
       0
 10
0.0
 20
0.0
 30
0.0
  3
GROUP_8
  1

  0
CIRCLE
  5
B0
100
AcDbEntity
  8
D-STR
  6
CONTINUOUS
 62
       1
100
AcDbCircle
 10
-313.37784438
 20
-172.0
 30
0.0
 40
6.5
  0
LINE
  5
B1
100
AcDbEntity
  8
D-STR
  6
CONTINUOUS
 62
       1
100
AcDbLine
 10
-317.13062113
 20
-165.5
 30
0.0
 11
-309.62506763
 21
-165.5
 31
0.0
  0
LINE
  5
B2
100
AcDbEntity
  8
D-STR
  6
CONTINUOUS
 62
       1
100
AcDbLine
 10
-320.88339788
 20
-172.0
 30
0.0
 11
-317.13062113
 21
-165.5
 31
0.0
  0
LINE
  5
B3
100
AcDbEntity
  8
D-STR
  6
CONTINUOUS
 62
       1
100
AcDbLine
 10
-317.13062113
 20
-178.5
 30
0.0
 11
-320.88339788
 21
-172.0
 31
0.0
  0
LINE
  5
B4
100
AcDbEntity
  8
D-STR
  6
CONTINUOUS
 62
       1
100
AcDbLine
 10
-309.62506763
 20
-178.5
 30
0.0
 11
-317.13062113
 21
-178.5
 31
0.0
  0
LINE
  5
B5
100
AcDbEntity
  8
D-STR
  6
CONTINUOUS
 62
       1
100
AcDbLine
 10
-305.87229088
 20
-172.0
 30
0.0
 11
-309.62506763
 21
-178.5
 31
0.0
  0
LINE
  5
B6
100
AcDbEntity
  8
D-STR
  6
CONTINUOUS
 62
       1
100
AcDbLine
 10
-309.62506763
 20
-165.5
 30
0.0
 11
-305.87229088
 21
-172.0
 31
0.0
  0
LINE
  5
B7
100
AcDbEntity
  8
D-BMK
  6
CENTER
 62
       2
100
AcDbLine
 10
-320.88339788
 20
-172.0
 30
0.0
 11
-305.87229088
 21
-172.0
 31
0.0
  0
LINE
  5
B8
100
AcDbEntity
  8
D-BMK
  6
CENTER
 62
       2
100
AcDbLine
 10
-313.37784438
 20
-178.5
 30
0.0
 11
-313.37784438
 21
-165.5
 31
0.0
  0
ENDBLK
  5
B9
100
AcDbEntity
  8
0
100
AcDbBlockEnd
  0
BLOCK
  5
BA
100
AcDbEntity
  8
0
100
AcDbBlockBegin
  2
GROUP_9
 70
       0
 10
0.0
 20
0.0
 30
0.0
  3
GROUP_9
  1

  0
CIRCLE
  5
BB
100
AcDbEntity
  8
D-STR
  6
CONTINUOUS
 62
       1
100
AcDbCircle
 10
-287.39708227
 20
-166.4
 30
0.0
 40
8.0
  0
LINE
  5
BC
100
AcDbEntity
  8
D-STR
  6
CONTINUOUS
 62
       1
100
AcDbLine
 10
-292.01588442
 20
-158.4
 30
0.0
 11
-282.77828011
 21
-158.4
 31
0.0
  0
LINE
  5
BD
100
AcDbEntity
  8
D-STR
  6
CONTINUOUS
 62
       1
100
AcDbLine
 10
-296.63468657
 20
-166.4
 30
0.0
 11
-292.01588442
 21
-158.4
 31
0.0
  0
LINE
  5
BE
100
AcDbEntity
  8
D-STR
  6
CONTINUOUS
 62
       1
100
AcDbLine
 10
-292.01588442
 20
-174.4
 30
0.0
 11
-296.63468657
 21
-166.4
 31
0.0
  0
LINE
  5
BF
100
AcDbEntity
  8
D-STR
  6
CONTINUOUS
 62
       1
100
AcDbLine
 10
-282.77828011
 20
-174.4
 30
0.0
 11
-292.01588442
 21
-174.4
 31
0.0
  0
LINE
  5
C0
100
AcDbEntity
  8
D-STR
  6
CONTINUOUS
 62
       1
100
AcDbLine
 10
-278.15947796
 20
-166.4
 30
0.0
 11
-282.77828011
 21
-174.4
 31
0.0
  0
LINE
  5
C1
100
AcDbEntity
  8
D-STR
  6
CONTINUOUS
 62
       1
100
AcDbLine
 10
-282.77828011
 20
-158.4
 30
0.0
 11
-278.15947796
 21
-166.4
 31
0.0
  0
LINE
  5
C2
100
AcDbEntity
  8
D-BMK
  6
CENTER
 62
       2
100
AcDbLine
 10
-296.63468657
 20
-166.4
 30
0.0
 11
-278.15947796
 21
-166.4
 31
0.0
  0
LINE
  5
C3
100
AcDbEntity
  8
D-BMK
  6
CENTER
 62
       2
100
AcDbLine
 10
-287.39708227
 20
-174.4
 30
0.0
 11
-287.39708227
 21
-158.4
 31
0.0
  0
ENDBLK
  5
C4
100
AcDbEntity
  8
0
100
AcDbBlockEnd
  0
BLOCK
  5
C5
100
AcDbEntity
  8
0
100
AcDbBlockBegin
  2
GROUP_10
 70
       0
 10
0.0
 20
0.0
 30
0.0
  3
GROUP_10
  1

  0
CIRCLE
  5
C6
100
AcDbEntity
  8
D-STR
  6
CONTINUOUS
 62
       1
100
AcDbCircle
 10
-257.37486827
 20
-162.3
 30
0.0
 40
9.0
  0
LINE
  5
C7
100
AcDbEntity
  8
D-STR
  6
CONTINUOUS
 62
       1
100
AcDbLine
 10
-262.57102069
 20
-153.3
 30
0.0
 11
-252.17871585
 21
-153.3
 31
0.0
  0
LINE
  5
C8
100
AcDbEntity
  8
D-STR
  6
CONTINUOUS
 62
       1
100
AcDbLine
 10
-267.76717311
 20
-162.3
 30
0.0
 11
-262.57102069
 21
-153.3
 31
0.0
  0
LINE
  5
C9
100
AcDbEntity
  8
D-STR
  6
CONTINUOUS
 62
       1
100
AcDbLine
 10
-262.57102069
 20
-171.3
 30
0.0
 11
-267.76717311
 21
-162.3
 31
0.0
  0
LINE
  5
CA
100
AcDbEntity
  8
D-STR
  6
CONTINUOUS
 62
       1
100
AcDbLine
 10
-252.17871585
 20
-171.3
 30
0.0
 11
-262.57102069
 21
-171.3
 31
0.0
  0
LINE
  5
CB
100
AcDbEntity
  8
D-STR
  6
CONTINUOUS
 62
       1
100
AcDbLine
 10
-246.98256342
 20
-162.3
 30
0.0
 11
-252.17871585
 21
-171.3
 31
0.0
  0
LINE
  5
CC
100
AcDbEntity
  8
D-STR
  6
CONTINUOUS
 62
       1
100
AcDbLine
 10
-252.17871585
 20
-153.3
 30
0.0
 11
-246.98256342
 21
-162.3
 31
0.0
  0
LINE
  5
CD
100
AcDbEntity
  8
D-BMK
  6
CENTER
 62
       2
100
AcDbLine
 10
-267.76717311
 20
-162.3
 30
0.0
 11
-246.98256342
 21
-162.3
 31
0.0
  0
LINE
  5
CE
100
AcDbEntity
  8
D-BMK
  6
CENTER
 62
       2
100
AcDbLine
 10
-257.37486827
 20
-171.3
 30
0.0
 11
-257.37486827
 21
-153.3
 31
0.0
  0
ENDBLK
  5
CF
100
AcDbEntity
  8
0
100
AcDbBlockEnd
  0
BLOCK
  5
D0
100
AcDbEntity
  8
0
100
AcDbBlockBegin
  2
GROUP_11
 70
       0
 10
0.0
 20
0.0
 30
0.0
  3
GROUP_11
  1

  0
CIRCLE
  5
D1
100
AcDbEntity
  8
D-STR
  6
CONTINUOUS
 62
       1
100
AcDbCircle
 10
-219.2697505
 20
-151.0
 30
0.0
 40
12.0
  0
LINE
  5
D2
100
AcDbEntity
  8
D-STR
  6
CONTINUOUS
 62
       1
100
AcDbLine
 10
-226.19795373
 20
-139.0
 30
0.0
 11
-212.34154727
 21
-139.0
 31
0.0
  0
LINE
  5
D3
100
AcDbEntity
  8
D-STR
  6
CONTINUOUS
 62
       1
100
AcDbLine
 10
-233.12615696
 20
-151.0
 30
0.0
 11
-226.19795373
 21
-139.0
 31
0.0
  0
LINE
  5
D4
100
AcDbEntity
  8
D-STR
  6
CONTINUOUS
 62
       1
100
AcDbLine
 10
-226.19795373
 20
-163.0
 30
0.0
 11
-233.12615696
 21
-151.0
 31
0.0
  0
LINE
  5
D5
100
AcDbEntity
  8
D-STR
  6
CONTINUOUS
 62
       1
100
AcDbLine
 10
-212.34154727
 20
-163.0
 30
0.0
 11
-226.19795373
 21
-163.0
 31
0.0
  0
LINE
  5
D6
100
AcDbEntity
  8
D-STR
  6
CONTINUOUS
 62
       1
100
AcDbLine
 10
-205.41334404
 20
-151.0
 30
0.0
 11
-212.34154727
 21
-163.0
 31
0.0
  0
LINE
  5
D7
100
AcDbEntity
  8
D-STR
  6
CONTINUOUS
 62
       1
100
AcDbLine
 10
-212.34154727
 20
-139.0
 30
0.0
 11
-205.41334404
 21
-151.0
 31
0.0
  0
LINE
  5
D8
100
AcDbEntity
  8
D-BMK
  6
CENTER
 62
       2
100
AcDbLine
 10
-233.12615696
 20
-151.0
 30
0.0
 11
-205.41334404
 21
-151.0
 31
0.0
  0
LINE
  5
D9
100
AcDbEntity
  8
D-BMK
  6
CENTER
 62
       2
100
AcDbLine
 10
-219.2697505
 20
-163.0
 30
0.0
 11
-219.2697505
 21
-139.0
 31
0.0
  0
ENDBLK
  5
DA
100
AcDbEntity
  8
0
100
AcDbBlockEnd
  0
BLOCK
  5
DB
100
AcDbEntity
  8
0
100
AcDbBlockBegin
  2
GROUP_12
 70
       0
 10
0.0
 20
0.0
 30
0.0
  3
GROUP_12
  1

  0
CIRCLE
  5
DC
100
AcDbEntity
  8
D-STR
  6
CONTINUOUS
 62
       1
100
AcDbCircle
 10
-170.77232789
 20
-139.5
 30
0.0
 40
15.0
  0
LINE
  5
DD
100
AcDbEntity
  8
D-STR
  6
CONTINUOUS
 62
       1
100
AcDbLine
 10
-179.43258193
 20
-124.5
 30
0.0
 11
-162.11207385
 21
-124.5
 31
0.0
  0
LINE
  5
DE
100
AcDbEntity
  8
D-STR
  6
CONTINUOUS
 62
       1
100
AcDbLine
 10
-188.09283597
 20
-139.5
 30
0.0
 11
-179.43258193
 21
-124.5
 31
0.0
  0
LINE
  5
DF
100
AcDbEntity
  8
D-STR
  6
CONTINUOUS
 62
       1
100
AcDbLine
 10
-179.43258193
 20
-154.5
 30
0.0
 11
-188.09283597
 21
-139.5
 31
0.0
  0
LINE
  5
E0
100
AcDbEntity
  8
D-STR
  6
CONTINUOUS
 62
       1
100
AcDbLine
 10
-162.11207385
 20
-154.5
 30
0.0
 11
-179.43258193
 21
-154.5
 31
0.0
  0
LINE
  5
E1
100
AcDbEntity
  8
D-STR
  6
CONTINUOUS
 62
       1
100
AcDbLine
 10
-153.45181981
 20
-139.5
 30
0.0
 11
-162.11207385
 21
-154.5
 31
0.0
  0
LINE
  5
E2
100
AcDbEntity
  8
D-STR
  6
CONTINUOUS
 62
       1
100
AcDbLine
 10
-162.11207385
 20
-124.5
 30
0.0
 11
-153.45181981
 21
-139.5
 31
0.0
  0
LINE
  5
E3
100
AcDbEntity
  8
D-BMK
  6
CENTER
 62
       2
100
AcDbLine
 10
-188.09283597
 20
-139.5
 30
0.0
 11
-153.45181981
 21
-139.5
 31
0.0
  0
LINE
  5
E4
100
AcDbEntity
  8
D-BMK
  6
CENTER
 62
       2
100
AcDbLine
 10
-170.77232789
 20
-154.5
 30
0.0
 11
-170.77232789
 21
-124.5
 31
0.0
  0
ENDBLK
  5
E5
100
AcDbEntity
  8
0
100
AcDbBlockEnd
  0
BLOCK
  5
E6
100
AcDbEntity
  8
0
100
AcDbBlockBegin
  2
GROUP_13
 70
       0
 10
0.0
 20
0.0
 30
0.0
  3
GROUP_13
  1

  0
CIRCLE
  5
E7
100
AcDbEntity
  8
D-STR
  6
CONTINUOUS
 62
       1
100
AcDbCircle
 10
-349.47799968
 20
116.2
 30
0.0
 40
18.0
  0
LINE
  5
E8
100
AcDbEntity
  8
D-STR
  6
CONTINUOUS
 62
       1
100
AcDbLine
 10
-359.87030452
 20
134.2
 30
0.0
 11
-339.08569483
 21
134.2
 31
0.0
  0
LINE
  5
E9
100
AcDbEntity
  8
D-STR
  6
CONTINUOUS
 62
       1
100
AcDbLine
 10
-370.26260937
 20
116.2
 30
0.0
 11
-359.87030452
 21
134.2
 31
0.0
  0
LINE
  5
EA
100
AcDbEntity
  8
D-STR
  6
CONTINUOUS
 62
       1
100
AcDbLine
 10
-359.87030452
 20
98.2
 30
0.0
 11
-370.26260937
 21
116.2
 31
0.0
  0
LINE
  5
EB
100
AcDbEntity
  8
D-STR
  6
CONTINUOUS
 62
       1
100
AcDbLine
 10
-339.08569483
 20
98.2
 30
0.0
 11
-359.87030452
 21
98.2
 31
0.0
  0
LINE
  5
EC
100
AcDbEntity
  8
D-STR
  6
CONTINUOUS
 62
       1
100
AcDbLine
 10
-328.69338999
 20
116.2
 30
0.0
 11
-339.08569483
 21
98.2
 31
0.0
  0
LINE
  5
ED
100
AcDbEntity
  8
D-STR
  6
CONTINUOUS
 62
       1
100
AcDbLine
 10
-339.08569483
 20
134.2
 30
0.0
 11
-328.69338999
 21
116.2
 31
0.0
  0
LINE
  5
EE
100
AcDbEntity
  8
D-BMK
  6
CENTER
 62
       2
100
AcDbLine
 10
-370.26260937
 20
116.2
 30
0.0
 11
-328.69338999
 21
116.2
 31
0.0
  0
LINE
  5
EF
100
AcDbEntity
  8
D-BMK
  6
CENTER
 62
       2
100
AcDbLine
 10
-349.47799968
 20
98.2
 30
0.0
 11
-349.47799968
 21
134.2
 31
0.0
  0
ENDBLK
  5
F0
100
AcDbEntity
  8
0
100
AcDbBlockEnd
  0
BLOCK
  5
F1
100
AcDbEntity
  8
0
100
AcDbBlockBegin
  2
GROUP_14
 70
       0
 10
0.0
 20
0.0
 30
0.0
  3
GROUP_14
  1

  0
CIRCLE
  5
F2
100
AcDbEntity
  8
D-STR
  6
CONTINUOUS
 62
       1
100
AcDbCircle
 10
-275.57716522
 20
134.9
 30
0.0
 40
23.0
  0
LINE
  5
F3
100
AcDbEntity
  8
D-STR
  6
CONTINUOUS
 62
       1
100
AcDbLine
 10
-288.85622141
 20
157.9
 30
0.0
 11
-262.29810903
 21
157.9
 31
0.0
  0
LINE
  5
F4
100
AcDbEntity
  8
D-STR
  6
CONTINUOUS
 62
       1
100
AcDbLine
 10
-302.1352776
 20
134.9
 30
0.0
 11
-288.85622141
 21
157.9
 31
0.0
  0
LINE
  5
F5
100
AcDbEntity
  8
D-STR
  6
CONTINUOUS
 62
       1
100
AcDbLine
 10
-288.85622141
 20
111.9
 30
0.0
 11
-302.1352776
 21
134.9
 31
0.0
  0
LINE
  5
F6
100
AcDbEntity
  8
D-STR
  6
CONTINUOUS
 62
       1
100
AcDbLine
 10
-262.29810903
 20
111.9
 30
0.0
 11
-288.85622141
 21
111.9
 31
0.0
  0
LINE
  5
F7
100
AcDbEntity
  8
D-STR
  6
CONTINUOUS
 62
       1
100
AcDbLine
 10
-249.01905284
 20
134.9
 30
0.0
 11
-262.29810903
 21
111.9
 31
0.0
  0
LINE
  5
F8
100
AcDbEntity
  8
D-STR
  6
CONTINUOUS
 62
       1
100
AcDbLine
 10
-262.29810903
 20
157.9
 30
0.0
 11
-249.01905284
 21
134.9
 31
0.0
  0
LINE
  5
F9
100
AcDbEntity
  8
D-BMK
  6
CENTER
 62
       2
100
AcDbLine
 10
-302.1352776
 20
134.9
 30
0.0
 11
-249.01905284
 21
134.9
 31
0.0
  0
LINE
  5
FA
100
AcDbEntity
  8
D-BMK
  6
CENTER
 62
       2
100
AcDbLine
 10
-275.57716522
 20
111.9
 30
0.0
 11
-275.57716522
 21
157.9
 31
0.0
  0
ENDBLK
  5
FB
100
AcDbEntity
  8
0
100
AcDbBlockEnd
  0
BLOCK
  5
FC
100
AcDbEntity
  8
0
100
AcDbBlockBegin
  2
GROUP_15
 70
       0
 10
0.0
 20
0.0
 30
0.0
  3
GROUP_15
  1

  0
CIRCLE
  5
FD
100
AcDbEntity
  8
D-STR
  6
CONTINUOUS
 62
       1
100
AcDbCircle
 10
-185.51052323
 20
152.2
 30
0.0
 40
27.5
  0
LINE
  5
FE
100
AcDbEntity
  8
D-STR
  6
CONTINUOUS
 62
       1
100
AcDbLine
 10
-201.38765563
 20
179.7
 30
0.0
 11
-169.63339082
 21
179.7
 31
0.0
  0
LINE
  5
FF
100
AcDbEntity
  8
D-STR
  6
CONTINUOUS
 62
       1
100
AcDbLine
 10
-217.26478803
 20
152.2
 30
0.0
 11
-201.38765563
 21
179.7
 31
0.0
  0
LINE
  5
100
100
AcDbEntity
  8
D-STR
  6
CONTINUOUS
 62
       1
100
AcDbLine
 10
-201.38765563
 20
124.7
 30
0.0
 11
-217.26478803
 21
152.2
 31
0.0
  0
LINE
  5
101
100
AcDbEntity
  8
D-STR
  6
CONTINUOUS
 62
       1
100
AcDbLine
 10
-169.63339082
 20
124.7
 30
0.0
 11
-201.38765563
 21
124.7
 31
0.0
  0
LINE
  5
102
100
AcDbEntity
  8
D-STR
  6
CONTINUOUS
 62
       1
100
AcDbLine
 10
-153.75625842
 20
152.2
 30
0.0
 11
-169.63339082
 21
124.7
 31
0.0
  0
LINE
  5
103
100
AcDbEntity
  8
D-STR
  6
CONTINUOUS
 62
       1
100
AcDbLine
 10
-169.63339082
 20
179.7
 30
0.0
 11
-153.75625842
 21
152.2
 31
0.0
  0
LINE
  5
104
100
AcDbEntity
  8
D-BMK
  6
CENTER
 62
       2
100
AcDbLine
 10
-217.26478803
 20
152.2
 30
0.0
 11
-153.75625842
 21
152.2
 31
0.0
  0
LINE
  5
105
100
AcDbEntity
  8
D-BMK
  6
CENTER
 62
       2
100
AcDbLine
 10
-185.51052323
 20
124.7
 30
0.0
 11
-185.51052323
 21
179.7
 31
0.0
  0
ENDBLK
  5
106
100
AcDbEntity
  8
0
100
AcDbBlockEnd
  0
BLOCK
  5
107
100
AcDbEntity
  8
0
100
AcDbBlockBegin
  2
GROUP_16
 70
       0
 10
0.0
 20
0.0
 30
0.0
  3
GROUP_16
  1

  0
CIRCLE
  5
108
100
AcDbEntity
  8
D-STR
  6
CONTINUOUS
 62
       1
100
AcDbCircle
 10
-78.70072343
 20
170.5
 30
0.0
 40
32.5
  0
LINE
  5
109
100
AcDbEntity
  8
D-STR
  6
CONTINUOUS
 62
       1
100
AcDbLine
 10
-97.46460718
 20
203.0
 30
0.0
 11
-59.93683968
 21
203.0
 31
0.0
  0
LINE
  5
10A
100
AcDbEntity
  8
D-STR
  6
CONTINUOUS
 62
       1
100
AcDbLine
 10
-116.22849092
 20
170.5
 30
0.0
 11
-97.46460718
 21
203.0
 31
0.0
  0
LINE
  5
10B
100
AcDbEntity
  8
D-STR
  6
CONTINUOUS
 62
       1
100
AcDbLine
 10
-97.46460718
 20
138.0
 30
0.0
 11
-116.22849092
 21
170.5
 31
0.0
  0
LINE
  5
10C
100
AcDbEntity
  8
D-STR
  6
CONTINUOUS
 62
       1
100
AcDbLine
 10
-59.93683968
 20
138.0
 30
0.0
 11
-97.46460718
 21
138.0
 31
0.0
  0
LINE
  5
10D
100
AcDbEntity
  8
D-STR
  6
CONTINUOUS
 62
       1
100
AcDbLine
 10
-41.17295593
 20
170.5
 30
0.0
 11
-59.93683968
 21
138.0
 31
0.0
  0
LINE
  5
10E
100
AcDbEntity
  8
D-STR
  6
CONTINUOUS
 62
       1
100
AcDbLine
 10
-59.93683968
 20
203.0
 30
0.0
 11
-41.17295593
 21
170.5
 31
0.0
  0
LINE
  5
10F
100
AcDbEntity
  8
D-BMK
  6
CENTER
 62
       2
100
AcDbLine
 10
-116.22849092
 20
170.5
 30
0.0
 11
-41.17295593
 21
170.5
 31
0.0
  0
LINE
  5
110
100
AcDbEntity
  8
D-BMK
  6
CENTER
 62
       2
100
AcDbLine
 10
-78.70072343
 20
138.0
 30
0.0
 11
-78.70072343
 21
203.0
 31
0.0
  0
ENDBLK
  5
111
100
AcDbEntity
  8
0
100
AcDbBlockEnd
  0
BLOCK
  5
112
100
AcDbEntity
  8
0
100
AcDbBlockBegin
  2
GROUP_17
 70
       0
 10
0.0
 20
0.0
 30
0.0
  3
GROUP_17
  1

  0
CIRCLE
  5
113
100
AcDbEntity
  8
D-STR
  6
CONTINUOUS
 62
       1
100
AcDbCircle
 10
45.42958445
 20
189.5
 30
0.0
 40
37.5
  0
LINE
  5
114
100
AcDbEntity
  8
D-STR
  6
CONTINUOUS
 62
       1
100
AcDbLine
 10
23.77894935
 20
227.0
 30
0.0
 11
67.08021954
 21
227.0
 31
0.0
  0
LINE
  5
115
100
AcDbEntity
  8
D-STR
  6
CONTINUOUS
 62
       1
100
AcDbLine
 10
2.12831426
 20
189.5
 30
0.0
 11
23.77894935
 21
227.0
 31
0.0
  0
LINE
  5
116
100
AcDbEntity
  8
D-STR
  6
CONTINUOUS
 62
       1
100
AcDbLine
 10
23.77894935
 20
152.0
 30
0.0
 11
2.12831426
 21
189.5
 31
0.0
  0
LINE
  5
117
100
AcDbEntity
  8
D-STR
  6
CONTINUOUS
 62
       1
100
AcDbLine
 10
67.08021954
 20
152.0
 30
0.0
 11
23.77894935
 21
152.0
 31
0.0
  0
LINE
  5
118
100
AcDbEntity
  8
D-STR
  6
CONTINUOUS
 62
       1
100
AcDbLine
 10
88.73085464
 20
189.5
 30
0.0
 11
67.08021954
 21
152.0
 31
0.0
  0
LINE
  5
119
100
AcDbEntity
  8
D-STR
  6
CONTINUOUS
 62
       1
100
AcDbLine
 10
67.08021954
 20
227.0
 30
0.0
 11
88.73085464
 21
189.5
 31
0.0
  0
LINE
  5
11A
100
AcDbEntity
  8
D-BMK
  6
CENTER
 62
       2
100
AcDbLine
 10
2.12831426
 20
189.5
 30
0.0
 11
88.73085464
 21
189.5
 31
0.0
  0
LINE
  5
11B
100
AcDbEntity
  8
D-BMK
  6
CENTER
 62
       2
100
AcDbLine
 10
45.42958445
 20
152.0
 30
0.0
 11
45.42958445
 21
227.0
 31
0.0
  0
ENDBLK
  5
11C
100
AcDbEntity
  8
0
100
AcDbBlockEnd
  0
BLOCK
  5
11D
100
AcDbEntity
  8
0
100
AcDbBlockBegin
  2
GROUP_18
 70
       0
 10
0.0
 20
0.0
 30
0.0
  3
GROUP_18
  1

  0
CIRCLE
  5
11E
100
AcDbEntity
  8
D-STR
  6
CONTINUOUS
 62
       1
100
AcDbCircle
 10
186.8804004
 20
209.5
 30
0.0
 40
42.5
  0
LINE
  5
11F
100
AcDbEntity
  8
D-STR
  6
CONTINUOUS
 62
       1
100
AcDbLine
 10
162.34301396
 20
252.0
 30
0.0
 11
211.41778684
 21
252.0
 31
0.0
  0
LINE
  5
120
100
AcDbEntity
  8
D-STR
  6
CONTINUOUS
 62
       1
100
AcDbLine
 10
137.80562752
 20
209.5
 30
0.0
 11
162.34301396
 21
252.0
 31
0.0
  0
LINE
  5
121
100
AcDbEntity
  8
D-STR
  6
CONTINUOUS
 62
       1
100
AcDbLine
 10
162.34301396
 20
167.0
 30
0.0
 11
137.80562752
 21
209.5
 31
0.0
  0
LINE
  5
122
100
AcDbEntity
  8
D-STR
  6
CONTINUOUS
 62
       1
100
AcDbLine
 10
211.41778684
 20
167.0
 30
0.0
 11
162.34301396
 21
167.0
 31
0.0
  0
LINE
  5
123
100
AcDbEntity
  8
D-STR
  6
CONTINUOUS
 62
       1
100
AcDbLine
 10
235.95517328
 20
209.5
 30
0.0
 11
211.41778684
 21
167.0
 31
0.0
  0
LINE
  5
124
100
AcDbEntity
  8
D-STR
  6
CONTINUOUS
 62
       1
100
AcDbLine
 10
211.41778684
 20
252.0
 30
0.0
 11
235.95517328
 21
209.5
 31
0.0
  0
LINE
  5
125
100
AcDbEntity
  8
D-BMK
  6
CENTER
 62
       2
100
AcDbLine
 10
186.8804004
 20
167.0
 30
0.0
 11
186.8804004
 21
252.0
 31
0.0
  0
LINE
  5
126
100
AcDbEntity
  8
D-BMK
  6
CENTER
 62
       2
100
AcDbLine
 10
137.80562752
 20
209.5
 30
0.0
 11
235.95517328
 21
209.5
 31
0.0
  0
ENDBLK
  5
127
100
AcDbEntity
  8
0
100
AcDbBlockEnd
  0
BLOCK
  5
128
100
AcDbEntity
  8
0
100
AcDbBlockBegin
  2
GROUP_19
 70
       0
 10
0.0
 20
0.0
 30
0.0
  3
GROUP_19
  1

  0
CIRCLE
  5
129
100
AcDbEntity
  8
D-STR
  6
CONTINUOUS
 62
       1
100
AcDbCircle
 10
345.65172443
 20
229.5
 30
0.0
 40
47.5
  0
LINE
  5
12A
100
AcDbEntity
  8
D-STR
  6
CONTINUOUS
 62
       1
100
AcDbLine
 10
318.22758664
 20
277.0
 30
0.0
 11
373.07586221
 21
277.0
 31
0.0
  0
LINE
  5
12B
100
AcDbEntity
  8
D-STR
  6
CONTINUOUS
 62
       1
100
AcDbLine
 10
290.80344885
 20
229.5
 30
0.0
 11
318.22758664
 21
277.0
 31
0.0
  0
LINE
  5
12C
100
AcDbEntity
  8
D-STR
  6
CONTINUOUS
 62
       1
100
AcDbLine
 10
318.22758664
 20
182.0
 30
0.0
 11
290.80344885
 21
229.5
 31
0.0
  0
LINE
  5
12D
100
AcDbEntity
  8
D-STR
  6
CONTINUOUS
 62
       1
100
AcDbLine
 10
373.07586221
 20
182.0
 30
0.0
 11
318.22758664
 21
182.0
 31
0.0
  0
LINE
  5
12E
100
AcDbEntity
  8
D-STR
  6
CONTINUOUS
 62
       1
100
AcDbLine
 10
400.5
 20
229.5
 30
0.0
 11
373.07586221
 21
182.0
 31
0.0
  0
LINE
  5
12F
100
AcDbEntity
  8
D-STR
  6
CONTINUOUS
 62
       1
100
AcDbLine
 10
373.07586221
 20
277.0
 30
0.0
 11
400.5
 21
229.5
 31
0.0
  0
LINE
  5
130
100
AcDbEntity
  8
D-BMK
  6
CENTER
 62
       2
100
AcDbLine
 10
290.80344885
 20
229.5
 30
0.0
 11
400.5
 21
229.5
 31
0.0
  0
LINE
  5
131
100
AcDbEntity
  8
D-BMK
  6
CENTER
 62
       2
100
AcDbLine
 10
345.65172443
 20
182.0
 30
0.0
 11
345.65172443
 21
277.0
 31
0.0
  0
ENDBLK
  5
132
100
AcDbEntity
  8
0
100
AcDbBlockEnd
  0
BLOCK
  5
133
100
AcDbEntity
  8
0
100
AcDbBlockBegin
  2
GROUP_20
 70
       0
 10
0.0
 20
0.0
 30
0.0
  3
GROUP_20
  1

  0
LINE
  5
134
100
AcDbEntity
  8
D-STR
  6
CONTINUOUS
 62
       1
100
AcDbLine
 10
-400.5
 20
-196.2
 30
0.0
 11
-396.80495828
 21
-196.2
 31
0.0
  0
LINE
  5
135
100
AcDbEntity
  8
D-STR
  6
CONTINUOUS
 62
       1
100
AcDbLine
 10
-400.25247914
 20
-195.35
 30
0.0
 11
-397.05247914
 21
-195.35
 31
0.0
  0
LINE
  5
136
100
AcDbEntity
  8
D-STR
  6
CONTINUOUS
 62
       1
100
AcDbLine
 10
-396.80495828
 20
-196.2
 30
0.0
 11
-396.80495828
 21
-195.49290624
 31
0.0
  0
LINE
  5
137
100
AcDbEntity
  8
D-STR
  6
CONTINUOUS
 62
       1
100
AcDbLine
 10
-400.5
 20
-196.2
 30
0.0
 11
-400.5
 21
-195.49290624
 31
0.0
  0
LINE
  5
138
100
AcDbEntity
  8
D-STR
  6
CONTINUOUS
 62
       1
100
AcDbLine
 10
-400.25247914
 20
-195.35
 30
0.0
 11
-400.5
 21
-195.49290624
 31
0.0
  0
LINE
  5
139
100
AcDbEntity
  8
D-STR
  6
CONTINUOUS
 62
       1
100
AcDbLine
 10
-397.05247914
 20
-195.35
 30
0.0
 11
-396.80495828
 21
-195.49290624
 31
0.0
  0
ARC
  5
13A
100
AcDbEntity
  8
D-STR
  6
CONTINUOUS
 62
       1
100
AcDbCircle
 10
-398.65247914
 20
-198.40709376
 30
0.0
 40
3.05709376
100
AcDbArc
 50
72.41204623
 51
107.58795377
  0
LINE
  5
13B
100
AcDbEntity
  8
D-STR
  6
CONTINUOUS
 62
       1
100
AcDbLine
 10
-397.72871871
 20
-196.2
 30
0.0
 11
-397.72871871
 21
-195.49290624
 31
0.0
  0
LINE
  5
13C
100
AcDbEntity
  8
D-STR
  6
CONTINUOUS
 62
       1
100
AcDbLine
 10
-399.57623957
 20
-196.2
 30
0.0
 11
-399.57623957
 21
-195.49290624
 31
0.0
  0
LINE
  5
13D
100
AcDbEntity
  8
D-STR
  6
CONTINUOUS
 62
       1
100
AcDbLine
 10
-399.66247914
 20
-196.45
 30
0.0
 11
-397.64247914
 21
-196.45
 31
0.0
  0
LINE
  5
13E
100
AcDbEntity
  8
D-STR
  6
CONTINUOUS
 62
       1
100
AcDbLine
 10
-397.39247914
 20
-196.2
 30
0.0
 11
-397.64247914
 21
-196.45
 31
0.0
  0
LINE
  5
13F
100
AcDbEntity
  8
D-STR
  6
CONTINUOUS
 62
       1
100
AcDbLine
 10
-399.91247914
 20
-196.2
 30
0.0
 11
-399.66247914
 21
-196.45
 31
0.0
  0
LINE
  5
140
100
AcDbEntity
  8
D-STR
  6
CONTINUOUS
 62
       1
100
AcDbLine
 10
-397.85247914
 20
-196.45
 30
0.0
 11
-397.85247914
 21
-208.2605
 31
0.0
  0
LINE
  5
141
100
AcDbEntity
  8
D-STR
  6
CONTINUOUS
 62
       1
100
AcDbLine
 10
-399.45247914
 20
-196.45
 30
0.0
 11
-399.45247914
 21
-208.2605
 31
0.0
  0
LINE
  5
142
100
AcDbEntity
  8
D-STR
  6
CONTINUOUS
 62
       1
100
AcDbLine
 10
-399.26297914
 20
-208.45
 30
0.0
 11
-398.04197914
 21
-208.45
 31
0.0
  0
LINE
  5
143
100
AcDbEntity
  8
D-STR
  6
CONTINUOUS
 62
       1
100
AcDbLine
 10
-399.45247914
 20
-197.5
 30
0.0
 11
-397.85247914
 21
-197.5
 31
0.0
  0
LINE
  5
144
100
AcDbEntity
  8
D-STR
  6
CONTINUOUS
 62
       1
100
AcDbLine
 10
-399.26297914
 20
-197.5
 30
0.0
 11
-399.45247914
 21
-197.17177637
 31
0.0
  0
LINE
  5
145
100
AcDbEntity
  8
D-STR
  6
CONTINUOUS
 62
       1
100
AcDbLine
 10
-398.04197914
 20
-197.5
 30
0.0
 11
-397.85247914
 21
-197.17177637
 31
0.0
  0
LINE
  5
146
100
AcDbEntity
  8
D-STR
  6
CONTINUOUS
 62
       1
100
AcDbLine
 10
-399.45247914
 20
-208.2605
 30
0.0
 11
-399.26297914
 21
-208.45
 31
0.0
  0
LINE
  5
147
100
AcDbEntity
  8
D-STR
  6
CONTINUOUS
 62
       1
100
AcDbLine
 10
-398.04197914
 20
-208.45
 30
0.0
 11
-397.85247914
 21
-208.2605
 31
0.0
  0
LINE
  5
148
100
AcDbEntity
  8
D-STR
  6
CONTINUOUS
 62
       1
100
AcDbLine
 10
-399.45247914
 20
-208.2605
 30
0.0
 11
-397.85247914
 21
-208.2605
 31
0.0
  0
ARC
  5
149
100
AcDbEntity
  8
D-STR
  6
CONTINUOUS
 62
       1
100
AcDbCircle
 10
-400.03811978
 20
-196.16786328
 30
0.0
 40
0.81786328
100
AcDbArc
 50
55.61575253
 51
124.38424747
  0
ARC
  5
14A
100
AcDbEntity
  8
D-STR
  6
CONTINUOUS
 62
       1
100
AcDbCircle
 10
-397.26683849
 20
-196.16786328
 30
0.0
 40
0.81786328
100
AcDbArc
 50
55.61575253
 51
124.38424747
  0
LINE
  5
14B
100
AcDbEntity
  8
D-BMK
  6
CENTER
 62
       2
100
AcDbLine
 10
-398.65247914
 20
-195.35
 30
0.0
 11
-398.65247914
 21
-208.45
 31
0.0
  0
LINE
  5
14C
100
AcDbEntity
  8
D-STR
  6
CONTINUOUS
 62
       7
100
AcDbLine
 10
-399.26297914
 20
-197.5
 30
0.0
 11
-399.26297914
 21
-208.45
 31
0.0
  0
LINE
  5
14D
100
AcDbEntity
  8
D-STR
  6
CONTINUOUS
 62
       7
100
AcDbLine
 10
-398.04197914
 20
-197.5
 30
0.0
 11
-398.04197914
 21
-208.45
 31
0.0
  0
ENDBLK
  5
14E
100
AcDbEntity
  8
0
100
AcDbBlockEnd
  0
BLOCK
  5
14F
100
AcDbEntity
  8
0
100
AcDbBlockBegin
  2
GROUP_21
 70
       0
 10
0.0
 20
0.0
 30
0.0
  3
GROUP_21
  1

  0
LINE
  5
150
100
AcDbEntity
  8
D-STR
  6
CONTINUOUS
 62
       1
100
AcDbLine
 10
-394.4955572
 20
-196.2
 30
0.0
 11
-389.87675505
 21
-196.2
 31
0.0
  0
LINE
  5
151
100
AcDbEntity
  8
D-STR
  6
CONTINUOUS
 62
       1
100
AcDbLine
 10
-394.18615612
 20
-195.05
 30
0.0
 11
-390.18615612
 21
-195.05
 31
0.0
  0
LINE
  5
152
100
AcDbEntity
  8
D-STR
  6
CONTINUOUS
 62
       1
100
AcDbLine
 10
-389.87675505
 20
-196.2
 30
0.0
 11
-389.87675505
 21
-195.22863279
 31
0.0
  0
LINE
  5
153
100
AcDbEntity
  8
D-STR
  6
CONTINUOUS
 62
       1
100
AcDbLine
 10
-394.4955572
 20
-196.2
 30
0.0
 11
-394.4955572
 21
-195.22863279
 31
0.0
  0
LINE
  5
154
100
AcDbEntity
  8
D-STR
  6
CONTINUOUS
 62
       1
100
AcDbLine
 10
-394.18615612
 20
-195.05
 30
0.0
 11
-394.4955572
 21
-195.22863279
 31
0.0
  0
LINE
  5
155
100
AcDbEntity
  8
D-STR
  6
CONTINUOUS
 62
       1
100
AcDbLine
 10
-390.18615612
 20
-195.05
 30
0.0
 11
-389.87675505
 21
-195.22863279
 31
0.0
  0
ARC
  5
156
100
AcDbEntity
  8
D-STR
  6
CONTINUOUS
 62
       1
100
AcDbCircle
 10
-392.18615612
 20
-198.87136721
 30
0.0
 40
3.82136721
100
AcDbArc
 50
72.41204623
 51
107.58795377
  0
LINE
  5
157
100
AcDbEntity
  8
D-STR
  6
CONTINUOUS
 62
       1
100
AcDbLine
 10
-391.03145559
 20
-196.2
 30
0.0
 11
-391.03145559
 21
-195.22863279
 31
0.0
  0
LINE
  5
158
100
AcDbEntity
  8
D-STR
  6
CONTINUOUS
 62
       1
100
AcDbLine
 10
-393.34085666
 20
-196.2
 30
0.0
 11
-393.34085666
 21
-195.22863279
 31
0.0
  0
LINE
  5
159
100
AcDbEntity
  8
D-STR
  6
CONTINUOUS
 62
       1
100
AcDbLine
 10
-393.59615612
 20
-196.45
 30
0.0
 11
-390.77615612
 21
-196.45
 31
0.0
  0
LINE
  5
15A
100
AcDbEntity
  8
D-STR
  6
CONTINUOUS
 62
       1
100
AcDbLine
 10
-390.52615612
 20
-196.2
 30
0.0
 11
-390.77615612
 21
-196.45
 31
0.0
  0
LINE
  5
15B
100
AcDbEntity
  8
D-STR
  6
CONTINUOUS
 62
       1
100
AcDbLine
 10
-393.84615612
 20
-196.2
 30
0.0
 11
-393.59615612
 21
-196.45
 31
0.0
  0
LINE
  5
15C
100
AcDbEntity
  8
D-STR
  6
CONTINUOUS
 62
       1
100
AcDbLine
 10
-391.18615612
 20
-196.45
 30
0.0
 11
-391.18615612
 21
-212.2335
 31
0.0
  0
LINE
  5
15D
100
AcDbEntity
  8
D-STR
  6
CONTINUOUS
 62
       1
100
AcDbLine
 10
-393.18615612
 20
-196.45
 30
0.0
 11
-393.18615612
 21
-212.2335
 31
0.0
  0
LINE
  5
15E
100
AcDbEntity
  8
D-STR
  6
CONTINUOUS
 62
       1
100
AcDbLine
 10
-392.96965612
 20
-212.45
 30
0.0
 11
-391.40265612
 21
-212.45
 31
0.0
  0
LINE
  5
15F
100
AcDbEntity
  8
D-STR
  6
CONTINUOUS
 62
       1
100
AcDbLine
 10
-393.18615612
 20
-197.65
 30
0.0
 11
-391.18615612
 21
-197.65
 31
0.0
  0
LINE
  5
160
100
AcDbEntity
  8
D-STR
  6
CONTINUOUS
 62
       1
100
AcDbLine
 10
-392.96965612
 20
-197.65
 30
0.0
 11
-393.18615612
 21
-197.275011
 31
0.0
  0
LINE
  5
161
100
AcDbEntity
  8
D-STR
  6
CONTINUOUS
 62
       1
100
AcDbLine
 10
-391.40265612
 20
-197.65
 30
0.0
 11
-391.18615612
 21
-197.275011
 31
0.0
  0
LINE
  5
162
100
AcDbEntity
  8
D-STR
  6
CONTINUOUS
 62
       1
100
AcDbLine
 10
-393.18615612
 20
-212.2335
 30
0.0
 11
-392.96965612
 21
-212.45
 31
0.0
  0
LINE
  5
163
100
AcDbEntity
  8
D-STR
  6
CONTINUOUS
 62
       1
100
AcDbLine
 10
-391.40265612
 20
-212.45
 30
0.0
 11
-391.18615612
 21
-212.2335
 31
0.0
  0
LINE
  5
164
100
AcDbEntity
  8
D-STR
  6
CONTINUOUS
 62
       1
100
AcDbLine
 10
-393.18615612
 20
-212.2335
 30
0.0
 11
-391.18615612
 21
-212.2335
 31
0.0
  0
ARC
  5
165
100
AcDbEntity
  8
D-STR
  6
CONTINUOUS
 62
       1
100
AcDbCircle
 10
-393.91820693
 20
-196.0723291
 30
0.0
 40
1.0223291
100
AcDbArc
 50
55.61575253
 51
124.38424747
  0
ARC
  5
166
100
AcDbEntity
  8
D-STR
  6
CONTINUOUS
 62
       1
100
AcDbCircle
 10
-390.45410532
 20
-196.0723291
 30
0.0
 40
1.0223291
100
AcDbArc
 50
55.61575253
 51
124.38424747
  0
LINE
  5
167
100
AcDbEntity
  8
D-BMK
  6
CENTER
 62
       2
100
AcDbLine
 10
-392.18615612
 20
-195.05
 30
0.0
 11
-392.18615612
 21
-212.45
 31
0.0
  0
LINE
  5
168
100
AcDbEntity
  8
D-STR
  6
CONTINUOUS
 62
       7
100
AcDbLine
 10
-392.96965612
 20
-197.65
 30
0.0
 11
-392.96965612
 21
-212.45
 31
0.0
  0
LINE
  5
169
100
AcDbEntity
  8
D-STR
  6
CONTINUOUS
 62
       7
100
AcDbLine
 10
-391.40265612
 20
-197.65
 30
0.0
 11
-391.40265612
 21
-212.45
 31
0.0
  0
ENDBLK
  5
16A
100
AcDbEntity
  8
0
100
AcDbBlockEnd
  0
BLOCK
  5
16B
100
AcDbEntity
  8
0
100
AcDbBlockBegin
  2
GROUP_22
 70
       0
 10
0.0
 20
0.0
 30
0.0
  3
GROUP_22
  1

  0
LINE
  5
16C
100
AcDbEntity
  8
D-STR
  6
CONTINUOUS
 62
       1
100
AcDbLine
 10
-386.9900037
 20
-196.2
 30
0.0
 11
-381.21650101
 21
-196.2
 31
0.0
  0
LINE
  5
16D
100
AcDbEntity
  8
D-STR
  6
CONTINUOUS
 62
       1
100
AcDbLine
 10
-386.60325236
 20
-194.75
 30
0.0
 11
-381.60325236
 21
-194.75
 31
0.0
  0
LINE
  5
16E
100
AcDbEntity
  8
D-STR
  6
CONTINUOUS
 62
       1
100
AcDbLine
 10
-381.21650101
 20
-196.2
 30
0.0
 11
-381.21650101
 21
-194.97329099
 31
0.0
  0
LINE
  5
16F
100
AcDbEntity
  8
D-STR
  6
CONTINUOUS
 62
       1
100
AcDbLine
 10
-386.9900037
 20
-196.2
 30
0.0
 11
-386.9900037
 21
-194.97329099
 31
0.0
  0
LINE
  5
170
100
AcDbEntity
  8
D-STR
  6
CONTINUOUS
 62
       1
100
AcDbLine
 10
-386.60325236
 20
-194.75
 30
0.0
 11
-386.9900037
 21
-194.97329099
 31
0.0
  0
LINE
  5
171
100
AcDbEntity
  8
D-STR
  6
CONTINUOUS
 62
       1
100
AcDbLine
 10
-381.60325236
 20
-194.75
 30
0.0
 11
-381.21650101
 21
-194.97329099
 31
0.0
  0
ARC
  5
172
100
AcDbEntity
  8
D-STR
  6
CONTINUOUS
 62
       1
100
AcDbCircle
 10
-384.10325236
 20
-199.52670901
 30
0.0
 40
4.77670901
100
AcDbArc
 50
72.41204623
 51
107.58795377
  0
LINE
  5
173
100
AcDbEntity
  8
D-STR
  6
CONTINUOUS
 62
       1
100
AcDbLine
 10
-382.65987668
 20
-196.2
 30
0.0
 11
-382.65987668
 21
-194.97329099
 31
0.0
  0
LINE
  5
174
100
AcDbEntity
  8
D-STR
  6
CONTINUOUS
 62
       1
100
AcDbLine
 10
-385.54662803
 20
-196.2
 30
0.0
 11
-385.54662803
 21
-194.97329099
 31
0.0
  0
LINE
  5
175
100
AcDbEntity
  8
D-STR
  6
CONTINUOUS
 62
       1
100
AcDbLine
 10
-386.01325236
 20
-196.45
 30
0.0
 11
-382.19325236
 21
-196.45
 31
0.0
  0
LINE
  5
176
100
AcDbEntity
  8
D-STR
  6
CONTINUOUS
 62
       1
100
AcDbLine
 10
-381.94325236
 20
-196.2
 30
0.0
 11
-382.19325236
 21
-196.45
 31
0.0
  0
LINE
  5
177
100
AcDbEntity
  8
D-STR
  6
CONTINUOUS
 62
       1
100
AcDbLine
 10
-386.26325236
 20
-196.2
 30
0.0
 11
-386.01325236
 21
-196.45
 31
0.0
  0
LINE
  5
178
100
AcDbEntity
  8
D-STR
  6
CONTINUOUS
 62
       1
100
AcDbLine
 10
-382.85325236
 20
-196.45
 30
0.0
 11
-382.85325236
 21
-212.2065
 31
0.0
  0
LINE
  5
179
100
AcDbEntity
  8
D-STR
  6
CONTINUOUS
 62
       1
100
AcDbLine
 10
-385.35325236
 20
-196.45
 30
0.0
 11
-385.35325236
 21
-212.2065
 31
0.0
  0
LINE
  5
17A
100
AcDbEntity
  8
D-STR
  6
CONTINUOUS
 62
       1
100
AcDbLine
 10
-385.10975236
 20
-212.45
 30
0.0
 11
-383.09675236
 21
-212.45
 31
0.0
  0
LINE
  5
17B
100
AcDbEntity
  8
D-STR
  6
CONTINUOUS
 62
       1
100
AcDbLine
 10
-385.35325236
 20
-197.8
 30
0.0
 11
-382.85325236
 21
-197.8
 31
0.0
  0
LINE
  5
17C
100
AcDbEntity
  8
D-STR
  6
CONTINUOUS
 62
       1
100
AcDbLine
 10
-385.10975236
 20
-197.8
 30
0.0
 11
-385.35325236
 21
-197.37824563
 31
0.0
  0
LINE
  5
17D
100
AcDbEntity
  8
D-STR
  6
CONTINUOUS
 62
       1
100
AcDbLine
 10
-383.09675236
 20
-197.8
 30
0.0
 11
-382.85325236
 21
-197.37824563
 31
0.0
  0
LINE
  5
17E
100
AcDbEntity
  8
D-STR
  6
CONTINUOUS
 62
       1
100
AcDbLine
 10
-385.35325236
 20
-212.2065
 30
0.0
 11
-385.10975236
 21
-212.45
 31
0.0
  0
LINE
  5
17F
100
AcDbEntity
  8
D-STR
  6
CONTINUOUS
 62
       1
100
AcDbLine
 10
-383.09675236
 20
-212.45
 30
0.0
 11
-382.85325236
 21
-212.2065
 31
0.0
  0
LINE
  5
180
100
AcDbEntity
  8
D-STR
  6
CONTINUOUS
 62
       1
100
AcDbLine
 10
-385.35325236
 20
-212.2065
 30
0.0
 11
-382.85325236
 21
-212.2065
 31
0.0
  0
ARC
  5
181
100
AcDbEntity
  8
D-STR
  6
CONTINUOUS
 62
       1
100
AcDbCircle
 10
-386.26831586
 20
-196.02791137
 30
0.0
 40
1.27791137
100
AcDbArc
 50
55.61575253
 51
124.38424747
  0
ARC
  5
182
100
AcDbEntity
  8
D-STR
  6
CONTINUOUS
 62
       1
100
AcDbCircle
 10
-381.93818885
 20
-196.02791137
 30
0.0
 40
1.27791137
100
AcDbArc
 50
55.61575253
 51
124.38424747
  0
LINE
  5
183
100
AcDbEntity
  8
D-BMK
  6
CENTER
 62
       2
100
AcDbLine
 10
-384.10325236
 20
-194.75
 30
0.0
 11
-384.10325236
 21
-212.45
 31
0.0
  0
LINE
  5
184
100
AcDbEntity
  8
D-STR
  6
CONTINUOUS
 62
       7
100
AcDbLine
 10
-385.10975236
 20
-197.8
 30
0.0
 11
-385.10975236
 21
-212.45
 31
0.0
  0
LINE
  5
185
100
AcDbEntity
  8
D-STR
  6
CONTINUOUS
 62
       7
100
AcDbLine
 10
-383.09675236
 20
-197.8
 30
0.0
 11
-383.09675236
 21
-212.45
 31
0.0
  0
ENDBLK
  5
186
100
AcDbEntity
  8
0
100
AcDbBlockEnd
  0
BLOCK
  5
187
100
AcDbEntity
  8
0
100
AcDbBlockBegin
  2
GROUP_23
 70
       0
 10
0.0
 20
0.0
 30
0.0
  3
GROUP_23
  1

  0
LINE
  5
188
100
AcDbEntity
  8
D-STR
  6
CONTINUOUS
 62
       1
100
AcDbLine
 10
-378.04107453
 20
-196.2
 30
0.0
 11
-371.69022157
 21
-196.2
 31
0.0
  0
LINE
  5
189
100
AcDbEntity
  8
D-STR
  6
CONTINUOUS
 62
       1
100
AcDbLine
 10
-377.61564805
 20
-194.6
 30
0.0
 11
-372.11564805
 21
-194.6
 31
0.0
  0
LINE
  5
18A
100
AcDbEntity
  8
D-STR
  6
CONTINUOUS
 62
       1
100
AcDbLine
 10
-371.69022157
 20
-196.2
 30
0.0
 11
-371.69022157
 21
-194.84562009
 31
0.0
  0
LINE
  5
18B
100
AcDbEntity
  8
D-STR
  6
CONTINUOUS
 62
       1
100
AcDbLine
 10
-378.04107453
 20
-196.2
 30
0.0
 11
-378.04107453
 21
-194.84562009
 31
0.0
  0
LINE
  5
18C
100
AcDbEntity
  8
D-STR
  6
CONTINUOUS
 62
       1
100
AcDbLine
 10
-377.61564805
 20
-194.6
 30
0.0
 11
-378.04107453
 21
-194.84562009
 31
0.0
  0
LINE
  5
18D
100
AcDbEntity
  8
D-STR
  6
CONTINUOUS
 62
       1
100
AcDbLine
 10
-372.11564805
 20
-194.6
 30
0.0
 11
-371.69022157
 21
-194.84562009
 31
0.0
  0
ARC
  5
18E
100
AcDbEntity
  8
D-STR
  6
CONTINUOUS
 62
       1
100
AcDbCircle
 10
-374.86564805
 20
-199.85437991
 30
0.0
 40
5.25437991
100
AcDbArc
 50
72.41204623
 51
107.58795377
  0
LINE
  5
18F
100
AcDbEntity
  8
D-STR
  6
CONTINUOUS
 62
       1
100
AcDbLine
 10
-373.27793481
 20
-196.2
 30
0.0
 11
-373.27793481
 21
-194.84562009
 31
0.0
  0
LINE
  5
190
100
AcDbEntity
  8
D-STR
  6
CONTINUOUS
 62
       1
100
AcDbLine
 10
-376.45336129
 20
-196.2
 30
0.0
 11
-376.45336129
 21
-194.84562009
 31
0.0
  0
LINE
  5
191
100
AcDbEntity
  8
D-STR
  6
CONTINUOUS
 62
       1
100
AcDbLine
 10
-376.95064805
 20
-196.6
 30
0.0
 11
-372.78064805
 21
-196.6
 31
0.0
  0
LINE
  5
192
100
AcDbEntity
  8
D-STR
  6
CONTINUOUS
 62
       1
100
AcDbLine
 10
-372.38064805
 20
-196.2
 30
0.0
 11
-372.78064805
 21
-196.6
 31
0.0
  0
LINE
  5
193
100
AcDbEntity
  8
D-STR
  6
CONTINUOUS
 62
       1
100
AcDbLine
 10
-377.35064805
 20
-196.2
 30
0.0
 11
-376.95064805
 21
-196.6
 31
0.0
  0
LINE
  5
194
100
AcDbEntity
  8
D-STR
  6
CONTINUOUS
 62
       1
100
AcDbLine
 10
-373.36564805
 20
-196.6
 30
0.0
 11
-373.36564805
 21
-216.3295
 31
0.0
  0
LINE
  5
195
100
AcDbEntity
  8
D-STR
  6
CONTINUOUS
 62
       1
100
AcDbLine
 10
-376.36564805
 20
-196.6
 30
0.0
 11
-376.36564805
 21
-216.3295
 31
0.0
  0
LINE
  5
196
100
AcDbEntity
  8
D-STR
  6
CONTINUOUS
 62
       1
100
AcDbLine
 10
-376.09514805
 20
-216.6
 30
0.0
 11
-373.63614805
 21
-216.6
 31
0.0
  0
LINE
  5
197
100
AcDbEntity
  8
D-STR
  6
CONTINUOUS
 62
       1
100
AcDbLine
 10
-376.36564805
 20
-198.1
 30
0.0
 11
-373.36564805
 21
-198.1
 31
0.0
  0
LINE
  5
198
100
AcDbEntity
  8
D-STR
  6
CONTINUOUS
 62
       1
100
AcDbLine
 10
-376.09514805
 20
-198.1
 30
0.0
 11
-376.36564805
 21
-197.63148026
 31
0.0
  0
LINE
  5
199
100
AcDbEntity
  8
D-STR
  6
CONTINUOUS
 62
       1
100
AcDbLine
 10
-373.63614805
 20
-198.1
 30
0.0
 11
-373.36564805
 21
-197.63148026
 31
0.0
  0
LINE
  5
19A
100
AcDbEntity
  8
D-STR
  6
CONTINUOUS
 62
       1
100
AcDbLine
 10
-376.36564805
 20
-216.3295
 30
0.0
 11
-376.09514805
 21
-216.6
 31
0.0
  0
LINE
  5
19B
100
AcDbEntity
  8
D-STR
  6
CONTINUOUS
 62
       1
100
AcDbLine
 10
-373.63614805
 20
-216.6
 30
0.0
 11
-373.36564805
 21
-216.3295
 31
0.0
  0
LINE
  5
19C
100
AcDbEntity
  8
D-STR
  6
CONTINUOUS
 62
       1
100
AcDbLine
 10
-376.36564805
 20
-216.3295
 30
0.0
 11
-373.36564805
 21
-216.3295
 31
0.0
  0
ARC
  5
19D
100
AcDbEntity
  8
D-STR
  6
CONTINUOUS
 62
       1
100
AcDbCircle
 10
-377.24721791
 20
-196.00570251
 30
0.0
 40
1.40570251
100
AcDbArc
 50
55.61575253
 51
124.38424747
  0
ARC
  5
19E
100
AcDbEntity
  8
D-STR
  6
CONTINUOUS
 62
       1
100
AcDbCircle
 10
-372.48407819
 20
-196.00570251
 30
0.0
 40
1.40570251
100
AcDbArc
 50
55.61575253
 51
124.38424747
  0
LINE
  5
19F
100
AcDbEntity
  8
D-BMK
  6
CENTER
 62
       2
100
AcDbLine
 10
-374.86564805
 20
-194.6
 30
0.0
 11
-374.86564805
 21
-216.6
 31
0.0
  0
LINE
  5
1A0
100
AcDbEntity
  8
D-STR
  6
CONTINUOUS
 62
       7
100
AcDbLine
 10
-376.09514805
 20
-198.1
 30
0.0
 11
-376.09514805
 21
-216.6
 31
0.0
  0
LINE
  5
1A1
100
AcDbEntity
  8
D-STR
  6
CONTINUOUS
 62
       7
100
AcDbLine
 10
-373.63614805
 20
-198.1
 30
0.0
 11
-373.63614805
 21
-216.6
 31
0.0
  0
ENDBLK
  5
1A2
100
AcDbEntity
  8
0
100
AcDbBlockEnd
  0
BLOCK
  5
1A3
100
AcDbEntity
  8
0
100
AcDbBlockBegin
  2
GROUP_24
 70
       0
 10
0.0
 20
0.0
 30
0.0
  3
GROUP_24
  1

  0
LINE
  5
1A4
100
AcDbEntity
  8
D-STR
  6
CONTINUOUS
 62
       1
100
AcDbLine
 10
-367.64876968
 20
-196.2
 30
0.0
 11
-359.56586591
 21
-196.2
 31
0.0
  0
LINE
  5
1A5
100
AcDbEntity
  8
D-STR
  6
CONTINUOUS
 62
       1
100
AcDbLine
 10
-367.1073178
 20
-193.8
 30
0.0
 11
-360.1073178
 21
-193.8
 31
0.0
  0
LINE
  5
1A6
100
AcDbEntity
  8
D-STR
  6
CONTINUOUS
 62
       1
100
AcDbLine
 10
-359.56586591
 20
-196.2
 30
0.0
 11
-359.56586591
 21
-194.11260739
 31
0.0
  0
LINE
  5
1A7
100
AcDbEntity
  8
D-STR
  6
CONTINUOUS
 62
       1
100
AcDbLine
 10
-367.64876968
 20
-196.2
 30
0.0
 11
-367.64876968
 21
-194.11260739
 31
0.0
  0
LINE
  5
1A8
100
AcDbEntity
  8
D-STR
  6
CONTINUOUS
 62
       1
100
AcDbLine
 10
-367.1073178
 20
-193.8
 30
0.0
 11
-367.64876968
 21
-194.11260739
 31
0.0
  0
LINE
  5
1A9
100
AcDbEntity
  8
D-STR
  6
CONTINUOUS
 62
       1
100
AcDbLine
 10
-360.1073178
 20
-193.8
 30
0.0
 11
-359.56586591
 21
-194.11260739
 31
0.0
  0
ARC
  5
1AA
100
AcDbEntity
  8
D-STR
  6
CONTINUOUS
 62
       1
100
AcDbCircle
 10
-363.6073178
 20
-200.48739261
 30
0.0
 40
6.68739261
100
AcDbArc
 50
72.41204623
 51
107.58795377
  0
LINE
  5
1AB
100
AcDbEntity
  8
D-STR
  6
CONTINUOUS
 62
       1
100
AcDbLine
 10
-361.58659186
 20
-196.2
 30
0.0
 11
-361.58659186
 21
-194.11260739
 31
0.0
  0
LINE
  5
1AC
100
AcDbEntity
  8
D-STR
  6
CONTINUOUS
 62
       1
100
AcDbLine
 10
-365.62804374
 20
-196.2
 30
0.0
 11
-365.62804374
 21
-194.11260739
 31
0.0
  0
LINE
  5
1AD
100
AcDbEntity
  8
D-STR
  6
CONTINUOUS
 62
       1
100
AcDbLine
 10
-366.3473178
 20
-196.6
 30
0.0
 11
-360.8673178
 21
-196.6
 31
0.0
  0
LINE
  5
1AE
100
AcDbEntity
  8
D-STR
  6
CONTINUOUS
 62
       1
100
AcDbLine
 10
-360.4673178
 20
-196.2
 30
0.0
 11
-360.8673178
 21
-196.6
 31
0.0
  0
LINE
  5
1AF
100
AcDbEntity
  8
D-STR
  6
CONTINUOUS
 62
       1
100
AcDbLine
 10
-366.7473178
 20
-196.2
 30
0.0
 11
-366.3473178
 21
-196.6
 31
0.0
  0
LINE
  5
1B0
100
AcDbEntity
  8
D-STR
  6
CONTINUOUS
 62
       1
100
AcDbLine
 10
-361.6073178
 20
-196.6
 30
0.0
 11
-361.6073178
 21
-221.221
 31
0.0
  0
LINE
  5
1B1
100
AcDbEntity
  8
D-STR
  6
CONTINUOUS
 62
       1
100
AcDbLine
 10
-365.6073178
 20
-196.6
 30
0.0
 11
-365.6073178
 21
-221.221
 31
0.0
  0
LINE
  5
1B2
100
AcDbEntity
  8
D-STR
  6
CONTINUOUS
 62
       1
100
AcDbLine
 10
-365.2283178
 20
-221.6
 30
0.0
 11
-361.9863178
 21
-221.6
 31
0.0
  0
LINE
  5
1B3
100
AcDbEntity
  8
D-STR
  6
CONTINUOUS
 62
       1
100
AcDbLine
 10
-365.6073178
 20
-198.7
 30
0.0
 11
-361.6073178
 21
-198.7
 31
0.0
  0
LINE
  5
1B4
100
AcDbEntity
  8
D-STR
  6
CONTINUOUS
 62
       1
100
AcDbLine
 10
-365.2283178
 20
-198.7
 30
0.0
 11
-365.6073178
 21
-198.04355274
 31
0.0
  0
LINE
  5
1B5
100
AcDbEntity
  8
D-STR
  6
CONTINUOUS
 62
       1
100
AcDbLine
 10
-361.9863178
 20
-198.7
 30
0.0
 11
-361.6073178
 21
-198.04355274
 31
0.0
  0
LINE
  5
1B6
100
AcDbEntity
  8
D-STR
  6
CONTINUOUS
 62
       1
100
AcDbLine
 10
-365.6073178
 20
-221.221
 30
0.0
 11
-365.2283178
 21
-221.6
 31
0.0
  0
LINE
  5
1B7
100
AcDbEntity
  8
D-STR
  6
CONTINUOUS
 62
       1
100
AcDbLine
 10
-361.9863178
 20
-221.6
 30
0.0
 11
-361.6073178
 21
-221.221
 31
0.0
  0
LINE
  5
1B8
100
AcDbEntity
  8
D-STR
  6
CONTINUOUS
 62
       1
100
AcDbLine
 10
-365.6073178
 20
-221.221
 30
0.0
 11
-361.6073178
 21
-221.221
 31
0.0
  0
ARC
  5
1B9
100
AcDbEntity
  8
D-STR
  6
CONTINUOUS
 62
       1
100
AcDbCircle
 10
-366.63840671
 20
-195.58907592
 30
0.0
 40
1.78907592
100
AcDbArc
 50
55.61575253
 51
124.38424747
  0
ARC
  5
1BA
100
AcDbEntity
  8
D-STR
  6
CONTINUOUS
 62
       1
100
AcDbCircle
 10
-360.57622889
 20
-195.58907592
 30
0.0
 40
1.78907592
100
AcDbArc
 50
55.61575253
 51
124.38424747
  0
LINE
  5
1BB
100
AcDbEntity
  8
D-BMK
  6
CENTER
 62
       2
100
AcDbLine
 10
-363.6073178
 20
-193.8
 30
0.0
 11
-363.6073178
 21
-221.6
 31
0.0
  0
LINE
  5
1BC
100
AcDbEntity
  8
D-STR
  6
CONTINUOUS
 62
       7
100
AcDbLine
 10
-365.2283178
 20
-198.7
 30
0.0
 11
-365.2283178
 21
-221.6
 31
0.0
  0
LINE
  5
1BD
100
AcDbEntity
  8
D-STR
  6
CONTINUOUS
 62
       7
100
AcDbLine
 10
-361.9863178
 20
-198.7
 30
0.0
 11
-361.9863178
 21
-221.6
 31
0.0
  0
ENDBLK
  5
1BE
100
AcDbEntity
  8
0
100
AcDbBlockEnd
  0
BLOCK
  5
1BF
100
AcDbEntity
  8
0
100
AcDbBlockBegin
  2
GROUP_25
 70
       0
 10
0.0
 20
0.0
 30
0.0
  3
GROUP_25
  1

  0
LINE
  5
1C0
100
AcDbEntity
  8
D-STR
  6
CONTINUOUS
 62
       1
100
AcDbLine
 10
-354.94706376
 20
-196.2
 30
0.0
 11
-345.70945945
 21
-196.2
 31
0.0
  0
LINE
  5
1C1
100
AcDbEntity
  8
D-STR
  6
CONTINUOUS
 62
       1
100
AcDbLine
 10
-354.32826161
 20
-193.2
 30
0.0
 11
-346.32826161
 21
-193.2
 31
0.0
  0
LINE
  5
1C2
100
AcDbEntity
  8
D-STR
  6
CONTINUOUS
 62
       1
100
AcDbLine
 10
-345.70945945
 20
-196.2
 30
0.0
 11
-345.70945945
 21
-193.55726559
 31
0.0
  0
LINE
  5
1C3
100
AcDbEntity
  8
D-STR
  6
CONTINUOUS
 62
       1
100
AcDbLine
 10
-354.94706376
 20
-196.2
 30
0.0
 11
-354.94706376
 21
-193.55726559
 31
0.0
  0
LINE
  5
1C4
100
AcDbEntity
  8
D-STR
  6
CONTINUOUS
 62
       1
100
AcDbLine
 10
-354.32826161
 20
-193.2
 30
0.0
 11
-354.94706376
 21
-193.55726559
 31
0.0
  0
LINE
  5
1C5
100
AcDbEntity
  8
D-STR
  6
CONTINUOUS
 62
       1
100
AcDbLine
 10
-346.32826161
 20
-193.2
 30
0.0
 11
-345.70945945
 21
-193.55726559
 31
0.0
  0
ARC
  5
1C6
100
AcDbEntity
  8
D-STR
  6
CONTINUOUS
 62
       1
100
AcDbCircle
 10
-350.32826161
 20
-200.84273441
 30
0.0
 40
7.64273441
100
AcDbArc
 50
72.41204623
 51
107.58795377
  0
LINE
  5
1C7
100
AcDbEntity
  8
D-STR
  6
CONTINUOUS
 62
       1
100
AcDbLine
 10
-348.01886053
 20
-196.2
 30
0.0
 11
-348.01886053
 21
-193.55726559
 31
0.0
  0
LINE
  5
1C8
100
AcDbEntity
  8
D-STR
  6
CONTINUOUS
 62
       1
100
AcDbLine
 10
-352.63766268
 20
-196.2
 30
0.0
 11
-352.63766268
 21
-193.55726559
 31
0.0
  0
LINE
  5
1C9
100
AcDbEntity
  8
D-STR
  6
CONTINUOUS
 62
       1
100
AcDbLine
 10
-353.51826161
 20
-196.7
 30
0.0
 11
-347.13826161
 21
-196.7
 31
0.0
  0
LINE
  5
1CA
100
AcDbEntity
  8
D-STR
  6
CONTINUOUS
 62
       1
100
AcDbLine
 10
-346.63826161
 20
-196.2
 30
0.0
 11
-347.13826161
 21
-196.7
 31
0.0
  0
LINE
  5
1CB
100
AcDbEntity
  8
D-STR
  6
CONTINUOUS
 62
       1
100
AcDbLine
 10
-354.01826161
 20
-196.2
 30
0.0
 11
-353.51826161
 21
-196.7
 31
0.0
  0
LINE
  5
1CC
100
AcDbEntity
  8
D-STR
  6
CONTINUOUS
 62
       1
100
AcDbLine
 10
-347.82826161
 20
-196.7
 30
0.0
 11
-347.82826161
 21
-221.267
 31
0.0
  0
LINE
  5
1CD
100
AcDbEntity
  8
D-STR
  6
CONTINUOUS
 62
       1
100
AcDbLine
 10
-352.82826161
 20
-196.7
 30
0.0
 11
-352.82826161
 21
-221.267
 31
0.0
  0
LINE
  5
1CE
100
AcDbEntity
  8
D-STR
  6
CONTINUOUS
 62
       1
100
AcDbLine
 10
-352.39526161
 20
-221.7
 30
0.0
 11
-348.26126161
 21
-221.7
 31
0.0
  0
LINE
  5
1CF
100
AcDbEntity
  8
D-STR
  6
CONTINUOUS
 62
       1
100
AcDbLine
 10
-352.82826161
 20
-199.1
 30
0.0
 11
-347.82826161
 21
-199.1
 31
0.0
  0
LINE
  5
1D0
100
AcDbEntity
  8
D-STR
  6
CONTINUOUS
 62
       1
100
AcDbLine
 10
-352.39526161
 20
-199.1
 30
0.0
 11
-352.82826161
 21
-198.350022
 31
0.0
  0
LINE
  5
1D1
100
AcDbEntity
  8
D-STR
  6
CONTINUOUS
 62
       1
100
AcDbLine
 10
-348.26126161
 20
-199.1
 30
0.0
 11
-347.82826161
 21
-198.350022
 31
0.0
  0
LINE
  5
1D2
100
AcDbEntity
  8
D-STR
  6
CONTINUOUS
 62
       1
100
AcDbLine
 10
-352.82826161
 20
-221.267
 30
0.0
 11
-352.39526161
 21
-221.7
 31
0.0
  0
LINE
  5
1D3
100
AcDbEntity
  8
D-STR
  6
CONTINUOUS
 62
       1
100
AcDbLine
 10
-348.26126161
 20
-221.7
 30
0.0
 11
-347.82826161
 21
-221.267
 31
0.0
  0
LINE
  5
1D4
100
AcDbEntity
  8
D-STR
  6
CONTINUOUS
 62
       1
100
AcDbLine
 10
-352.82826161
 20
-221.267
 30
0.0
 11
-347.82826161
 21
-221.267
 31
0.0
  0
ARC
  5
1D5
100
AcDbEntity
  8
D-STR
  6
CONTINUOUS
 62
       1
100
AcDbCircle
 10
-353.79236322
 20
-195.2446582
 30
0.0
 40
2.0446582
100
AcDbArc
 50
55.61575253
 51
124.38424747
  0
ARC
  5
1D6
100
AcDbEntity
  8
D-STR
  6
CONTINUOUS
 62
       1
100
AcDbCircle
 10
-346.86415999
 20
-195.2446582
 30
0.0
 40
2.0446582
100
AcDbArc
 50
55.61575253
 51
124.38424747
  0
LINE
  5
1D7
100
AcDbEntity
  8
D-BMK
  6
CENTER
 62
       2
100
AcDbLine
 10
-350.32826161
 20
-193.2
 30
0.0
 11
-350.32826161
 21
-221.7
 31
0.0
  0
LINE
  5
1D8
100
AcDbEntity
  8
D-STR
  6
CONTINUOUS
 62
       7
100
AcDbLine
 10
-352.39526161
 20
-199.1
 30
0.0
 11
-352.39526161
 21
-221.7
 31
0.0
  0
LINE
  5
1D9
100
AcDbEntity
  8
D-STR
  6
CONTINUOUS
 62
       7
100
AcDbLine
 10
-348.26126161
 20
-199.1
 30
0.0
 11
-348.26126161
 21
-221.7
 31
0.0
  0
ENDBLK
  5
1DA
100
AcDbEntity
  8
0
100
AcDbBlockEnd
  0
BLOCK
  5
1DB
100
AcDbEntity
  8
0
100
AcDbBlockBegin
  2
GROUP_26
 70
       0
 10
0.0
 20
0.0
 30
0.0
  3
GROUP_26
  1

  0
LINE
  5
1DC
100
AcDbEntity
  8
D-STR
  6
CONTINUOUS
 62
       1
100
AcDbLine
 10
-339.93595676
 20
-196.2
 30
0.0
 11
-328.38895138
 21
-196.2
 31
0.0
  0
LINE
  5
1DD
100
AcDbEntity
  8
D-STR
  6
CONTINUOUS
 62
       1
100
AcDbLine
 10
-339.16245407
 20
-192.7
 30
0.0
 11
-329.16245407
 21
-192.7
 31
0.0
  0
LINE
  5
1DE
100
AcDbEntity
  8
D-STR
  6
CONTINUOUS
 62
       1
100
AcDbLine
 10
-328.38895138
 20
-196.2
 30
0.0
 11
-328.38895138
 21
-193.14658199
 31
0.0
  0
LINE
  5
1DF
100
AcDbEntity
  8
D-STR
  6
CONTINUOUS
 62
       1
100
AcDbLine
 10
-339.93595676
 20
-196.2
 30
0.0
 11
-339.93595676
 21
-193.14658199
 31
0.0
  0
LINE
  5
1E0
100
AcDbEntity
  8
D-STR
  6
CONTINUOUS
 62
       1
100
AcDbLine
 10
-339.16245407
 20
-192.7
 30
0.0
 11
-339.93595676
 21
-193.14658199
 31
0.0
  0
LINE
  5
1E1
100
AcDbEntity
  8
D-STR
  6
CONTINUOUS
 62
       1
100
AcDbLine
 10
-329.16245407
 20
-192.7
 30
0.0
 11
-328.38895138
 21
-193.14658199
 31
0.0
  0
ARC
  5
1E2
100
AcDbEntity
  8
D-STR
  6
CONTINUOUS
 62
       1
100
AcDbCircle
 10
-334.16245407
 20
-202.25341801
 30
0.0
 40
9.55341801
100
AcDbArc
 50
72.41204623
 51
107.58795377
  0
LINE
  5
1E3
100
AcDbEntity
  8
D-STR
  6
CONTINUOUS
 62
       1
100
AcDbLine
 10
-331.27570272
 20
-196.2
 30
0.0
 11
-331.27570272
 21
-193.14658199
 31
0.0
  0
LINE
  5
1E4
100
AcDbEntity
  8
D-STR
  6
CONTINUOUS
 62
       1
100
AcDbLine
 10
-337.04920542
 20
-196.2
 30
0.0
 11
-337.04920542
 21
-193.14658199
 31
0.0
  0
LINE
  5
1E5
100
AcDbEntity
  8
D-STR
  6
CONTINUOUS
 62
       1
100
AcDbLine
 10
-338.35245407
 20
-196.7
 30
0.0
 11
-329.97245407
 21
-196.7
 31
0.0
  0
LINE
  5
1E6
100
AcDbEntity
  8
D-STR
  6
CONTINUOUS
 62
       1
100
AcDbLine
 10
-329.47245407
 20
-196.2
 30
0.0
 11
-329.97245407
 21
-196.7
 31
0.0
  0
LINE
  5
1E7
100
AcDbEntity
  8
D-STR
  6
CONTINUOUS
 62
       1
100
AcDbLine
 10
-338.85245407
 20
-196.2
 30
0.0
 11
-338.35245407
 21
-196.7
 31
0.0
  0
LINE
  5
1E8
100
AcDbEntity
  8
D-STR
  6
CONTINUOUS
 62
       1
100
AcDbLine
 10
-331.16245407
 20
-196.7
 30
0.0
 11
-331.16245407
 21
-226.1585
 31
0.0
  0
LINE
  5
1E9
100
AcDbEntity
  8
D-STR
  6
CONTINUOUS
 62
       1
100
AcDbLine
 10
-337.16245407
 20
-196.7
 30
0.0
 11
-337.16245407
 21
-226.1585
 31
0.0
  0
LINE
  5
1EA
100
AcDbEntity
  8
D-STR
  6
CONTINUOUS
 62
       1
100
AcDbLine
 10
-336.62095407
 20
-226.7
 30
0.0
 11
-331.70395407
 21
-226.7
 31
0.0
  0
LINE
  5
1EB
100
AcDbEntity
  8
D-STR
  6
CONTINUOUS
 62
       1
100
AcDbLine
 10
-337.16245407
 20
-199.7
 30
0.0
 11
-331.16245407
 21
-199.7
 31
0.0
  0
LINE
  5
1EC
100
AcDbEntity
  8
D-STR
  6
CONTINUOUS
 62
       1
100
AcDbLine
 10
-336.62095407
 20
-199.7
 30
0.0
 11
-337.16245407
 21
-198.76209449
 31
0.0
  0
LINE
  5
1ED
100
AcDbEntity
  8
D-STR
  6
CONTINUOUS
 62
       1
100
AcDbLine
 10
-331.70395407
 20
-199.7
 30
0.0
 11
-331.16245407
 21
-198.76209449
 31
0.0
  0
LINE
  5
1EE
100
AcDbEntity
  8
D-STR
  6
CONTINUOUS
 62
       1
100
AcDbLine
 10
-337.16245407
 20
-226.1585
 30
0.0
 11
-336.62095407
 21
-226.7
 31
0.0
  0
LINE
  5
1EF
100
AcDbEntity
  8
D-STR
  6
CONTINUOUS
 62
       1
100
AcDbLine
 10
-331.70395407
 20
-226.7
 30
0.0
 11
-331.16245407
 21
-226.1585
 31
0.0
  0
LINE
  5
1F0
100
AcDbEntity
  8
D-STR
  6
CONTINUOUS
 62
       1
100
AcDbLine
 10
-337.16245407
 20
-226.1585
 30
0.0
 11
-331.16245407
 21
-226.1585
 31
0.0
  0
ARC
  5
1F1
100
AcDbEntity
  8
D-STR
  6
CONTINUOUS
 62
       1
100
AcDbCircle
 10
-338.49258109
 20
-195.25582275
 30
0.0
 40
2.55582275
100
AcDbArc
 50
55.61575253
 51
124.38424747
  0
ARC
  5
1F2
100
AcDbEntity
  8
D-STR
  6
CONTINUOUS
 62
       1
100
AcDbCircle
 10
-329.83232705
 20
-195.25582275
 30
0.0
 40
2.55582275
100
AcDbArc
 50
55.61575253
 51
124.38424747
  0
LINE
  5
1F3
100
AcDbEntity
  8
D-BMK
  6
CENTER
 62
       2
100
AcDbLine
 10
-334.16245407
 20
-192.7
 30
0.0
 11
-334.16245407
 21
-226.7
 31
0.0
  0
LINE
  5
1F4
100
AcDbEntity
  8
D-STR
  6
CONTINUOUS
 62
       7
100
AcDbLine
 10
-336.62095407
 20
-199.7
 30
0.0
 11
-336.62095407
 21
-226.7
 31
0.0
  0
LINE
  5
1F5
100
AcDbEntity
  8
D-STR
  6
CONTINUOUS
 62
       7
100
AcDbLine
 10
-331.70395407
 20
-199.7
 30
0.0
 11
-331.70395407
 21
-226.7
 31
0.0
  0
ENDBLK
  5
1F6
100
AcDbEntity
  8
0
100
AcDbBlockEnd
  0
BLOCK
  5
1F7
100
AcDbEntity
  8
0
100
AcDbBlockBegin
  2
GROUP_27
 70
       0
 10
0.0
 20
0.0
 30
0.0
  3
GROUP_27
  1

  0
LINE
  5
1F8
100
AcDbEntity
  8
D-STR
  6
CONTINUOUS
 62
       1
100
AcDbLine
 10
-320.88339788
 20
-196.2
 30
0.0
 11
-305.87229088
 21
-196.2
 31
0.0
  0
LINE
  5
1F9
100
AcDbEntity
  8
D-STR
  6
CONTINUOUS
 62
       1
100
AcDbLine
 10
-319.87784438
 20
-191.5
 30
0.0
 11
-306.87784438
 21
-191.5
 31
0.0
  0
LINE
  5
1FA
100
AcDbEntity
  8
D-STR
  6
CONTINUOUS
 62
       1
100
AcDbLine
 10
-305.87229088
 20
-196.2
 30
0.0
 11
-305.87229088
 21
-192.08055658
 31
0.0
  0
LINE
  5
1FB
100
AcDbEntity
  8
D-STR
  6
CONTINUOUS
 62
       1
100
AcDbLine
 10
-320.88339788
 20
-196.2
 30
0.0
 11
-320.88339788
 21
-192.08055658
 31
0.0
  0
LINE
  5
1FC
100
AcDbEntity
  8
D-STR
  6
CONTINUOUS
 62
       1
100
AcDbLine
 10
-319.87784438
 20
-191.5
 30
0.0
 11
-320.88339788
 21
-192.08055658
 31
0.0
  0
LINE
  5
1FD
100
AcDbEntity
  8
D-STR
  6
CONTINUOUS
 62
       1
100
AcDbLine
 10
-306.87784438
 20
-191.5
 30
0.0
 11
-305.87229088
 21
-192.08055658
 31
0.0
  0
ARC
  5
1FE
100
AcDbEntity
  8
D-STR
  6
CONTINUOUS
 62
       1
100
AcDbCircle
 10
-313.37784438
 20
-203.91944342
 30
0.0
 40
12.41944342
100
AcDbArc
 50
72.41204623
 51
107.58795377
  0
LINE
  5
1FF
100
AcDbEntity
  8
D-STR
  6
CONTINUOUS
 62
       1
100
AcDbLine
 10
-309.62506763
 20
-196.2
 30
0.0
 11
-309.62506763
 21
-192.08055658
 31
0.0
  0
LINE
  5
200
100
AcDbEntity
  8
D-STR
  6
CONTINUOUS
 62
       1
100
AcDbLine
 10
-317.13062113
 20
-196.2
 30
0.0
 11
-317.13062113
 21
-192.08055658
 31
0.0
  0
LINE
  5
201
100
AcDbEntity
  8
D-STR
  6
CONTINUOUS
 62
       1
100
AcDbLine
 10
-318.89284438
 20
-196.8
 30
0.0
 11
-307.86284438
 21
-196.8
 31
0.0
  0
LINE
  5
202
100
AcDbEntity
  8
D-STR
  6
CONTINUOUS
 62
       1
100
AcDbLine
 10
-307.26284438
 20
-196.2
 30
0.0
 11
-307.86284438
 21
-196.8
 31
0.0
  0
LINE
  5
203
100
AcDbEntity
  8
D-STR
  6
CONTINUOUS
 62
       1
100
AcDbLine
 10
-319.49284438
 20
-196.2
 30
0.0
 11
-318.89284438
 21
-196.8
 31
0.0
  0
LINE
  5
204
100
AcDbEntity
  8
D-STR
  6
CONTINUOUS
 62
       1
100
AcDbLine
 10
-309.37784438
 20
-196.8
 30
0.0
 11
-309.37784438
 21
-236.1235
 31
0.0
  0
LINE
  5
205
100
AcDbEntity
  8
D-STR
  6
CONTINUOUS
 62
       1
100
AcDbLine
 10
-317.37784438
 20
-196.8
 30
0.0
 11
-317.37784438
 21
-236.1235
 31
0.0
  0
LINE
  5
206
100
AcDbEntity
  8
D-STR
  6
CONTINUOUS
 62
       1
100
AcDbLine
 10
-316.70134438
 20
-236.8
 30
0.0
 11
-310.05434438
 21
-236.8
 31
0.0
  0
LINE
  5
207
100
AcDbEntity
  8
D-STR
  6
CONTINUOUS
 62
       1
100
AcDbLine
 10
-317.37784438
 20
-200.8
 30
0.0
 11
-309.37784438
 21
-200.8
 31
0.0
  0
LINE
  5
208
100
AcDbEntity
  8
D-STR
  6
CONTINUOUS
 62
       1
100
AcDbLine
 10
-316.70134438
 20
-200.8
 30
0.0
 11
-317.37784438
 21
-199.62826763
 31
0.0
  0
LINE
  5
209
100
AcDbEntity
  8
D-STR
  6
CONTINUOUS
 62
       1
100
AcDbLine
 10
-310.05434438
 20
-200.8
 30
0.0
 11
-309.37784438
 21
-199.62826763
 31
0.0
  0
LINE
  5
20A
100
AcDbEntity
  8
D-STR
  6
CONTINUOUS
 62
       1
100
AcDbLine
 10
-317.37784438
 20
-236.1235
 30
0.0
 11
-316.70134438
 21
-236.8
 31
0.0
  0
LINE
  5
20B
100
AcDbEntity
  8
D-STR
  6
CONTINUOUS
 62
       1
100
AcDbLine
 10
-310.05434438
 20
-236.8
 30
0.0
 11
-309.37784438
 21
-236.1235
 31
0.0
  0
LINE
  5
20C
100
AcDbEntity
  8
D-STR
  6
CONTINUOUS
 62
       1
100
AcDbLine
 10
-317.37784438
 20
-236.1235
 30
0.0
 11
-309.37784438
 21
-236.1235
 31
0.0
  0
ARC
  5
20D
100
AcDbEntity
  8
D-STR
  6
CONTINUOUS
 62
       1
100
AcDbCircle
 10
-319.0070095
 20
-194.82256957
 30
0.0
 40
3.32256957
100
AcDbArc
 50
55.61575253
 51
124.38424747
  0
ARC
  5
20E
100
AcDbEntity
  8
D-STR
  6
CONTINUOUS
 62
       1
100
AcDbCircle
 10
-307.74867925
 20
-194.82256957
 30
0.0
 40
3.32256957
100
AcDbArc
 50
55.61575253
 51
124.38424747
  0
LINE
  5
20F
100
AcDbEntity
  8
D-BMK
  6
CENTER
 62
       2
100
AcDbLine
 10
-313.37784438
 20
-191.5
 30
0.0
 11
-313.37784438
 21
-236.8
 31
0.0
  0
LINE
  5
210
100
AcDbEntity
  8
D-STR
  6
CONTINUOUS
 62
       7
100
AcDbLine
 10
-316.70134438
 20
-200.8
 30
0.0
 11
-316.70134438
 21
-236.8
 31
0.0
  0
LINE
  5
211
100
AcDbEntity
  8
D-STR
  6
CONTINUOUS
 62
       7
100
AcDbLine
 10
-310.05434438
 20
-200.8
 30
0.0
 11
-310.05434438
 21
-236.8
 31
0.0
  0
ENDBLK
  5
212
100
AcDbEntity
  8
0
100
AcDbBlockEnd
  0
BLOCK
  5
213
100
AcDbEntity
  8
0
100
AcDbBlockBegin
  2
GROUP_28
 70
       0
 10
0.0
 20
0.0
 30
0.0
  3
GROUP_28
  1

  0
LINE
  5
214
100
AcDbEntity
  8
D-STR
  6
CONTINUOUS
 62
       1
100
AcDbLine
 10
-296.63468657
 20
-196.2
 30
0.0
 11
-278.15947796
 21
-196.2
 31
0.0
  0
LINE
  5
215
100
AcDbEntity
  8
D-STR
  6
CONTINUOUS
 62
       1
100
AcDbLine
 10
-295.39708227
 20
-190.4
 30
0.0
 11
-279.39708227
 21
-190.4
 31
0.0
  0
LINE
  5
216
100
AcDbEntity
  8
D-STR
  6
CONTINUOUS
 62
       1
100
AcDbLine
 10
-278.15947796
 20
-196.2
 30
0.0
 11
-278.15947796
 21
-191.11453118
 31
0.0
  0
LINE
  5
217
100
AcDbEntity
  8
D-STR
  6
CONTINUOUS
 62
       1
100
AcDbLine
 10
-296.63468657
 20
-196.2
 30
0.0
 11
-296.63468657
 21
-191.11453118
 31
0.0
  0
LINE
  5
218
100
AcDbEntity
  8
D-STR
  6
CONTINUOUS
 62
       1
100
AcDbLine
 10
-295.39708227
 20
-190.4
 30
0.0
 11
-296.63468657
 21
-191.11453118
 31
0.0
  0
LINE
  5
219
100
AcDbEntity
  8
D-STR
  6
CONTINUOUS
 62
       1
100
AcDbLine
 10
-279.39708227
 20
-190.4
 30
0.0
 11
-278.15947796
 21
-191.11453118
 31
0.0
  0
ARC
  5
21A
100
AcDbEntity
  8
D-STR
  6
CONTINUOUS
 62
       1
100
AcDbCircle
 10
-287.39708227
 20
-205.68546882
 30
0.0
 40
15.28546882
100
AcDbArc
 50
72.41204623
 51
107.58795377
  0
LINE
  5
21B
100
AcDbEntity
  8
D-STR
  6
CONTINUOUS
 62
       1
100
AcDbLine
 10
-282.77828011
 20
-196.2
 30
0.0
 11
-282.77828011
 21
-191.11453118
 31
0.0
  0
LINE
  5
21C
100
AcDbEntity
  8
D-STR
  6
CONTINUOUS
 62
       1
100
AcDbLine
 10
-292.01588442
 20
-196.2
 30
0.0
 11
-292.01588442
 21
-191.11453118
 31
0.0
  0
LINE
  5
21D
100
AcDbEntity
  8
D-STR
  6
CONTINUOUS
 62
       1
100
AcDbLine
 10
-294.41208227
 20
-196.8
 30
0.0
 11
-280.38208227
 21
-196.8
 31
0.0
  0
LINE
  5
21E
100
AcDbEntity
  8
D-STR
  6
CONTINUOUS
 62
       1
100
AcDbLine
 10
-279.78208227
 20
-196.2
 30
0.0
 11
-280.38208227
 21
-196.8
 31
0.0
  0
LINE
  5
21F
100
AcDbEntity
  8
D-STR
  6
CONTINUOUS
 62
       1
100
AcDbLine
 10
-295.01208227
 20
-196.2
 30
0.0
 11
-294.41208227
 21
-196.8
 31
0.0
  0
LINE
  5
220
100
AcDbEntity
  8
D-STR
  6
CONTINUOUS
 62
       1
100
AcDbLine
 10
-292.39708227
 20
-196.8
 30
0.0
 11
-292.39708227
 21
-240.9875
 31
0.0
  0
LINE
  5
221
100
AcDbEntity
  8
D-STR
  6
CONTINUOUS
 62
       1
100
AcDbLine
 10
-282.39708227
 20
-196.8
 30
0.0
 11
-282.39708227
 21
-240.9875
 31
0.0
  0
LINE
  5
222
100
AcDbEntity
  8
D-STR
  6
CONTINUOUS
 62
       1
100
AcDbLine
 10
-291.58458227
 20
-241.8
 30
0.0
 11
-283.20958227
 21
-241.8
 31
0.0
  0
LINE
  5
223
100
AcDbEntity
  8
D-STR
  6
CONTINUOUS
 62
       1
100
AcDbLine
 10
-292.39708227
 20
-201.3
 30
0.0
 11
-282.39708227
 21
-201.3
 31
0.0
  0
LINE
  5
224
100
AcDbEntity
  8
D-STR
  6
CONTINUOUS
 62
       1
100
AcDbLine
 10
-291.58458227
 20
-201.3
 30
0.0
 11
-292.39708227
 21
-199.89270872
 31
0.0
  0
LINE
  5
225
100
AcDbEntity
  8
D-STR
  6
CONTINUOUS
 62
       1
100
AcDbLine
 10
-283.20958227
 20
-201.3
 30
0.0
 11
-282.39708227
 21
-199.89270872
 31
0.0
  0
LINE
  5
226
100
AcDbEntity
  8
D-STR
  6
CONTINUOUS
 62
       1
100
AcDbLine
 10
-292.39708227
 20
-240.9875
 30
0.0
 11
-291.58458227
 21
-241.8
 31
0.0
  0
LINE
  5
227
100
AcDbEntity
  8
D-STR
  6
CONTINUOUS
 62
       1
100
AcDbLine
 10
-283.20958227
 20
-241.8
 30
0.0
 11
-282.39708227
 21
-240.9875
 31
0.0
  0
LINE
  5
228
100
AcDbEntity
  8
D-STR
  6
CONTINUOUS
 62
       1
100
AcDbLine
 10
-292.39708227
 20
-240.9875
 30
0.0
 11
-282.39708227
 21
-240.9875
 31
0.0
  0
ARC
  5
229
100
AcDbEntity
  8
D-STR
  6
CONTINUOUS
 62
       1
100
AcDbCircle
 10
-294.3252855
 20
-194.4893164
 30
0.0
 40
4.0893164
100
AcDbArc
 50
55.61575253
 51
124.38424747
  0
ARC
  5
22A
100
AcDbEntity
  8
D-STR
  6
CONTINUOUS
 62
       1
100
AcDbCircle
 10
-280.46887904
 20
-194.4893164
 30
0.0
 40
4.0893164
100
AcDbArc
 50
55.61575253
 51
124.38424747
  0
LINE
  5
22B
100
AcDbEntity
  8
D-BMK
  6
CENTER
 62
       2
100
AcDbLine
 10
-287.39708227
 20
-190.4
 30
0.0
 11
-287.39708227
 21
-241.8
 31
0.0
  0
LINE
  5
22C
100
AcDbEntity
  8
D-STR
  6
CONTINUOUS
 62
       7
100
AcDbLine
 10
-291.58458227
 20
-201.3
 30
0.0
 11
-291.58458227
 21
-241.8
 31
0.0
  0
LINE
  5
22D
100
AcDbEntity
  8
D-STR
  6
CONTINUOUS
 62
       7
100
AcDbLine
 10
-283.20958227
 20
-201.3
 30
0.0
 11
-283.20958227
 21
-241.8
 31
0.0
  0
ENDBLK
  5
22E
100
AcDbEntity
  8
0
100
AcDbBlockEnd
  0
BLOCK
  5
22F
100
AcDbEntity
  8
0
100
AcDbBlockBegin
  2
GROUP_29
 70
       0
 10
0.0
 20
0.0
 30
0.0
  3
GROUP_29
  1

  0
LINE
  5
230
100
AcDbEntity
  8
D-STR
  6
CONTINUOUS
 62
       1
100
AcDbLine
 10
-267.76717311
 20
-196.2
 30
0.0
 11
-246.98256342
 21
-196.2
 31
0.0
  0
LINE
  5
231
100
AcDbEntity
  8
D-STR
  6
CONTINUOUS
 62
       1
100
AcDbLine
 10
-266.37486827
 20
-189.3
 30
0.0
 11
-248.37486827
 21
-189.3
 31
0.0
  0
LINE
  5
232
100
AcDbEntity
  8
D-STR
  6
CONTINUOUS
 62
       1
100
AcDbLine
 10
-246.98256342
 20
-196.2
 30
0.0
 11
-246.98256342
 21
-190.10384758
 31
0.0
  0
LINE
  5
233
100
AcDbEntity
  8
D-STR
  6
CONTINUOUS
 62
       1
100
AcDbLine
 10
-267.76717311
 20
-196.2
 30
0.0
 11
-267.76717311
 21
-190.10384758
 31
0.0
  0
LINE
  5
234
100
AcDbEntity
  8
D-STR
  6
CONTINUOUS
 62
       1
100
AcDbLine
 10
-266.37486827
 20
-189.3
 30
0.0
 11
-267.76717311
 21
-190.10384758
 31
0.0
  0
LINE
  5
235
100
AcDbEntity
  8
D-STR
  6
CONTINUOUS
 62
       1
100
AcDbLine
 10
-248.37486827
 20
-189.3
 30
0.0
 11
-246.98256342
 21
-190.10384758
 31
0.0
  0
ARC
  5
236
100
AcDbEntity
  8
D-STR
  6
CONTINUOUS
 62
       1
100
AcDbCircle
 10
-257.37486827
 20
-206.49615242
 30
0.0
 40
17.19615242
100
AcDbArc
 50
72.41204623
 51
107.58795377
  0
LINE
  5
237
100
AcDbEntity
  8
D-STR
  6
CONTINUOUS
 62
       1
100
AcDbLine
 10
-252.17871585
 20
-196.2
 30
0.0
 11
-252.17871585
 21
-190.10384758
 31
0.0
  0
LINE
  5
238
100
AcDbEntity
  8
D-STR
  6
CONTINUOUS
 62
       1
100
AcDbLine
 10
-262.57102069
 20
-196.2
 30
0.0
 11
-262.57102069
 21
-190.10384758
 31
0.0
  0
LINE
  5
239
100
AcDbEntity
  8
D-STR
  6
CONTINUOUS
 62
       1
100
AcDbLine
 10
-265.38986827
 20
-196.8
 30
0.0
 11
-249.35986827
 21
-196.8
 31
0.0
  0
LINE
  5
23A
100
AcDbEntity
  8
D-STR
  6
CONTINUOUS
 62
       1
100
AcDbLine
 10
-248.75986827
 20
-196.2
 30
0.0
 11
-249.35986827
 21
-196.8
 31
0.0
  0
LINE
  5
23B
100
AcDbEntity
  8
D-STR
  6
CONTINUOUS
 62
       1
100
AcDbLine
 10
-265.98986827
 20
-196.2
 30
0.0
 11
-265.38986827
 21
-196.8
 31
0.0
  0
LINE
  5
23C
100
AcDbEntity
  8
D-STR
  6
CONTINUOUS
 62
       1
100
AcDbLine
 10
-263.37486827
 20
-196.8
 30
0.0
 11
-263.37486827
 21
-245.853
 31
0.0
  0
LINE
  5
23D
100
AcDbEntity
  8
D-STR
  6
CONTINUOUS
 62
       1
100
AcDbLine
 10
-251.37486827
 20
-196.8
 30
0.0
 11
-251.37486827
 21
-245.853
 31
0.0
  0
LINE
  5
23E
100
AcDbEntity
  8
D-STR
  6
CONTINUOUS
 62
       1
100
AcDbLine
 10
-262.42786827
 20
-246.8
 30
0.0
 11
-252.32186827
 21
-246.8
 31
0.0
  0
LINE
  5
23F
100
AcDbEntity
  8
D-STR
  6
CONTINUOUS
 62
       1
100
AcDbLine
 10
-263.37486827
 20
-202.1
 30
0.0
 11
-251.37486827
 21
-202.1
 31
0.0
  0
LINE
  5
240
100
AcDbEntity
  8
D-STR
  6
CONTINUOUS
 62
       1
100
AcDbLine
 10
-262.42786827
 20
-202.1
 30
0.0
 11
-263.37486827
 21
-200.45974789
 31
0.0
  0
LINE
  5
241
100
AcDbEntity
  8
D-STR
  6
CONTINUOUS
 62
       1
100
AcDbLine
 10
-252.32186827
 20
-202.1
 30
0.0
 11
-251.37486827
 21
-200.45974789
 31
0.0
  0
LINE
  5
242
100
AcDbEntity
  8
D-STR
  6
CONTINUOUS
 62
       1
100
AcDbLine
 10
-263.37486827
 20
-245.853
 30
0.0
 11
-262.42786827
 21
-246.8
 31
0.0
  0
LINE
  5
243
100
AcDbEntity
  8
D-STR
  6
CONTINUOUS
 62
       1
100
AcDbLine
 10
-252.32186827
 20
-246.8
 30
0.0
 11
-251.37486827
 21
-245.853
 31
0.0
  0
LINE
  5
244
100
AcDbEntity
  8
D-STR
  6
CONTINUOUS
 62
       1
100
AcDbLine
 10
-263.37486827
 20
-245.853
 30
0.0
 11
-251.37486827
 21
-245.853
 31
0.0
  0
ARC
  5
245
100
AcDbEntity
  8
D-STR
  6
CONTINUOUS
 62
       1
100
AcDbCircle
 10
-265.1690969
 20
-193.90048095
 30
0.0
 40
4.60048095
100
AcDbArc
 50
55.61575253
 51
124.38424747
  0
ARC
  5
246
100
AcDbEntity
  8
D-STR
  6
CONTINUOUS
 62
       1
100
AcDbCircle
 10
-249.58063963
 20
-193.90048095
 30
0.0
 40
4.60048095
100
AcDbArc
 50
55.61575253
 51
124.38424747
  0
LINE
  5
247
100
AcDbEntity
  8
D-BMK
  6
CENTER
 62
       2
100
AcDbLine
 10
-257.37486827
 20
-189.3
 30
0.0
 11
-257.37486827
 21
-246.8
 31
0.0
  0
LINE
  5
248
100
AcDbEntity
  8
D-STR
  6
CONTINUOUS
 62
       7
100
AcDbLine
 10
-262.42786827
 20
-202.1
 30
0.0
 11
-262.42786827
 21
-246.8
 31
0.0
  0
LINE
  5
249
100
AcDbEntity
  8
D-STR
  6
CONTINUOUS
 62
       7
100
AcDbLine
 10
-252.32186827
 20
-202.1
 30
0.0
 11
-252.32186827
 21
-246.8
 31
0.0
  0
ENDBLK
  5
24A
100
AcDbEntity
  8
0
100
AcDbBlockEnd
  0
BLOCK
  5
24B
100
AcDbEntity
  8
0
100
AcDbBlockBegin
  2
GROUP_30
 70
       0
 10
0.0
 20
0.0
 30
0.0
  3
GROUP_30
  1

  0
LINE
  5
24C
100
AcDbEntity
  8
D-STR
  6
CONTINUOUS
 62
       1
100
AcDbLine
 10
-233.12615696
 20
-196.2
 30
0.0
 11
-205.41334404
 21
-196.2
 31
0.0
  0
LINE
  5
24D
100
AcDbEntity
  8
D-STR
  6
CONTINUOUS
 62
       1
100
AcDbLine
 10
-231.2697505
 20
-187.0
 30
0.0
 11
-207.2697505
 21
-187.0
 31
0.0
  0
LINE
  5
24E
100
AcDbEntity
  8
D-STR
  6
CONTINUOUS
 62
       1
100
AcDbLine
 10
-205.41334404
 20
-196.2
 30
0.0
 11
-205.41334404
 21
-188.07179677
 31
0.0
  0
LINE
  5
24F
100
AcDbEntity
  8
D-STR
  6
CONTINUOUS
 62
       1
100
AcDbLine
 10
-233.12615696
 20
-196.2
 30
0.0
 11
-233.12615696
 21
-188.07179677
 31
0.0
  0
LINE
  5
250
100
AcDbEntity
  8
D-STR
  6
CONTINUOUS
 62
       1
100
AcDbLine
 10
-231.2697505
 20
-187.0
 30
0.0
 11
-233.12615696
 21
-188.07179677
 31
0.0
  0
LINE
  5
251
100
AcDbEntity
  8
D-STR
  6
CONTINUOUS
 62
       1
100
AcDbLine
 10
-207.2697505
 20
-187.0
 30
0.0
 11
-205.41334404
 21
-188.07179677
 31
0.0
  0
ARC
  5
252
100
AcDbEntity
  8
D-STR
  6
CONTINUOUS
 62
       1
100
AcDbCircle
 10
-219.2697505
 20
-209.92820323
 30
0.0
 40
22.92820323
100
AcDbArc
 50
72.41204623
 51
107.58795377
  0
LINE
  5
253
100
AcDbEntity
  8
D-STR
  6
CONTINUOUS
 62
       1
100
AcDbLine
 10
-212.34154727
 20
-196.2
 30
0.0
 11
-212.34154727
 21
-188.07179677
 31
0.0
  0
LINE
  5
254
100
AcDbEntity
  8
D-STR
  6
CONTINUOUS
 62
       1
100
AcDbLine
 10
-226.19795373
 20
-196.2
 30
0.0
 11
-226.19795373
 21
-188.07179677
 31
0.0
  0
LINE
  5
255
100
AcDbEntity
  8
D-STR
  6
CONTINUOUS
 62
       1
100
AcDbLine
 10
-230.1147505
 20
-197.0
 30
0.0
 11
-208.4247505
 21
-197.0
 31
0.0
  0
LINE
  5
256
100
AcDbEntity
  8
D-STR
  6
CONTINUOUS
 62
       1
100
AcDbLine
 10
-207.6247505
 20
-196.2
 30
0.0
 11
-208.4247505
 21
-197.0
 31
0.0
  0
LINE
  5
257
100
AcDbEntity
  8
D-STR
  6
CONTINUOUS
 62
       1
100
AcDbLine
 10
-230.9147505
 20
-196.2
 30
0.0
 11
-230.1147505
 21
-197.0
 31
0.0
  0
LINE
  5
258
100
AcDbEntity
  8
D-STR
  6
CONTINUOUS
 62
       1
100
AcDbLine
 10
-227.2697505
 20
-197.0
 30
0.0
 11
-227.2697505
 21
-260.9175
 31
0.0
  0
LINE
  5
259
100
AcDbEntity
  8
D-STR
  6
CONTINUOUS
 62
       1
100
AcDbLine
 10
-211.2697505
 20
-197.0
 30
0.0
 11
-211.2697505
 21
-260.9175
 31
0.0
  0
LINE
  5
25A
100
AcDbEntity
  8
D-STR
  6
CONTINUOUS
 62
       1
100
AcDbLine
 10
-226.1872505
 20
-262.0
 30
0.0
 11
-212.3522505
 21
-262.0
 31
0.0
  0
LINE
  5
25B
100
AcDbEntity
  8
D-STR
  6
CONTINUOUS
 62
       1
100
AcDbLine
 10
-227.2697505
 20
-203.0
 30
0.0
 11
-211.2697505
 21
-203.0
 31
0.0
  0
LINE
  5
25C
100
AcDbEntity
  8
D-STR
  6
CONTINUOUS
 62
       1
100
AcDbLine
 10
-226.1872505
 20
-203.0
 30
0.0
 11
-227.2697505
 21
-201.125055
 31
0.0
  0
LINE
  5
25D
100
AcDbEntity
  8
D-STR
  6
CONTINUOUS
 62
       1
100
AcDbLine
 10
-212.3522505
 20
-203.0
 30
0.0
 11
-211.2697505
 21
-201.125055
 31
0.0
  0
LINE
  5
25E
100
AcDbEntity
  8
D-STR
  6
CONTINUOUS
 62
       1
100
AcDbLine
 10
-227.2697505
 20
-260.9175
 30
0.0
 11
-226.1872505
 21
-262.0
 31
0.0
  0
LINE
  5
25F
100
AcDbEntity
  8
D-STR
  6
CONTINUOUS
 62
       1
100
AcDbLine
 10
-212.3522505
 20
-262.0
 30
0.0
 11
-211.2697505
 21
-260.9175
 31
0.0
  0
LINE
  5
260
100
AcDbEntity
  8
D-STR
  6
CONTINUOUS
 62
       1
100
AcDbLine
 10
-227.2697505
 20
-260.9175
 30
0.0
 11
-211.2697505
 21
-260.9175
 31
0.0
  0
ARC
  5
261
100
AcDbEntity
  8
D-STR
  6
CONTINUOUS
 62
       1
100
AcDbCircle
 10
-229.66205535
 20
-193.1339746
 30
0.0
 40
6.1339746
100
AcDbArc
 50
55.61575253
 51
124.38424747
  0
ARC
  5
262
100
AcDbEntity
  8
D-STR
  6
CONTINUOUS
 62
       1
100
AcDbCircle
 10
-208.87744566
 20
-193.1339746
 30
0.0
 40
6.1339746
100
AcDbArc
 50
55.61575253
 51
124.38424747
  0
LINE
  5
263
100
AcDbEntity
  8
D-BMK
  6
CENTER
 62
       2
100
AcDbLine
 10
-219.2697505
 20
-187.0
 30
0.0
 11
-219.2697505
 21
-262.0
 31
0.0
  0
LINE
  5
264
100
AcDbEntity
  8
D-STR
  6
CONTINUOUS
 62
       7
100
AcDbLine
 10
-226.1872505
 20
-203.0
 30
0.0
 11
-226.1872505
 21
-262.0
 31
0.0
  0
LINE
  5
265
100
AcDbEntity
  8
D-STR
  6
CONTINUOUS
 62
       7
100
AcDbLine
 10
-212.3522505
 20
-203.0
 30
0.0
 11
-212.3522505
 21
-262.0
 31
0.0
  0
ENDBLK
  5
266
100
AcDbEntity
  8
0
100
AcDbBlockEnd
  0
BLOCK
  5
267
100
AcDbEntity
  8
0
100
AcDbBlockBegin
  2
GROUP_31
 70
       0
 10
0.0
 20
0.0
 30
0.0
  3
GROUP_31
  1

  0
LINE
  5
268
100
AcDbEntity
  8
D-STR
  6
CONTINUOUS
 62
       1
100
AcDbLine
 10
-188.09283597
 20
-196.2
 30
0.0
 11
-153.45181981
 21
-196.2
 31
0.0
  0
LINE
  5
269
100
AcDbEntity
  8
D-STR
  6
CONTINUOUS
 62
       1
100
AcDbLine
 10
-185.77232789
 20
-184.5
 30
0.0
 11
-155.77232789
 21
-184.5
 31
0.0
  0
LINE
  5
26A
100
AcDbEntity
  8
D-STR
  6
CONTINUOUS
 62
       1
100
AcDbLine
 10
-153.45181981
 20
-196.2
 30
0.0
 11
-153.45181981
 21
-185.83974596
 31
0.0
  0
LINE
  5
26B
100
AcDbEntity
  8
D-STR
  6
CONTINUOUS
 62
       1
100
AcDbLine
 10
-188.09283597
 20
-196.2
 30
0.0
 11
-188.09283597
 21
-185.83974596
 31
0.0
  0
LINE
  5
26C
100
AcDbEntity
  8
D-STR
  6
CONTINUOUS
 62
       1
100
AcDbLine
 10
-185.77232789
 20
-184.5
 30
0.0
 11
-188.09283597
 21
-185.83974596
 31
0.0
  0
LINE
  5
26D
100
AcDbEntity
  8
D-STR
  6
CONTINUOUS
 62
       1
100
AcDbLine
 10
-155.77232789
 20
-184.5
 30
0.0
 11
-153.45181981
 21
-185.83974596
 31
0.0
  0
ARC
  5
26E
100
AcDbEntity
  8
D-STR
  6
CONTINUOUS
 62
       1
100
AcDbCircle
 10
-170.77232789
 20
-213.16025404
 30
0.0
 40
28.66025404
100
AcDbArc
 50
72.41204623
 51
107.58795377
  0
LINE
  5
26F
100
AcDbEntity
  8
D-STR
  6
CONTINUOUS
 62
       1
100
AcDbLine
 10
-162.11207385
 20
-196.2
 30
0.0
 11
-162.11207385
 21
-185.83974596
 31
0.0
  0
LINE
  5
270
100
AcDbEntity
  8
D-STR
  6
CONTINUOUS
 62
       1
100
AcDbLine
 10
-179.43258193
 20
-196.2
 30
0.0
 11
-179.43258193
 21
-185.83974596
 31
0.0
  0
LINE
  5
271
100
AcDbEntity
  8
D-STR
  6
CONTINUOUS
 62
       1
100
AcDbLine
 10
-184.46732789
 20
-197.0
 30
0.0
 11
-157.07732789
 21
-197.0
 31
0.0
  0
LINE
  5
272
100
AcDbEntity
  8
D-STR
  6
CONTINUOUS
 62
       1
100
AcDbLine
 10
-156.27732789
 20
-196.2
 30
0.0
 11
-157.07732789
 21
-197.0
 31
0.0
  0
LINE
  5
273
100
AcDbEntity
  8
D-STR
  6
CONTINUOUS
 62
       1
100
AcDbLine
 10
-185.26732789
 20
-196.2
 30
0.0
 11
-184.46732789
 21
-197.0
 31
0.0
  0
LINE
  5
274
100
AcDbEntity
  8
D-STR
  6
CONTINUOUS
 62
       1
100
AcDbLine
 10
-180.77232789
 20
-197.0
 30
0.0
 11
-180.77232789
 21
-275.647
 31
0.0
  0
LINE
  5
275
100
AcDbEntity
  8
D-STR
  6
CONTINUOUS
 62
       1
100
AcDbLine
 10
-160.77232789
 20
-197.0
 30
0.0
 11
-160.77232789
 21
-275.647
 31
0.0
  0
LINE
  5
276
100
AcDbEntity
  8
D-STR
  6
CONTINUOUS
 62
       1
100
AcDbLine
 10
-179.41932789
 20
-277.0
 30
0.0
 11
-162.12532789
 21
-277.0
 31
0.0
  0
LINE
  5
277
100
AcDbEntity
  8
D-STR
  6
CONTINUOUS
 62
       1
100
AcDbLine
 10
-180.77232789
 20
-204.5
 30
0.0
 11
-160.77232789
 21
-204.5
 31
0.0
  0
LINE
  5
278
100
AcDbEntity
  8
D-STR
  6
CONTINUOUS
 62
       1
100
AcDbLine
 10
-179.41932789
 20
-204.5
 30
0.0
 11
-180.77232789
 21
-202.15653526
 31
0.0
  0
LINE
  5
279
100
AcDbEntity
  8
D-STR
  6
CONTINUOUS
 62
       1
100
AcDbLine
 10
-162.12532789
 20
-204.5
 30
0.0
 11
-160.77232789
 21
-202.15653526
 31
0.0
  0
LINE
  5
27A
100
AcDbEntity
  8
D-STR
  6
CONTINUOUS
 62
       1
100
AcDbLine
 10
-180.77232789
 20
-275.647
 30
0.0
 11
-179.41932789
 21
-277.0
 31
0.0
  0
LINE
  5
27B
100
AcDbEntity
  8
D-STR
  6
CONTINUOUS
 62
       1
100
AcDbLine
 10
-162.12532789
 20
-277.0
 30
0.0
 11
-160.77232789
 21
-275.647
 31
0.0
  0
LINE
  5
27C
100
AcDbEntity
  8
D-STR
  6
CONTINUOUS
 62
       1
100
AcDbLine
 10
-180.77232789
 20
-275.647
 30
0.0
 11
-160.77232789
 21
-275.647
 31
0.0
  0
ARC
  5
27D
100
AcDbEntity
  8
D-STR
  6
CONTINUOUS
 62
       1
100
AcDbCircle
 10
-183.76270895
 20
-192.16746825
 30
0.0
 40
7.66746825
100
AcDbArc
 50
55.61575253
 51
124.38424747
  0
ARC
  5
27E
100
AcDbEntity
  8
D-STR
  6
CONTINUOUS
 62
       1
100
AcDbCircle
 10
-157.78194683
 20
-192.16746825
 30
0.0
 40
7.66746825
100
AcDbArc
 50
55.61575253
 51
124.38424747
  0
LINE
  5
27F
100
AcDbEntity
  8
D-BMK
  6
CENTER
 62
       2
100
AcDbLine
 10
-170.77232789
 20
-184.5
 30
0.0
 11
-170.77232789
 21
-277.0
 31
0.0
  0
LINE
  5
280
100
AcDbEntity
  8
D-STR
  6
CONTINUOUS
 62
       7
100
AcDbLine
 10
-179.41932789
 20
-204.5
 30
0.0
 11
-179.41932789
 21
-277.0
 31
0.0
  0
LINE
  5
281
100
AcDbEntity
  8
D-STR
  6
CONTINUOUS
 62
       7
100
AcDbLine
 10
-162.12532789
 20
-204.5
 30
0.0
 11
-162.12532789
 21
-277.0
 31
0.0
  0
ENDBLK
  5
282
100
AcDbEntity
  8
0
100
AcDbBlockEnd
  0
BLOCK
  5
283
100
AcDbEntity
  8
0
100
AcDbBlockBegin
  2
GROUP_32
 70
       0
 10
0.0
 20
0.0
 30
0.0
  3
GROUP_32
  1

  0
LINE
  5
284
100
AcDbEntity
  8
D-STR
  6
CONTINUOUS
 62
       1
100
AcDbLine
 10
-370.26260937
 20
48.0
 30
0.0
 11
-328.69338999
 21
48.0
 31
0.0
  0
LINE
  5
285
100
AcDbEntity
  8
D-STR
  6
CONTINUOUS
 62
       1
100
AcDbLine
 10
-367.47799968
 20
62.2
 30
0.0
 11
-331.47799968
 21
62.2
 31
0.0
  0
LINE
  5
286
100
AcDbEntity
  8
D-STR
  6
CONTINUOUS
 62
       1
100
AcDbLine
 10
-328.69338999
 20
48.0
 30
0.0
 11
-328.69338999
 21
60.59230485
 31
0.0
  0
LINE
  5
287
100
AcDbEntity
  8
D-STR
  6
CONTINUOUS
 62
       1
100
AcDbLine
 10
-370.26260937
 20
48.0
 30
0.0
 11
-370.26260937
 21
60.59230485
 31
0.0
  0
LINE
  5
288
100
AcDbEntity
  8
D-STR
  6
CONTINUOUS
 62
       1
100
AcDbLine
 10
-367.47799968
 20
62.2
 30
0.0
 11
-370.26260937
 21
60.59230485
 31
0.0
  0
LINE
  5
289
100
AcDbEntity
  8
D-STR
  6
CONTINUOUS
 62
       1
100
AcDbLine
 10
-331.47799968
 20
62.2
 30
0.0
 11
-328.69338999
 21
60.59230485
 31
0.0
  0
ARC
  5
28A
100
AcDbEntity
  8
D-STR
  6
CONTINUOUS
 62
       1
100
AcDbCircle
 10
-349.47799968
 20
27.80769515
 30
0.0
 40
34.39230485
100
AcDbArc
 50
72.41204623
 51
107.58795377
  0
LINE
  5
28B
100
AcDbEntity
  8
D-STR
  6
CONTINUOUS
 62
       1
100
AcDbLine
 10
-339.08569483
 20
48.0
 30
0.0
 11
-339.08569483
 21
60.59230485
 31
0.0
  0
LINE
  5
28C
100
AcDbEntity
  8
D-STR
  6
CONTINUOUS
 62
       1
100
AcDbLine
 10
-359.87030452
 20
48.0
 30
0.0
 11
-359.87030452
 21
60.59230485
 31
0.0
  0
LINE
  5
28D
100
AcDbEntity
  8
D-STR
  6
CONTINUOUS
 62
       1
100
AcDbLine
 10
-365.88299968
 20
47.2
 30
0.0
 11
-333.07299968
 21
47.2
 31
0.0
  0
LINE
  5
28E
100
AcDbEntity
  8
D-STR
  6
CONTINUOUS
 62
       1
100
AcDbLine
 10
-332.27299968
 20
48.0
 30
0.0
 11
-333.07299968
 21
47.2
 31
0.0
  0
LINE
  5
28F
100
AcDbEntity
  8
D-STR
  6
CONTINUOUS
 62
       1
100
AcDbLine
 10
-366.68299968
 20
48.0
 30
0.0
 11
-365.88299968
 21
47.2
 31
0.0
  0
LINE
  5
290
100
AcDbEntity
  8
D-STR
  6
CONTINUOUS
 62
       1
100
AcDbLine
 10
-361.47799968
 20
47.2
 30
0.0
 11
-361.47799968
 21
-41.176
 31
0.0
  0
LINE
  5
291
100
AcDbEntity
  8
D-STR
  6
CONTINUOUS
 62
       1
100
AcDbLine
 10
-337.47799968
 20
47.2
 30
0.0
 11
-337.47799968
 21
-41.176
 31
0.0
  0
LINE
  5
292
100
AcDbEntity
  8
D-STR
  6
CONTINUOUS
 62
       1
100
AcDbLine
 10
-359.85399968
 20
-42.8
 30
0.0
 11
-339.10199968
 21
-42.8
 31
0.0
  0
LINE
  5
293
100
AcDbEntity
  8
D-STR
  6
CONTINUOUS
 62
       1
100
AcDbLine
 10
-361.47799968
 20
38.2
 30
0.0
 11
-337.47799968
 21
38.2
 31
0.0
  0
LINE
  5
294
100
AcDbEntity
  8
D-STR
  6
CONTINUOUS
 62
       1
100
AcDbLine
 10
-359.85399968
 20
38.2
 30
0.0
 11
-361.47799968
 21
41.01285051
 31
0.0
  0
LINE
  5
295
100
AcDbEntity
  8
D-STR
  6
CONTINUOUS
 62
       1
100
AcDbLine
 10
-339.10199968
 20
38.2
 30
0.0
 11
-337.47799968
 21
41.01285051
 31
0.0
  0
LINE
  5
296
100
AcDbEntity
  8
D-STR
  6
CONTINUOUS
 62
       1
100
AcDbLine
 10
-361.47799968
 20
-41.176
 30
0.0
 11
-359.85399968
 21
-42.8
 31
0.0
  0
LINE
  5
297
100
AcDbEntity
  8
D-STR
  6
CONTINUOUS
 62
       1
100
AcDbLine
 10
-339.10199968
 20
-42.8
 30
0.0
 11
-337.47799968
 21
-41.176
 31
0.0
  0
LINE
  5
298
100
AcDbEntity
  8
D-STR
  6
CONTINUOUS
 62
       1
100
AcDbLine
 10
-361.47799968
 20
-41.176
 30
0.0
 11
-337.47799968
 21
-41.176
 31
0.0
  0
ARC
  5
299
100
AcDbEntity
  8
D-STR
  6
CONTINUOUS
 62
       1
100
AcDbCircle
 10
-365.06645695
 20
52.99903811
 30
0.0
 40
9.20096189
100
AcDbArc
 50
55.61575253
 51
124.38424747
  0
ARC
  5
29A
100
AcDbEntity
  8
D-STR
  6
CONTINUOUS
 62
       1
100
AcDbCircle
 10
-333.88954241
 20
52.99903811
 30
0.0
 40
9.20096189
100
AcDbArc
 50
55.61575253
 51
124.38424747
  0
LINE
  5
29B
100
AcDbEntity
  8
D-BMK
  6
CENTER
 62
       2
100
AcDbLine
 10
-349.47799968
 20
62.2
 30
0.0
 11
-349.47799968
 21
-42.8
 31
0.0
  0
LINE
  5
29C
100
AcDbEntity
  8
D-STR
  6
CONTINUOUS
 62
       7
100
AcDbLine
 10
-359.85399968
 20
38.2
 30
0.0
 11
-359.85399968
 21
-42.8
 31
0.0
  0
LINE
  5
29D
100
AcDbEntity
  8
D-STR
  6
CONTINUOUS
 62
       7
100
AcDbLine
 10
-339.10199968
 20
38.2
 30
0.0
 11
-339.10199968
 21
-42.8
 31
0.0
  0
ENDBLK
  5
29E
100
AcDbEntity
  8
0
100
AcDbBlockEnd
  0
BLOCK
  5
29F
100
AcDbEntity
  8
0
100
AcDbBlockBegin
  2
GROUP_33
 70
       0
 10
0.0
 20
0.0
 30
0.0
  3
GROUP_33
  1

  0
LINE
  5
2A0
100
AcDbEntity
  8
D-STR
  6
CONTINUOUS
 62
       1
100
AcDbLine
 10
-302.1352776
 20
48.0
 30
0.0
 11
-249.01905284
 21
48.0
 31
0.0
  0
LINE
  5
2A1
100
AcDbEntity
  8
D-STR
  6
CONTINUOUS
 62
       1
100
AcDbLine
 10
-298.57716522
 20
65.9
 30
0.0
 11
-252.57716522
 21
65.9
 31
0.0
  0
LINE
  5
2A2
100
AcDbEntity
  8
D-STR
  6
CONTINUOUS
 62
       1
100
AcDbLine
 10
-249.01905284
 20
48.0
 30
0.0
 11
-249.01905284
 21
63.84572286
 31
0.0
  0
LINE
  5
2A3
100
AcDbEntity
  8
D-STR
  6
CONTINUOUS
 62
       1
100
AcDbLine
 10
-302.1352776
 20
48.0
 30
0.0
 11
-302.1352776
 21
63.84572286
 31
0.0
  0
LINE
  5
2A4
100
AcDbEntity
  8
D-STR
  6
CONTINUOUS
 62
       1
100
AcDbLine
 10
-298.57716522
 20
65.9
 30
0.0
 11
-302.1352776
 21
63.84572286
 31
0.0
  0
LINE
  5
2A5
100
AcDbEntity
  8
D-STR
  6
CONTINUOUS
 62
       1
100
AcDbLine
 10
-252.57716522
 20
65.9
 30
0.0
 11
-249.01905284
 21
63.84572286
 31
0.0
  0
ARC
  5
2A6
100
AcDbEntity
  8
D-STR
  6
CONTINUOUS
 62
       1
100
AcDbCircle
 10
-275.57716522
 20
21.95427714
 30
0.0
 40
43.94572286
100
AcDbArc
 50
72.41204623
 51
107.58795377
  0
LINE
  5
2A7
100
AcDbEntity
  8
D-STR
  6
CONTINUOUS
 62
       1
100
AcDbLine
 10
-262.29810903
 20
48.0
 30
0.0
 11
-262.29810903
 21
63.84572286
 31
0.0
  0
LINE
  5
2A8
100
AcDbEntity
  8
D-STR
  6
CONTINUOUS
 62
       1
100
AcDbLine
 10
-288.85622141
 20
48.0
 30
0.0
 11
-288.85622141
 21
63.84572286
 31
0.0
  0
LINE
  5
2A9
100
AcDbEntity
  8
D-STR
  6
CONTINUOUS
 62
       1
100
AcDbLine
 10
-296.55216522
 20
47.2
 30
0.0
 11
-254.60216522
 21
47.2
 31
0.0
  0
LINE
  5
2AA
100
AcDbEntity
  8
D-STR
  6
CONTINUOUS
 62
       1
100
AcDbLine
 10
-253.80216522
 20
48.0
 30
0.0
 11
-254.60216522
 21
47.2
 31
0.0
  0
LINE
  5
2AB
100
AcDbEntity
  8
D-STR
  6
CONTINUOUS
 62
       1
100
AcDbLine
 10
-297.35216522
 20
48.0
 30
0.0
 11
-296.55216522
 21
47.2
 31
0.0
  0
LINE
  5
2AC
100
AcDbEntity
  8
D-STR
  6
CONTINUOUS
 62
       1
100
AcDbLine
 10
-290.57716522
 20
47.2
 30
0.0
 11
-290.57716522
 21
-60.9055
 31
0.0
  0
LINE
  5
2AD
100
AcDbEntity
  8
D-STR
  6
CONTINUOUS
 62
       1
100
AcDbLine
 10
-260.57716522
 20
47.2
 30
0.0
 11
-260.57716522
 21
-60.9055
 31
0.0
  0
LINE
  5
2AE
100
AcDbEntity
  8
D-STR
  6
CONTINUOUS
 62
       1
100
AcDbLine
 10
-288.68266522
 20
-62.8
 30
0.0
 11
-262.47166522
 21
-62.8
 31
0.0
  0
LINE
  5
2AF
100
AcDbEntity
  8
D-STR
  6
CONTINUOUS
 62
       1
100
AcDbLine
 10
-290.57716522
 20
36.7
 30
0.0
 11
-260.57716522
 21
36.7
 31
0.0
  0
LINE
  5
2B0
100
AcDbEntity
  8
D-STR
  6
CONTINUOUS
 62
       1
100
AcDbLine
 10
-288.68266522
 20
36.7
 30
0.0
 11
-290.57716522
 21
39.98137025
 31
0.0
  0
LINE
  5
2B1
100
AcDbEntity
  8
D-STR
  6
CONTINUOUS
 62
       1
100
AcDbLine
 10
-262.47166522
 20
36.7
 30
0.0
 11
-260.57716522
 21
39.98137025
 31
0.0
  0
LINE
  5
2B2
100
AcDbEntity
  8
D-STR
  6
CONTINUOUS
 62
       1
100
AcDbLine
 10
-290.57716522
 20
-60.9055
 30
0.0
 11
-288.68266522
 21
-62.8
 31
0.0
  0
LINE
  5
2B3
100
AcDbEntity
  8
D-STR
  6
CONTINUOUS
 62
       1
100
AcDbLine
 10
-262.47166522
 20
-62.8
 30
0.0
 11
-260.57716522
 21
-60.9055
 31
0.0
  0
LINE
  5
2B4
100
AcDbEntity
  8
D-STR
  6
CONTINUOUS
 62
       1
100
AcDbLine
 10
-290.57716522
 20
-60.9055
 30
0.0
 11
-260.57716522
 21
-60.9055
 31
0.0
  0
ARC
  5
2B5
100
AcDbEntity
  8
D-STR
  6
CONTINUOUS
 62
       1
100
AcDbCircle
 10
-295.49574951
 20
54.14321536
 30
0.0
 40
11.75678464
100
AcDbArc
 50
55.61575253
 51
124.38424747
  0
ARC
  5
2B6
100
AcDbEntity
  8
D-STR
  6
CONTINUOUS
 62
       1
100
AcDbCircle
 10
-255.65858093
 20
54.14321536
 30
0.0
 40
11.75678464
100
AcDbArc
 50
55.61575253
 51
124.38424747
  0
LINE
  5
2B7
100
AcDbEntity
  8
D-BMK
  6
CENTER
 62
       2
100
AcDbLine
 10
-275.57716522
 20
65.9
 30
0.0
 11
-275.57716522
 21
-62.8
 31
0.0
  0
LINE
  5
2B8
100
AcDbEntity
  8
D-STR
  6
CONTINUOUS
 62
       7
100
AcDbLine
 10
-288.68266522
 20
36.7
 30
0.0
 11
-288.68266522
 21
-62.8
 31
0.0
  0
LINE
  5
2B9
100
AcDbEntity
  8
D-STR
  6
CONTINUOUS
 62
       7
100
AcDbLine
 10
-262.47166522
 20
36.7
 30
0.0
 11
-262.47166522
 21
-62.8
 31
0.0
  0
ENDBLK
  5
2BA
100
AcDbEntity
  8
0
100
AcDbBlockEnd
  0
BLOCK
  5
2BB
100
AcDbEntity
  8
0
100
AcDbBlockBegin
  2
GROUP_34
 70
       0
 10
0.0
 20
0.0
 30
0.0
  3
GROUP_34
  1

  0
LINE
  5
2BC
100
AcDbEntity
  8
D-STR
  6
CONTINUOUS
 62
       1
100
AcDbLine
 10
-217.26478803
 20
48.0
 30
0.0
 11
-153.75625842
 21
48.0
 31
0.0
  0
LINE
  5
2BD
100
AcDbEntity
  8
D-STR
  6
CONTINUOUS
 62
       1
100
AcDbLine
 10
-213.01052323
 20
69.7
 30
0.0
 11
-158.01052323
 21
69.7
 31
0.0
  0
LINE
  5
2BE
100
AcDbEntity
  8
D-STR
  6
CONTINUOUS
 62
       1
100
AcDbLine
 10
-153.75625842
 20
48.0
 30
0.0
 11
-153.75625842
 21
67.24379907
 31
0.0
  0
LINE
  5
2BF
100
AcDbEntity
  8
D-STR
  6
CONTINUOUS
 62
       1
100
AcDbLine
 10
-217.26478803
 20
48.0
 30
0.0
 11
-217.26478803
 21
67.24379907
 31
0.0
  0
LINE
  5
2C0
100
AcDbEntity
  8
D-STR
  6
CONTINUOUS
 62
       1
100
AcDbLine
 10
-213.01052323
 20
69.7
 30
0.0
 11
-217.26478803
 21
67.24379907
 31
0.0
  0
LINE
  5
2C1
100
AcDbEntity
  8
D-STR
  6
CONTINUOUS
 62
       1
100
AcDbLine
 10
-158.01052323
 20
69.7
 30
0.0
 11
-153.75625842
 21
67.24379907
 31
0.0
  0
ARC
  5
2C2
100
AcDbEntity
  8
D-STR
  6
CONTINUOUS
 62
       1
100
AcDbCircle
 10
-185.51052323
 20
17.15620093
 30
0.0
 40
52.54379907
100
AcDbArc
 50
72.41204623
 51
107.58795377
  0
LINE
  5
2C3
100
AcDbEntity
  8
D-STR
  6
CONTINUOUS
 62
       1
100
AcDbLine
 10
-169.63339082
 20
48.0
 30
0.0
 11
-169.63339082
 21
67.24379907
 31
0.0
  0
LINE
  5
2C4
100
AcDbEntity
  8
D-STR
  6
CONTINUOUS
 62
       1
100
AcDbLine
 10
-201.38765563
 20
48.0
 30
0.0
 11
-201.38765563
 21
67.24379907
 31
0.0
  0
LINE
  5
2C5
100
AcDbEntity
  8
D-STR
  6
CONTINUOUS
 62
       1
100
AcDbLine
 10
-210.66552323
 20
47.2
 30
0.0
 11
-160.35552323
 21
47.2
 31
0.0
  0
LINE
  5
2C6
100
AcDbEntity
  8
D-STR
  6
CONTINUOUS
 62
       1
100
AcDbLine
 10
-159.55552323
 20
48.0
 30
0.0
 11
-160.35552323
 21
47.2
 31
0.0
  0
LINE
  5
2C7
100
AcDbEntity
  8
D-STR
  6
CONTINUOUS
 62
       1
100
AcDbLine
 10
-211.46552323
 20
48.0
 30
0.0
 11
-210.66552323
 21
47.2
 31
0.0
  0
LINE
  5
2C8
100
AcDbEntity
  8
D-STR
  6
CONTINUOUS
 62
       1
100
AcDbLine
 10
-203.51052323
 20
47.2
 30
0.0
 11
-203.51052323
 21
-90.635
 31
0.0
  0
LINE
  5
2C9
100
AcDbEntity
  8
D-STR
  6
CONTINUOUS
 62
       1
100
AcDbLine
 10
-167.51052323
 20
47.2
 30
0.0
 11
-167.51052323
 21
-90.635
 31
0.0
  0
LINE
  5
2CA
100
AcDbEntity
  8
D-STR
  6
CONTINUOUS
 62
       1
100
AcDbLine
 10
-201.34552323
 20
-92.8
 30
0.0
 11
-169.67552323
 21
-92.8
 31
0.0
  0
LINE
  5
2CB
100
AcDbEntity
  8
D-STR
  6
CONTINUOUS
 62
       1
100
AcDbLine
 10
-203.51052323
 20
35.2
 30
0.0
 11
-167.51052323
 21
35.2
 31
0.0
  0
LINE
  5
2CC
100
AcDbEntity
  8
D-STR
  6
CONTINUOUS
 62
       1
100
AcDbLine
 10
-201.34552323
 20
35.2
 30
0.0
 11
-203.51052323
 21
38.94989
 31
0.0
  0
LINE
  5
2CD
100
AcDbEntity
  8
D-STR
  6
CONTINUOUS
 62
       1
100
AcDbLine
 10
-169.67552323
 20
35.2
 30
0.0
 11
-167.51052323
 21
38.94989
 31
0.0
  0
LINE
  5
2CE
100
AcDbEntity
  8
D-STR
  6
CONTINUOUS
 62
       1
100
AcDbLine
 10
-203.51052323
 20
-90.635
 30
0.0
 11
-201.34552323
 21
-92.8
 31
0.0
  0
LINE
  5
2CF
100
AcDbEntity
  8
D-STR
  6
CONTINUOUS
 62
       1
100
AcDbLine
 10
-169.67552323
 20
-92.8
 30
0.0
 11
-167.51052323
 21
-90.635
 31
0.0
  0
LINE
  5
2D0
100
AcDbEntity
  8
D-STR
  6
CONTINUOUS
 62
       1
100
AcDbLine
 10
-203.51052323
 20
-90.635
 30
0.0
 11
-167.51052323
 21
-90.635
 31
0.0
  0
ARC
  5
2D1
100
AcDbEntity
  8
D-STR
  6
CONTINUOUS
 62
       1
100
AcDbCircle
 10
-209.32622183
 20
55.64297488
 30
0.0
 40
14.05702512
100
AcDbArc
 50
55.61575253
 51
124.38424747
  0
ARC
  5
2D2
100
AcDbEntity
  8
D-STR
  6
CONTINUOUS
 62
       1
100
AcDbCircle
 10
-161.69482462
 20
55.64297488
 30
0.0
 40
14.05702512
100
AcDbArc
 50
55.61575253
 51
124.38424747
  0
LINE
  5
2D3
100
AcDbEntity
  8
D-BMK
  6
CENTER
 62
       2
100
AcDbLine
 10
-185.51052323
 20
69.7
 30
0.0
 11
-185.51052323
 21
-92.8
 31
0.0
  0
LINE
  5
2D4
100
AcDbEntity
  8
D-STR
  6
CONTINUOUS
 62
       7
100
AcDbLine
 10
-201.34552323
 20
35.2
 30
0.0
 11
-201.34552323
 21
-92.8
 31
0.0
  0
LINE
  5
2D5
100
AcDbEntity
  8
D-STR
  6
CONTINUOUS
 62
       7
100
AcDbLine
 10
-169.67552323
 20
35.2
 30
0.0
 11
-169.67552323
 21
-92.8
 31
0.0
  0
ENDBLK
  5
2D6
100
AcDbEntity
  8
0
100
AcDbBlockEnd
  0
BLOCK
  5
2D7
100
AcDbEntity
  8
0
100
AcDbBlockBegin
  2
GROUP_35
 70
       0
 10
0.0
 20
0.0
 30
0.0
  3
GROUP_35
  1

  0
LINE
  5
2D8
100
AcDbEntity
  8
D-STR
  6
CONTINUOUS
 62
       1
100
AcDbLine
 10
-116.22849092
 20
48.0
 30
0.0
 11
-41.17295593
 21
48.0
 31
0.0
  0
LINE
  5
2D9
100
AcDbEntity
  8
D-STR
  6
CONTINUOUS
 62
       1
100
AcDbLine
 10
-111.20072343
 20
73.0
 30
0.0
 11
-46.20072343
 21
73.0
 31
0.0
  0
LINE
  5
2DA
100
AcDbEntity
  8
D-STR
  6
CONTINUOUS
 62
       1
100
AcDbLine
 10
-41.17295593
 20
48.0
 30
0.0
 11
-41.17295593
 21
70.09721708
 31
0.0
  0
LINE
  5
2DB
100
AcDbEntity
  8
D-STR
  6
CONTINUOUS
 62
       1
100
AcDbLine
 10
-116.22849092
 20
48.0
 30
0.0
 11
-116.22849092
 21
70.09721708
 31
0.0
  0
LINE
  5
2DC
100
AcDbEntity
  8
D-STR
  6
CONTINUOUS
 62
       1
100
AcDbLine
 10
-111.20072343
 20
73.0
 30
0.0
 11
-116.22849092
 21
70.09721708
 31
0.0
  0
LINE
  5
2DD
100
AcDbEntity
  8
D-STR
  6
CONTINUOUS
 62
       1
100
AcDbLine
 10
-46.20072343
 20
73.0
 30
0.0
 11
-41.17295593
 21
70.09721708
 31
0.0
  0
ARC
  5
2DE
100
AcDbEntity
  8
D-STR
  6
CONTINUOUS
 62
       1
100
AcDbCircle
 10
-78.70072343
 20
10.90278292
 30
0.0
 40
62.09721708
100
AcDbArc
 50
72.41204623
 51
107.58795377
  0
LINE
  5
2DF
100
AcDbEntity
  8
D-STR
  6
CONTINUOUS
 62
       1
100
AcDbLine
 10
-59.93683968
 20
48.0
 30
0.0
 11
-59.93683968
 21
70.09721708
 31
0.0
  0
LINE
  5
2E0
100
AcDbEntity
  8
D-STR
  6
CONTINUOUS
 62
       1
100
AcDbLine
 10
-97.46460718
 20
48.0
 30
0.0
 11
-97.46460718
 21
70.09721708
 31
0.0
  0
LINE
  5
2E1
100
AcDbEntity
  8
D-STR
  6
CONTINUOUS
 62
       1
100
AcDbLine
 10
-108.17572343
 20
47.0
 30
0.0
 11
-49.22572343
 21
47.0
 31
0.0
  0
LINE
  5
2E2
100
AcDbEntity
  8
D-STR
  6
CONTINUOUS
 62
       1
100
AcDbLine
 10
-48.22572343
 20
48.0
 30
0.0
 11
-49.22572343
 21
47.0
 31
0.0
  0
LINE
  5
2E3
100
AcDbEntity
  8
D-STR
  6
CONTINUOUS
 62
       1
100
AcDbLine
 10
-109.17572343
 20
48.0
 30
0.0
 11
-108.17572343
 21
47.0
 31
0.0
  0
LINE
  5
2E4
100
AcDbEntity
  8
D-STR
  6
CONTINUOUS
 62
       1
100
AcDbLine
 10
-99.70072343
 20
47.0
 30
0.0
 11
-99.70072343
 21
-110.5645
 31
0.0
  0
LINE
  5
2E5
100
AcDbEntity
  8
D-STR
  6
CONTINUOUS
 62
       1
100
AcDbLine
 10
-57.70072343
 20
47.0
 30
0.0
 11
-57.70072343
 21
-110.5645
 31
0.0
  0
LINE
  5
2E6
100
AcDbEntity
  8
D-STR
  6
CONTINUOUS
 62
       1
100
AcDbLine
 10
-97.26522343
 20
-113.0
 30
0.0
 11
-60.13622343
 21
-113.0
 31
0.0
  0
LINE
  5
2E7
100
AcDbEntity
  8
D-STR
  6
CONTINUOUS
 62
       1
100
AcDbLine
 10
-99.70072343
 20
33.5
 30
0.0
 11
-57.70072343
 21
33.5
 31
0.0
  0
LINE
  5
2E8
100
AcDbEntity
  8
D-STR
  6
CONTINUOUS
 62
       1
100
AcDbLine
 10
-97.26522343
 20
33.5
 30
0.0
 11
-99.70072343
 21
37.71840974
 31
0.0
  0
LINE
  5
2E9
100
AcDbEntity
  8
D-STR
  6
CONTINUOUS
 62
       1
100
AcDbLine
 10
-60.13622343
 20
33.5
 30
0.0
 11
-57.70072343
 21
37.71840974
 31
0.0
  0
LINE
  5
2EA
100
AcDbEntity
  8
D-STR
  6
CONTINUOUS
 62
       1
100
AcDbLine
 10
-99.70072343
 20
-110.5645
 30
0.0
 11
-97.26522343
 21
-113.0
 31
0.0
  0
LINE
  5
2EB
100
AcDbEntity
  8
D-STR
  6
CONTINUOUS
 62
       1
100
AcDbLine
 10
-60.13622343
 20
-113.0
 30
0.0
 11
-57.70072343
 21
-110.5645
 31
0.0
  0
LINE
  5
2EC
100
AcDbEntity
  8
D-STR
  6
CONTINUOUS
 62
       1
100
AcDbLine
 10
-99.70072343
 20
-110.5645
 30
0.0
 11
-57.70072343
 21
-110.5645
 31
0.0
  0
ARC
  5
2ED
100
AcDbEntity
  8
D-STR
  6
CONTINUOUS
 62
       1
100
AcDbCircle
 10
-106.84654905
 20
56.38715214
 30
0.0
 40
16.61284786
100
AcDbArc
 50
55.61575253
 51
124.38424747
  0
ARC
  5
2EE
100
AcDbEntity
  8
D-STR
  6
CONTINUOUS
 62
       1
100
AcDbCircle
 10
-50.5548978
 20
56.38715214
 30
0.0
 40
16.61284786
100
AcDbArc
 50
55.61575253
 51
124.38424747
  0
LINE
  5
2EF
100
AcDbEntity
  8
D-BMK
  6
CENTER
 62
       2
100
AcDbLine
 10
-78.70072343
 20
73.0
 30
0.0
 11
-78.70072343
 21
-113.0
 31
0.0
  0
LINE
  5
2F0
100
AcDbEntity
  8
D-STR
  6
CONTINUOUS
 62
       7
100
AcDbLine
 10
-97.26522343
 20
33.5
 30
0.0
 11
-97.26522343
 21
-113.0
 31
0.0
  0
LINE
  5
2F1
100
AcDbEntity
  8
D-STR
  6
CONTINUOUS
 62
       7
100
AcDbLine
 10
-60.13622343
 20
33.5
 30
0.0
 11
-60.13622343
 21
-113.0
 31
0.0
  0
ENDBLK
  5
2F2
100
AcDbEntity
  8
0
100
AcDbBlockEnd
  0
BLOCK
  5
2F3
100
AcDbEntity
  8
0
100
AcDbBlockBegin
  2
GROUP_36
 70
       0
 10
0.0
 20
0.0
 30
0.0
  3
GROUP_36
  1

  0
LINE
  5
2F4
100
AcDbEntity
  8
D-STR
  6
CONTINUOUS
 62
       1
100
AcDbLine
 10
2.12831426
 20
48.0
 30
0.0
 11
88.73085464
 21
48.0
 31
0.0
  0
LINE
  5
2F5
100
AcDbEntity
  8
D-STR
  6
CONTINUOUS
 62
       1
100
AcDbLine
 10
7.92958445
 20
77.0
 30
0.0
 11
82.92958445
 21
77.0
 31
0.0
  0
LINE
  5
2F6
100
AcDbEntity
  8
D-STR
  6
CONTINUOUS
 62
       1
100
AcDbLine
 10
88.73085464
 20
48.0
 30
0.0
 11
88.73085464
 21
73.65063509
 31
0.0
  0
LINE
  5
2F7
100
AcDbEntity
  8
D-STR
  6
CONTINUOUS
 62
       1
100
AcDbLine
 10
2.12831426
 20
48.0
 30
0.0
 11
2.12831426
 21
73.65063509
 31
0.0
  0
LINE
  5
2F8
100
AcDbEntity
  8
D-STR
  6
CONTINUOUS
 62
       1
100
AcDbLine
 10
7.92958445
 20
77.0
 30
0.0
 11
2.12831426
 21
73.65063509
 31
0.0
  0
LINE
  5
2F9
100
AcDbEntity
  8
D-STR
  6
CONTINUOUS
 62
       1
100
AcDbLine
 10
82.92958445
 20
77.0
 30
0.0
 11
88.73085464
 21
73.65063509
 31
0.0
  0
ARC
  5
2FA
100
AcDbEntity
  8
D-STR
  6
CONTINUOUS
 62
       1
100
AcDbCircle
 10
45.42958445
 20
5.34936491
 30
0.0
 40
71.65063509
100
AcDbArc
 50
72.41204623
 51
107.58795377
  0
LINE
  5
2FB
100
AcDbEntity
  8
D-STR
  6
CONTINUOUS
 62
       1
100
AcDbLine
 10
67.08021954
 20
48.0
 30
0.0
 11
67.08021954
 21
73.65063509
 31
0.0
  0
LINE
  5
2FC
100
AcDbEntity
  8
D-STR
  6
CONTINUOUS
 62
       1
100
AcDbLine
 10
23.77894935
 20
48.0
 30
0.0
 11
23.77894935
 21
73.65063509
 31
0.0
  0
LINE
  5
2FD
100
AcDbEntity
  8
D-STR
  6
CONTINUOUS
 62
       1
100
AcDbLine
 10
11.20458445
 20
47.0
 30
0.0
 11
79.65458445
 21
47.0
 31
0.0
  0
LINE
  5
2FE
100
AcDbEntity
  8
D-STR
  6
CONTINUOUS
 62
       1
100
AcDbLine
 10
80.65458445
 20
48.0
 30
0.0
 11
79.65458445
 21
47.0
 31
0.0
  0
LINE
  5
2FF
100
AcDbEntity
  8
D-STR
  6
CONTINUOUS
 62
       1
100
AcDbLine
 10
10.20458445
 20
48.0
 30
0.0
 11
11.20458445
 21
47.0
 31
0.0
  0
LINE
  5
300
100
AcDbEntity
  8
D-STR
  6
CONTINUOUS
 62
       1
100
AcDbLine
 10
21.42958445
 20
47.0
 30
0.0
 11
21.42958445
 21
-130.2935
 31
0.0
  0
LINE
  5
301
100
AcDbEntity
  8
D-STR
  6
CONTINUOUS
 62
       1
100
AcDbLine
 10
69.42958445
 20
47.0
 30
0.0
 11
69.42958445
 21
-130.2935
 31
0.0
  0
LINE
  5
302
100
AcDbEntity
  8
D-STR
  6
CONTINUOUS
 62
       1
100
AcDbLine
 10
24.13608445
 20
-133.0
 30
0.0
 11
66.72308445
 21
-133.0
 31
0.0
  0
LINE
  5
303
100
AcDbEntity
  8
D-STR
  6
CONTINUOUS
 62
       1
100
AcDbLine
 10
21.42958445
 20
32.0
 30
0.0
 11
69.42958445
 21
32.0
 31
0.0
  0
LINE
  5
304
100
AcDbEntity
  8
D-STR
  6
CONTINUOUS
 62
       1
100
AcDbLine
 10
24.13608445
 20
32.0
 30
0.0
 11
21.42958445
 21
36.68779551
 31
0.0
  0
LINE
  5
305
100
AcDbEntity
  8
D-STR
  6
CONTINUOUS
 62
       1
100
AcDbLine
 10
66.72308445
 20
32.0
 30
0.0
 11
69.42958445
 21
36.68779551
 31
0.0
  0
LINE
  5
306
100
AcDbEntity
  8
D-STR
  6
CONTINUOUS
 62
       1
100
AcDbLine
 10
21.42958445
 20
-130.2935
 30
0.0
 11
24.13608445
 21
-133.0
 31
0.0
  0
LINE
  5
307
100
AcDbEntity
  8
D-STR
  6
CONTINUOUS
 62
       1
100
AcDbLine
 10
66.72308445
 20
-133.0
 30
0.0
 11
69.42958445
 21
-130.2935
 31
0.0
  0
LINE
  5
308
100
AcDbEntity
  8
D-STR
  6
CONTINUOUS
 62
       1
100
AcDbLine
 10
21.42958445
 20
-130.2935
 30
0.0
 11
69.42958445
 21
-130.2935
 31
0.0
  0
ARC
  5
309
100
AcDbEntity
  8
D-STR
  6
CONTINUOUS
 62
       1
100
AcDbCircle
 10
12.95363181
 20
57.83132939
 30
0.0
 40
19.16867061
100
AcDbArc
 50
55.61575253
 51
124.38424747
  0
ARC
  5
30A
100
AcDbEntity
  8
D-STR
  6
CONTINUOUS
 62
       1
100
AcDbCircle
 10
77.90553709
 20
57.83132939
 30
0.0
 40
19.16867061
100
AcDbArc
 50
55.61575253
 51
124.38424747
  0
LINE
  5
30B
100
AcDbEntity
  8
D-BMK
  6
CENTER
 62
       2
100
AcDbLine
 10
45.42958445
 20
77.0
 30
0.0
 11
45.42958445
 21
-133.0
 31
0.0
  0
LINE
  5
30C
100
AcDbEntity
  8
D-STR
  6
CONTINUOUS
 62
       7
100
AcDbLine
 10
24.13608445
 20
32.0
 30
0.0
 11
24.13608445
 21
-133.0
 31
0.0
  0
LINE
  5
30D
100
AcDbEntity
  8
D-STR
  6
CONTINUOUS
 62
       7
100
AcDbLine
 10
66.72308445
 20
32.0
 30
0.0
 11
66.72308445
 21
-133.0
 31
0.0
  0
ENDBLK
  5
30E
100
AcDbEntity
  8
0
100
AcDbBlockEnd
  0
BLOCK
  5
30F
100
AcDbEntity
  8
0
100
AcDbBlockBegin
  2
GROUP_37
 70
       0
 10
0.0
 20
0.0
 30
0.0
  3
GROUP_37
  1

  0
LINE
  5
310
100
AcDbEntity
  8
D-STR
  6
CONTINUOUS
 62
       1
100
AcDbLine
 10
137.80562752
 20
48.0
 30
0.0
 11
235.95517328
 21
48.0
 31
0.0
  0
LINE
  5
311
100
AcDbEntity
  8
D-STR
  6
CONTINUOUS
 62
       1
100
AcDbLine
 10
144.3804004
 20
82.0
 30
0.0
 11
229.3804004
 21
82.0
 31
0.0
  0
LINE
  5
312
100
AcDbEntity
  8
D-STR
  6
CONTINUOUS
 62
       1
100
AcDbLine
 10
235.95517328
 20
48.0
 30
0.0
 11
235.95517328
 21
78.20405311
 31
0.0
  0
LINE
  5
313
100
AcDbEntity
  8
D-STR
  6
CONTINUOUS
 62
       1
100
AcDbLine
 10
137.80562752
 20
48.0
 30
0.0
 11
137.80562752
 21
78.20405311
 31
0.0
  0
LINE
  5
314
100
AcDbEntity
  8
D-STR
  6
CONTINUOUS
 62
       1
100
AcDbLine
 10
144.3804004
 20
82.0
 30
0.0
 11
137.80562752
 21
78.20405311
 31
0.0
  0
LINE
  5
315
100
AcDbEntity
  8
D-STR
  6
CONTINUOUS
 62
       1
100
AcDbLine
 10
229.3804004
 20
82.0
 30
0.0
 11
235.95517328
 21
78.20405311
 31
0.0
  0
ARC
  5
316
100
AcDbEntity
  8
D-STR
  6
CONTINUOUS
 62
       1
100
AcDbCircle
 10
186.8804004
 20
0.79594689
 30
0.0
 40
81.20405311
100
AcDbArc
 50
72.41204623
 51
107.58795377
  0
LINE
  5
317
100
AcDbEntity
  8
D-STR
  6
CONTINUOUS
 62
       1
100
AcDbLine
 10
211.41778684
 20
48.0
 30
0.0
 11
211.41778684
 21
78.20405311
 31
0.0
  0
LINE
  5
318
100
AcDbEntity
  8
D-STR
  6
CONTINUOUS
 62
       1
100
AcDbLine
 10
162.34301396
 20
48.0
 30
0.0
 11
162.34301396
 21
78.20405311
 31
0.0
  0
LINE
  5
319
100
AcDbEntity
  8
D-STR
  6
CONTINUOUS
 62
       1
100
AcDbLine
 10
148.0504004
 20
47.0
 30
0.0
 11
225.7104004
 21
47.0
 31
0.0
  0
LINE
  5
31A
100
AcDbEntity
  8
D-STR
  6
CONTINUOUS
 62
       1
100
AcDbLine
 10
226.7104004
 20
48.0
 30
0.0
 11
225.7104004
 21
47.0
 31
0.0
  0
LINE
  5
31B
100
AcDbEntity
  8
D-STR
  6
CONTINUOUS
 62
       1
100
AcDbLine
 10
147.0504004
 20
48.0
 30
0.0
 11
148.0504004
 21
47.0
 31
0.0
  0
LINE
  5
31C
100
AcDbEntity
  8
D-STR
  6
CONTINUOUS
 62
       1
100
AcDbLine
 10
158.8804004
 20
47.0
 30
0.0
 11
158.8804004
 21
-170.023
 31
0.0
  0
LINE
  5
31D
100
AcDbEntity
  8
D-STR
  6
CONTINUOUS
 62
       1
100
AcDbLine
 10
214.8804004
 20
47.0
 30
0.0
 11
214.8804004
 21
-170.023
 31
0.0
  0
LINE
  5
31E
100
AcDbEntity
  8
D-STR
  6
CONTINUOUS
 62
       1
100
AcDbLine
 10
161.8574004
 20
-173.0
 30
0.0
 11
211.9034004
 21
-173.0
 31
0.0
  0
LINE
  5
31F
100
AcDbEntity
  8
D-STR
  6
CONTINUOUS
 62
       1
100
AcDbLine
 10
158.8804004
 20
30.5
 30
0.0
 11
214.8804004
 21
30.5
 31
0.0
  0
LINE
  5
320
100
AcDbEntity
  8
D-STR
  6
CONTINUOUS
 62
       1
100
AcDbLine
 10
161.8574004
 20
30.5
 30
0.0
 11
158.8804004
 21
35.65631525
 31
0.0
  0
LINE
  5
321
100
AcDbEntity
  8
D-STR
  6
CONTINUOUS
 62
       1
100
AcDbLine
 10
211.9034004
 20
30.5
 30
0.0
 11
214.8804004
 21
35.65631525
 31
0.0
  0
LINE
  5
322
100
AcDbEntity
  8
D-STR
  6
CONTINUOUS
 62
       1
100
AcDbLine
 10
158.8804004
 20
-170.023
 30
0.0
 11
161.8574004
 21
-173.0
 31
0.0
  0
LINE
  5
323
100
AcDbEntity
  8
D-STR
  6
CONTINUOUS
 62
       1
100
AcDbLine
 10
211.9034004
 20
-173.0
 30
0.0
 11
214.8804004
 21
-170.023
 31
0.0
  0
LINE
  5
324
100
AcDbEntity
  8
D-STR
  6
CONTINUOUS
 62
       1
100
AcDbLine
 10
158.8804004
 20
-170.023
 30
0.0
 11
214.8804004
 21
-170.023
 31
0.0
  0
ARC
  5
325
100
AcDbEntity
  8
D-STR
  6
CONTINUOUS
 62
       1
100
AcDbCircle
 10
150.07432074
 20
60.27550664
 30
0.0
 40
21.72449336
100
AcDbArc
 50
55.61575253
 51
124.38424747
  0
ARC
  5
326
100
AcDbEntity
  8
D-STR
  6
CONTINUOUS
 62
       1
100
AcDbCircle
 10
223.68648006
 20
60.27550664
 30
0.0
 40
21.72449336
100
AcDbArc
 50
55.61575253
 51
124.38424747
  0
LINE
  5
327
100
AcDbEntity
  8
D-BMK
  6
CENTER
 62
       2
100
AcDbLine
 10
186.8804004
 20
82.0
 30
0.0
 11
186.8804004
 21
-173.0
 31
0.0
  0
LINE
  5
328
100
AcDbEntity
  8
D-STR
  6
CONTINUOUS
 62
       7
100
AcDbLine
 10
161.8574004
 20
30.5
 30
0.0
 11
161.8574004
 21
-173.0
 31
0.0
  0
LINE
  5
329
100
AcDbEntity
  8
D-STR
  6
CONTINUOUS
 62
       7
100
AcDbLine
 10
211.9034004
 20
30.5
 30
0.0
 11
211.9034004
 21
-173.0
 31
0.0
  0
ENDBLK
  5
32A
100
AcDbEntity
  8
0
100
AcDbBlockEnd
  0
BLOCK
  5
32B
100
AcDbEntity
  8
0
100
AcDbBlockBegin
  2
GROUP_38
 70
       0
 10
0.0
 20
0.0
 30
0.0
  3
GROUP_38
  1

  0
LINE
  5
32C
100
AcDbEntity
  8
D-STR
  6
CONTINUOUS
 62
       1
100
AcDbLine
 10
290.80344885
 20
48.0
 30
0.0
 11
400.5
 21
48.0
 31
0.0
  0
LINE
  5
32D
100
AcDbEntity
  8
D-STR
  6
CONTINUOUS
 62
       1
100
AcDbLine
 10
298.15172443
 20
87.0
 30
0.0
 11
393.15172443
 21
87.0
 31
0.0
  0
LINE
  5
32E
100
AcDbEntity
  8
D-STR
  6
CONTINUOUS
 62
       1
100
AcDbLine
 10
400.5
 20
48.0
 30
0.0
 11
400.5
 21
82.75747112
 31
0.0
  0
LINE
  5
32F
100
AcDbEntity
  8
D-STR
  6
CONTINUOUS
 62
       1
100
AcDbLine
 10
290.80344885
 20
48.0
 30
0.0
 11
290.80344885
 21
82.75747112
 31
0.0
  0
LINE
  5
330
100
AcDbEntity
  8
D-STR
  6
CONTINUOUS
 62
       1
100
AcDbLine
 10
298.15172443
 20
87.0
 30
0.0
 11
290.80344885
 21
82.75747112
 31
0.0
  0
LINE
  5
331
100
AcDbEntity
  8
D-STR
  6
CONTINUOUS
 62
       1
100
AcDbLine
 10
393.15172443
 20
87.0
 30
0.0
 11
400.5
 21
82.75747112
 31
0.0
  0
ARC
  5
332
100
AcDbEntity
  8
D-STR
  6
CONTINUOUS
 62
       1
100
AcDbCircle
 10
345.65172443
 20
-3.75747112
 30
0.0
 40
90.75747112
100
AcDbArc
 50
72.41204623
 51
107.58795377
  0
LINE
  5
333
100
AcDbEntity
  8
D-STR
  6
CONTINUOUS
 62
       1
100
AcDbLine
 10
373.07586221
 20
48.0
 30
0.0
 11
373.07586221
 21
82.75747112
 31
0.0
  0
LINE
  5
334
100
AcDbEntity
  8
D-STR
  6
CONTINUOUS
 62
       1
100
AcDbLine
 10
318.22758664
 20
48.0
 30
0.0
 11
318.22758664
 21
82.75747112
 31
0.0
  0
LINE
  5
335
100
AcDbEntity
  8
D-STR
  6
CONTINUOUS
 62
       1
100
AcDbLine
 10
302.07172443
 20
47.0
 30
0.0
 11
389.23172443
 21
47.0
 31
0.0
  0
LINE
  5
336
100
AcDbEntity
  8
D-STR
  6
CONTINUOUS
 62
       1
100
AcDbLine
 10
390.23172443
 20
48.0
 30
0.0
 11
389.23172443
 21
47.0
 31
0.0
  0
LINE
  5
337
100
AcDbEntity
  8
D-STR
  6
CONTINUOUS
 62
       1
100
AcDbLine
 10
301.07172443
 20
48.0
 30
0.0
 11
302.07172443
 21
47.0
 31
0.0
  0
LINE
  5
338
100
AcDbEntity
  8
D-STR
  6
CONTINUOUS
 62
       1
100
AcDbLine
 10
313.65172443
 20
47.0
 30
0.0
 11
313.65172443
 21
-209.7525
 31
0.0
  0
LINE
  5
339
100
AcDbEntity
  8
D-STR
  6
CONTINUOUS
 62
       1
100
AcDbLine
 10
377.65172443
 20
47.0
 30
0.0
 11
377.65172443
 21
-209.7525
 31
0.0
  0
LINE
  5
33A
100
AcDbEntity
  8
D-STR
  6
CONTINUOUS
 62
       1
100
AcDbLine
 10
316.89922443
 20
-213.0
 30
0.0
 11
374.40422443
 21
-213.0
 31
0.0
  0
LINE
  5
33B
100
AcDbEntity
  8
D-STR
  6
CONTINUOUS
 62
       1
100
AcDbLine
 10
313.65172443
 20
29.0
 30
0.0
 11
377.65172443
 21
29.0
 31
0.0
  0
LINE
  5
33C
100
AcDbEntity
  8
D-STR
  6
CONTINUOUS
 62
       1
100
AcDbLine
 10
316.89922443
 20
29.0
 30
0.0
 11
313.65172443
 21
34.624835
 31
0.0
  0
LINE
  5
33D
100
AcDbEntity
  8
D-STR
  6
CONTINUOUS
 62
       1
100
AcDbLine
 10
374.40422443
 20
29.0
 30
0.0
 11
377.65172443
 21
34.624835
 31
0.0
  0
LINE
  5
33E
100
AcDbEntity
  8
D-STR
  6
CONTINUOUS
 62
       1
100
AcDbLine
 10
313.65172443
 20
-209.7525
 30
0.0
 11
316.89922443
 21
-213.0
 31
0.0
  0
LINE
  5
33F
100
AcDbEntity
  8
D-STR
  6
CONTINUOUS
 62
       1
100
AcDbLine
 10
374.40422443
 20
-213.0
 30
0.0
 11
377.65172443
 21
-209.7525
 31
0.0
  0
LINE
  5
340
100
AcDbEntity
  8
D-STR
  6
CONTINUOUS
 62
       1
100
AcDbLine
 10
313.65172443
 20
-209.7525
 30
0.0
 11
377.65172443
 21
-209.7525
 31
0.0
  0
ARC
  5
341
100
AcDbEntity
  8
D-STR
  6
CONTINUOUS
 62
       1
100
AcDbCircle
 10
304.51551775
 20
62.71968389
 30
0.0
 40
24.28031611
100
AcDbArc
 50
55.61575253
 51
124.38424747
  0
ARC
  5
342
100
AcDbEntity
  8
D-STR
  6
CONTINUOUS
 62
       1
100
AcDbCircle
 10
386.78793111
 20
62.71968389
 30
0.0
 40
24.28031611
100
AcDbArc
 50
55.61575253
 51
124.38424747
  0
LINE
  5
343
100
AcDbEntity
  8
D-BMK
  6
CENTER
 62
       2
100
AcDbLine
 10
345.65172443
 20
87.0
 30
0.0
 11
345.65172443
 21
-213.0
 31
0.0
  0
LINE
  5
344
100
AcDbEntity
  8
D-STR
  6
CONTINUOUS
 62
       7
100
AcDbLine
 10
316.89922443
 20
29.0
 30
0.0
 11
316.89922443
 21
-213.0
 31
0.0
  0
LINE
  5
345
100
AcDbEntity
  8
D-STR
  6
CONTINUOUS
 62
       7
100
AcDbLine
 10
374.40422443
 20
29.0
 30
0.0
 11
374.40422443
 21
-213.0
 31
0.0
  0
ENDBLK
  5
346
100
AcDbEntity
  8
0
100
AcDbBlockEnd
  0
ENDSEC
  0
SECTION
  2
ENTITIES
  0
INSERT
  5
347
100
AcDbEntity
  8
0
  6
CONTINUOUS
100
AcDbBlockReference
  2
GROUP_1
 10
0.0
 20
0.0
 30
0.0
  0
INSERT
  5
348
100
AcDbEntity
  8
0
  6
CONTINUOUS
100
AcDbBlockReference
  2
GROUP_2
 10
0.0
 20
0.0
 30
0.0
  0
INSERT
  5
349
100
AcDbEntity
  8
0
  6
CONTINUOUS
100
AcDbBlockReference
  2
GROUP_3
 10
0.0
 20
0.0
 30
0.0
  0
INSERT
  5
34A
100
AcDbEntity
  8
0
  6
CONTINUOUS
100
AcDbBlockReference
  2
GROUP_4
 10
0.0
 20
0.0
 30
0.0
  0
INSERT
  5
34B
100
AcDbEntity
  8
0
  6
CONTINUOUS
100
AcDbBlockReference
  2
GROUP_5
 10
0.0
 20
0.0
 30
0.0
  0
INSERT
  5
34C
100
AcDbEntity
  8
0
  6
CONTINUOUS
100
AcDbBlockReference
  2
GROUP_6
 10
0.0
 20
0.0
 30
0.0
  0
INSERT
  5
34D
100
AcDbEntity
  8
0
  6
CONTINUOUS
100
AcDbBlockReference
  2
GROUP_7
 10
0.0
 20
0.0
 30
0.0
  0
INSERT
  5
34E
100
AcDbEntity
  8
0
  6
CONTINUOUS
100
AcDbBlockReference
  2
GROUP_8
 10
0.0
 20
0.0
 30
0.0
  0
INSERT
  5
34F
100
AcDbEntity
  8
0
  6
CONTINUOUS
100
AcDbBlockReference
  2
GROUP_9
 10
0.0
 20
0.0
 30
0.0
  0
INSERT
  5
350
100
AcDbEntity
  8
0
  6
CONTINUOUS
100
AcDbBlockReference
  2
GROUP_10
 10
0.0
 20
0.0
 30
0.0
  0
INSERT
  5
351
100
AcDbEntity
  8
0
  6
CONTINUOUS
100
AcDbBlockReference
  2
GROUP_11
 10
0.0
 20
0.0
 30
0.0
  0
INSERT
  5
352
100
AcDbEntity
  8
0
  6
CONTINUOUS
100
AcDbBlockReference
  2
GROUP_12
 10
0.0
 20
0.0
 30
0.0
  0
INSERT
  5
353
100
AcDbEntity
  8
0
  6
CONTINUOUS
100
AcDbBlockReference
  2
GROUP_13
 10
0.0
 20
0.0
 30
0.0
  0
INSERT
  5
354
100
AcDbEntity
  8
0
  6
CONTINUOUS
100
AcDbBlockReference
  2
GROUP_14
 10
0.0
 20
0.0
 30
0.0
  0
INSERT
  5
355
100
AcDbEntity
  8
0
  6
CONTINUOUS
100
AcDbBlockReference
  2
GROUP_15
 10
0.0
 20
0.0
 30
0.0
  0
INSERT
  5
356
100
AcDbEntity
  8
0
  6
CONTINUOUS
100
AcDbBlockReference
  2
GROUP_16
 10
0.0
 20
0.0
 30
0.0
  0
INSERT
  5
357
100
AcDbEntity
  8
0
  6
CONTINUOUS
100
AcDbBlockReference
  2
GROUP_17
 10
0.0
 20
0.0
 30
0.0
  0
INSERT
  5
358
100
AcDbEntity
  8
0
  6
CONTINUOUS
100
AcDbBlockReference
  2
GROUP_18
 10
0.0
 20
0.0
 30
0.0
  0
INSERT
  5
359
100
AcDbEntity
  8
0
  6
CONTINUOUS
100
AcDbBlockReference
  2
GROUP_19
 10
0.0
 20
0.0
 30
0.0
  0
INSERT
  5
35A
100
AcDbEntity
  8
0
  6
CONTINUOUS
100
AcDbBlockReference
  2
GROUP_20
 10
0.0
 20
0.0
 30
0.0
  0
INSERT
  5
35B
100
AcDbEntity
  8
0
  6
CONTINUOUS
100
AcDbBlockReference
  2
GROUP_21
 10
0.0
 20
0.0
 30
0.0
  0
INSERT
  5
35C
100
AcDbEntity
  8
0
  6
CONTINUOUS
100
AcDbBlockReference
  2
GROUP_22
 10
0.0
 20
0.0
 30
0.0
  0
INSERT
  5
35D
100
AcDbEntity
  8
0
  6
CONTINUOUS
100
AcDbBlockReference
  2
GROUP_23
 10
0.0
 20
0.0
 30
0.0
  0
INSERT
  5
35E
100
AcDbEntity
  8
0
  6
CONTINUOUS
100
AcDbBlockReference
  2
GROUP_24
 10
0.0
 20
0.0
 30
0.0
  0
INSERT
  5
35F
100
AcDbEntity
  8
0
  6
CONTINUOUS
100
AcDbBlockReference
  2
GROUP_25
 10
0.0
 20
0.0
 30
0.0
  0
INSERT
  5
360
100
AcDbEntity
  8
0
  6
CONTINUOUS
100
AcDbBlockReference
  2
GROUP_26
 10
0.0
 20
0.0
 30
0.0
  0
INSERT
  5
361
100
AcDbEntity
  8
0
  6
CONTINUOUS
100
AcDbBlockReference
  2
GROUP_27
 10
0.0
 20
0.0
 30
0.0
  0
INSERT
  5
362
100
AcDbEntity
  8
0
  6
CONTINUOUS
100
AcDbBlockReference
  2
GROUP_28
 10
0.0
 20
0.0
 30
0.0
  0
INSERT
  5
363
100
AcDbEntity
  8
0
  6
CONTINUOUS
100
AcDbBlockReference
  2
GROUP_29
 10
0.0
 20
0.0
 30
0.0
  0
INSERT
  5
364
100
AcDbEntity
  8
0
  6
CONTINUOUS
100
AcDbBlockReference
  2
GROUP_30
 10
0.0
 20
0.0
 30
0.0
  0
INSERT
  5
365
100
AcDbEntity
  8
0
  6
CONTINUOUS
100
AcDbBlockReference
  2
GROUP_31
 10
0.0
 20
0.0
 30
0.0
  0
INSERT
  5
366
100
AcDbEntity
  8
0
  6
CONTINUOUS
100
AcDbBlockReference
  2
GROUP_32
 10
0.0
 20
0.0
 30
0.0
  0
INSERT
  5
367
100
AcDbEntity
  8
0
  6
CONTINUOUS
100
AcDbBlockReference
  2
GROUP_33
 10
0.0
 20
0.0
 30
0.0
  0
INSERT
  5
368
100
AcDbEntity
  8
0
  6
CONTINUOUS
100
AcDbBlockReference
  2
GROUP_34
 10
0.0
 20
0.0
 30
0.0
  0
INSERT
  5
369
100
AcDbEntity
  8
0
  6
CONTINUOUS
100
AcDbBlockReference
  2
GROUP_35
 10
0.0
 20
0.0
 30
0.0
  0
INSERT
  5
36A
100
AcDbEntity
  8
0
  6
CONTINUOUS
100
AcDbBlockReference
  2
GROUP_36
 10
0.0
 20
0.0
 30
0.0
  0
INSERT
  5
36B
100
AcDbEntity
  8
0
  6
CONTINUOUS
100
AcDbBlockReference
  2
GROUP_37
 10
0.0
 20
0.0
 30
0.0
  0
INSERT
  5
36C
100
AcDbEntity
  8
0
  6
CONTINUOUS
100
AcDbBlockReference
  2
GROUP_38
 10
0.0
 20
0.0
 30
0.0
  0
TEXT
  5
36D
100
AcDbEntity
  8
D-STR-TXT
 62
       7
100
AcDbText
 10
-400.5
 20
273.5
 30
0.0
 40
3.5
  1
全ねじ六角ボルト並目第1選択
 41
1.2
 72
       5
 11
-343.8
 21
273.5
 31
0.0
100
AcDbText
  0
TEXT
  5
36E
100
AcDbEntity
  8
D-STR-TXT
 62
       7
100
AcDbText
 10
-400.5
 20
269.0
 30
0.0
 40
3.5
  1
M1.6,M2,M2.5,M3,M4,M5,M6,M8,M10,M12,M16,M20,M24,M30,M36,M42,M48,M56,M64
 41
1.2
 72
       5
 11
-251.4
 21
269.0
 31
0.0
100
AcDbText
  0
ENDSEC
  0
SECTION
  2
OBJECTS
  0
DICTIONARY
  5
19
100
AcDbDictionary
  3
ACAD_GROUP
350
1A
  3
ACAD_MLINESTYLE
350
1B
  0
DICTIONARY
  5
1A
102
{ACAD_REACTORS
330
19
102
}
100
AcDbDictionary
  0
DICTIONARY
  5
1B
102
{ACAD_REACTORS
330
19
102
}
100
AcDbDictionary
  3
STANDARD
350
1C
  0
MLINESTYLE
  5
1C
102
{ACAD_REACTORS
330
1B
102
}
100
AcDbMlineStyle
  2
STANDARD
 70
       0
  3

 62
       0
 51
90.0
 52
90.0
 71
       2
 49
0.5
 62
     256
  6
BYLAYER
 49
-0.5
 62
     256
  6
BYLAYER
  0
ENDSEC
  0
EOF
