  0
SECTION
  2
HEADER
  9
$ACADVER
  1
AC1014
  9
$ACADMAINTVER
 70
       0
  9
$DWGCODEPAGE
  3
ANSI_932
  9
$INSBASE
 10
0.0
 20
0.0
 30
0.0
  9
$EXTMIN
 10
-416.52
 20
-288.08
 30
0.0
  9
$EXTMAX
 10
416.52
 20
288.08
 30
0.0
  9
$LIMMIN
 10
-442.5525
 20
-306.085
  9
$LIMMAX
 10
442.5525
 20
306.085
  9
$ORTHOMODE
 70
       0
  9
$REGENMODE
 70
       1
  9
$FILLMODE
 70
       1
  9
$QTEXTMODE
 70
       0
  9
$MIRRTEXT
 70
       1
  9
$DRAGMODE
 70
       2
  9
$LTSCALE
 40
1.0
  9
$OSMODE
 70
       0
  9
$ATTMODE
 70
       1
  9
$TEXTSIZE
 40
0.2
  9
$TRACEWID
 40
0.05
  9
$TEXTSTYLE
  7
STANDARD
  9
$CLAYER
  8
0
  9
$CELTYPE
  6
CONTINUOUS
  9
$CECOLOR
 62
     256
  9
$CELTSCALE
 40
1.0
  9
$DELOBJ
 70
       1
  9
$DISPSILH
 70
       0
  9
$DIMSCALE
 40
1.0
  9
$DIMASZ
 40
0.18
  9
$DIMEXO
 40
0.0625
  9
$DIMDLI
 40
0.38
  9
$DIMRND
 40
0.0
  9
$DIMDLE
 40
0.0
  9
$DIMEXE
 40
0.18
  9
$DIMTP
 40
0.0
  9
$DIMTM
 40
0.0
  9
$DIMTXT
 40
0.18
  9
$DIMCEN
 40
0.09
  9
$DIMTSZ
 40
0.0
  9
$DIMTOL
 70
       0
  9
$DIMLIM
 70
       0
  9
$DIMTIH
 70
       1
  9
$DIMTOH
 70
       1
  9
$DIMSE1
 70
       0
  9
$DIMSE2
 70
       0
  9
$DIMTAD
 70
       0
  9
$DIMZIN
 70
       0
  9
$DIMBLK
  1

  9
$DIMASO
 70
       1
  9
$DIMSHO
 70
       1
  9
$DIMPOST
  1

  9
$DIMAPOST
  1

  9
$DIMALT
 70
       0
  9
$DIMALTD
 70
       2
  9
$DIMALTF
 40
25.4
  9
$DIMLFAC
 40
1.0
  9
$DIMTOFL
 70
       0
  9
$DIMTVP
 40
0.0
  9
$DIMTIX
 70
       0
  9
$DIMSOXD
 70
       0
  9
$DIMSAH
 70
       0
  9
$DIMBLK1
  1

  9
$DIMBLK2
  1

  9
$DIMSTYLE
  2
STANDARD
  9
$DIMCLRD
 70
       0
  9
$DIMCLRE
 70
       0
  9
$DIMCLRT
 70
       0
  9
$DIMTFAC
 40
1.0
  9
$DIMGAP
 40
0.09
  9
$DIMJUST
 70
       0
  9
$DIMSD1
 70
       0
  9
$DIMSD2
 70
       0
  9
$DIMTOLJ
 70
       1
  9
$DIMTZIN
 70
       0
  9
$DIMALTZ
 70
       0
  9
$DIMALTTZ
 70
       0
  9
$DIMFIT
 70
       3
  9
$DIMUPT
 70
       0
  9
$DIMUNIT
 70
       2
  9
$DIMDEC
 70
       4
  9
$DIMTDEC
 70
       4
  9
$DIMALTU
 70
       2
  9
$DIMALTTD
 70
       2
  9
$DIMTXSTY
  7
STANDARD
  9
$DIMAUNIT
 70
       0
  9
$LUNITS
 70
       2
  9
$LUPREC
 70
       4
  9
$SKETCHINC
 40
0.1
  9
$FILLETRAD
 40
0.0
  9
$AUNITS
 70
       0
  9
$AUPREC
 70
       0
  9
$MENU
  1
acad
  9
$ELEVATION
 40
0.0
  9
$PELEVATION
 40
0.0
  9
$THICKNESS
 40
0.0
  9
$LIMCHECK
 70
       0
  9
$BLIPMODE
 70
       1
  9
$CHAMFERA
 40
0.0
  9
$CHAMFERB
 40
0.0
  9
$CHAMFERC
 40
0.0
  9
$CHAMFERD
 40
0.0
  9
$SKPOLY
 70
       0
  9
$TDCREATE
 40
0.000000000
  9
$TDUPDATE
 40
0.000000000
  9
$TDINDWG
 40
0.0000000000
  9
$TDUSRTIMER
 40
0.0000000000
  9
$USRTIMER
 70
       1
  9
$ANGBASE
 50
0.0
  9
$ANGDIR
 70
       0
  9
$PDMODE
 70
       0
  9
$PDSIZE
 40
1.0
  9
$PLINEWID
 40
0.0
  9
$COORDS
 70
       1
  9
$SPLFRAME
 70
       0
  9
$SPLINETYPE
 70
       6
  9
$SPLINESEGS
 70
       8
  9
$ATTDIA
 70
       0
  9
$ATTREQ
 70
       1
  9
$HANDLING
 70
       1
  9
$HANDSEED
  5
1CA
  9
$SURFTAB1
 70
       6
  9
$SURFTAB2
 70
       6
  9
$SURFTYPE
 70
       6
  9
$SURFU
 70
       6
  9
$SURFV
 70
       6
  9
$UCSNAME
  2

  9
$UCSORG
 10
0.0
 20
0.0
 30
0.0
  9
$UCSXDIR
 10
1.0
 20
0.0
 30
0.0
  9
$UCSYDIR
 10
0.0
 20
1.0
 30
0.0
  9
$PUCSNAME
  2

  9
$PUCSORG
 10
0.0
 20
0.0
 30
0.0
  9
$PUCSXDIR
 10
1.0
 20
0.0
 30
0.0
  9
$PUCSYDIR
 10
0.0
 20
1.0
 30
0.0
  9
$USERI1
 70
       0
  9
$USERI2
 70
       0
  9
$USERI3
 70
       0
  9
$USERI4
 70
       0
  9
$USERI5
 70
       0
  9
$USERR1
 40
0.0
  9
$USERR2
 40
0.0
  9
$USERR3
 40
0.0
  9
$USERR4
 40
0.0
  9
$USERR5
 40
0.0
  9
$WORLDVIEW
 70
       1
  9
$SHADEDGE
 70
       3
  9
$SHADEDIF
 70
      70
  9
$TILEMODE
 70
       1
  9
$MAXACTVP
 70
      16
  9
$PINSBASE
 10
0.0
 20
0.0
 30
0.0
  9
$PLIMCHECK
 70
       0
  9
$PEXTMIN
 10
1.00000000E+20
 20
1.00000000E+20
 30
1.00000000E+20
  9
$PEXTMAX
 10
-1.00000000E+20
 20
-1.00000000E+20
 30
-1.00000000E+20
  9
$PLIMMIN
 10
0.0
 20
0.0
  9
$PLIMMAX
 10
12.0
 20
9.0
  9
$UNITMODE
 70
       0
  9
$VISRETAIN
 70
       0
  9
$PLINEGEN
 70
       1
  9
$PSLTSCALE
 70
       0
  9
$TREEDEPTH
 70
    3020
  9
$PICKSTYLE
 70
       1
  9
$CMLSTYLE
  2
STANDARD
  9
$CMLJUST
 70
       0
  9
$CMLSCALE
 40
1.0
  9
$PROXYGRAPHICS
 70
       0
  9
$MEASUREMENT
 70
       0
  0
ENDSEC
  0
SECTION
  2
CLASSES
  0
CLASS
  1
LWPOLYLINE
  2
AcDbPolyline
  3
"AutoCAD"
 90
        0
280
       0
281
       1
  0
CLASS
  1
IMAGE
  2
AcDbRasterImage
  3
ISM
 90
      127
280
       0
281
       1
  0
CLASS
  1
OLE2FRAME
  2
AcDbOle2Frame
  3
""
 90
        0
280
       0
281
       1
  0
CLASS
  1
HATCH
  2
AcDbHatch
  3
"ACAD_SEDONA"
 90
        0
280
       0
281
       1
  0
CLASS
  1
DICTIONARYVAR
  2
AcDbDictionaryVar
  3
"AutoCAD"
 90
        0
280
       0
281
       0
  0
CLASS
  1
RASTERVARIABLES
  2
AcDbRasterVariables
  3
ISM
 90
        0
280
       0
281
       0
  0
CLASS
  1
IMAGEDEF
  2
AcDbRasterImageDef
  3
ISM
 90
        0
280
       0
281
       0
  0
CLASS
  1
IMAGEDEF_REACTOR
  2
AcDbRasterImageDefReactor
  3
ISM
 90
        1
280
       0
281
       0
  0
CLASS
  1
IDBUFFER
  2
AcDbIdBuffer
  3
"Acad"
 90
        0
280
       0
281
       0
  0
CLASS
  1
SPATIAL_FILTER
  2
AcDbSpatialFilter
  3
"Acad"
 90
        0
280
       0
281
       0
  0
CLASS
  1
XRECORD
  2
AcDbXrecord
  3
"<Built In>"
 90
        0
280
       0
281
       0
  0
CLASS
  1
SORTENTSTABLE
  2
AcDbSortentsTable
  3
"AutoCAD"
 90
        0
280
       0
281
       0
  0
CLASS
  1
LAYER_INDEX
  2
AcDbLayerIndex
  3
"Acad"
 90
        0
280
       0
281
       0
  0
CLASS
  1
SPATIAL_INDEX
  2
AcDbSpatialIndex
  3
"Acad"
 90
        0
280
       0
281
       0
  0
CLASS
  1
OBJECT_PTR
  2
CAseDLPNTableRecord
  3
"ASE-LPNTableRecord"
 90
        1
280
       0
281
       0
  0
CLASS
  1
LAYOUT
  2
AcDbLayout
  3
"AutoCAD 2000"
 90
        1
280
       0
281
       0
  0
CLASS
  1
PLOTSETTINGS
  2
AcDbPlotSettings
  3
"AutoCAD 2000"
 90
        1
280
       0
281
       0
  0
CLASS
  1
ACDBDICTIONARYWDFLT
  2
AcDbDictionaryWithDefault
  3
"AutoCAD 2000"
 90
        1
280
       0
281
       0
  0
CLASS
  1
ACDBPLACEHOLDER
  2
AcDbPlaceHolder
  3
"AutoCAD 2000"
 90
        1
280
       0
281
       0
  0
CLASS
  1
VBA_PROJECT
  2
AcDbVbaProject
  3
"acadvba"
 90
        1
280
       0
281
       0
  0
CLASS
  1
WIPEOUT
  2
AcDbWipeout
  3
WipeOut|AutoCAD Express Tool|expresstools@autodesk.com
 90
      127
280
       0
281
       1
  0
CLASS
  1
WIPEOUTVARIABLES
  2
AcDbWipeoutVariables
  3
WipeOut|AutoCAD Express Tool|expresstools@autodesk.com
 90
        0
280
       0
281
       0
  0
CLASS
  1
RTEXT
  2
RText
  3
RText|AutoCAD Express Tool|expresstools@autodesk.com
 90
        0
280
       0
281
       1
  0
CLASS
  1
ARCALIGNEDTEXT
  2
AcDbArcAlignedText
  3
ATEXT|AutoCAD Express Tool|expresstools@autodesk.com
 90
        0
280
       0
281
       1
  0
ENDSEC
  0
SECTION
  2
TABLES
  0
TABLE
  2
VPORT
  5
7
100
AcDbSymbolTable
 70
       1
  0
VPORT
  5
15
100
AcDbSymbolTableRecord
100
AcDbViewportTableRecord
  2
*ACTIVE
 70
       0
 10
0.0
 20
0.0
 11
1.0
 21
1.0
 12
0.0
 22
0.0
 13
0.0
 23
0.0
 14
1.0
 24
1.0
 15
0.0
 25
0.0
 16
0.0
 26
0.0
 36
1.0
 17
0.0
 27
0.0
 37
0.0
 40
612.17
 41
1.44584838
 42
50.0
 43
0.0
 44
0.0
 50
0.0
 51
0.0
 71
       0
 72
     100
 73
       1
 74
       1
 75
       0
 76
       0
 77
       0
 78
       0
  0
ENDTAB
  0
TABLE
  2
LTYPE
  5
4
100
AcDbSymbolTable
 70
      30
  0
LTYPE
  5
11
100
AcDbSymbolTableRecord
100
AcDbLinetypeTableRecord
  2
BYBLOCK
 70
      64
  3

 72
      65
 73
       0
 40
0.0
  0
LTYPE
  5
12
100
AcDbSymbolTableRecord
100
AcDbLinetypeTableRecord
  2
BYLAYER
 70
      64
  3

 72
      65
 73
       0
 40
0.0
  0
LTYPE
  5
13
100
AcDbSymbolTableRecord
100
AcDbLinetypeTableRecord
  2
CONTINUOUS
 70
      64
  3
Solid line
 72
      65
 73
       0
 40
0.0
  0
LTYPE
  5
1D
100
AcDbSymbolTableRecord
100
AcDbLinetypeTableRecord
  2
HIDDENX2
 70
      64
  3
CADPAC LINETYPE
 72
      65
 73
       2
 40
33.64
 49
25.23
 74
       0
 49
-8.41
 74
       0
  0
LTYPE
  5
1E
100
AcDbSymbolTableRecord
100
AcDbLinetypeTableRecord
  2
HIDDEN
 70
      64
  3
CADPAC LINETYPE
 72
      65
 73
       2
 40
25.23
 49
16.82
 74
       0
 49
-8.41
 74
       0
  0
LTYPE
  5
1F
100
AcDbSymbolTableRecord
100
AcDbLinetypeTableRecord
  2
HIDDEN2
 70
      64
  3
CADPAC LINETYPE
 72
      65
 73
       2
 40
21.025
 49
12.615
 74
       0
 49
-8.41
 74
       0
  0
LTYPE
  5
20
100
AcDbSymbolTableRecord
100
AcDbLinetypeTableRecord
  2
DASHED
 70
      64
  3
CADPAC LINETYPE
 72
      65
 73
       2
 40
25.23
 49
16.82
 74
       0
 49
-8.41
 74
       0
  0
LTYPE
  5
21
100
AcDbSymbolTableRecord
100
AcDbLinetypeTableRecord
  2
DASHED2
 70
      64
  3
CADPAC LINETYPE
 72
      65
 73
       2
 40
18.9225
 49
12.615
 74
       0
 49
-6.3075
 74
       0
  0
LTYPE
  5
22
100
AcDbSymbolTableRecord
100
AcDbLinetypeTableRecord
  2
DASHEDX2
 70
      64
  3
CADPAC LINETYPE
 72
      65
 73
       2
 40
37.845
 49
25.23
 74
       0
 49
-12.615
 74
       0
  0
LTYPE
  5
23
100
AcDbSymbolTableRecord
100
AcDbLinetypeTableRecord
  2
DOTX2
 70
      64
  3
CADPAC LINETYPE
 72
      65
 73
       2
 40
10.5125
 49
0.0
 74
       0
 49
-10.5125
 74
       0
  0
LTYPE
  5
24
100
AcDbSymbolTableRecord
100
AcDbLinetypeTableRecord
  2
DOT
 70
      64
  3
CADPAC LINETYPE
 72
      65
 73
       2
 40
8.41
 49
0.0
 74
       0
 49
-8.41
 74
       0
  0
LTYPE
  5
25
100
AcDbSymbolTableRecord
100
AcDbLinetypeTableRecord
  2
DOT2
 70
      64
  3
CADPAC LINETYPE
 72
      65
 73
       2
 40
6.3075
 49
0.0
 74
       0
 49
-6.3075
 74
       0
  0
LTYPE
  5
26
100
AcDbSymbolTableRecord
100
AcDbLinetypeTableRecord
  2
CENTERX2
 70
      64
  3
CADPAC LINETYPE
 72
      65
 73
       4
 40
50.46
 49
21.025
 74
       0
 49
-10.5125
 74
       0
 49
8.41
 74
       0
 49
-10.5125
 74
       0
  0
LTYPE
  5
27
100
AcDbSymbolTableRecord
100
AcDbLinetypeTableRecord
  2
CENTER
 70
      64
  3
CADPAC LINETYPE
 72
      65
 73
       4
 40
38.686
 49
16.82
 74
       0
 49
-8.41
 74
       0
 49
5.046
 74
       0
 49
-8.41
 74
       0
  0
LTYPE
  5
28
100
AcDbSymbolTableRecord
100
AcDbLinetypeTableRecord
  2
CENTER2
 70
      64
  3
CADPAC LINETYPE
 72
      65
 73
       4
 40
26.912
 49
12.615
 74
       0
 49
-6.3075
 74
       0
 49
1.682
 74
       0
 49
-6.3075
 74
       0
  0
LTYPE
  5
29
100
AcDbSymbolTableRecord
100
AcDbLinetypeTableRecord
  2
DASHDOTX2
 70
      64
  3
CADPAC LINETYPE
 72
      65
 73
       4
 40
42.05
 49
21.025
 74
       0
 49
-10.5125
 74
       0
 49
0.0
 74
       0
 49
-10.5125
 74
       0
  0
LTYPE
  5
2A
100
AcDbSymbolTableRecord
100
AcDbLinetypeTableRecord
  2
DASHDOT
 70
      64
  3
CADPAC LINETYPE
 72
      65
 73
       4
 40
33.64
 49
16.82
 74
       0
 49
-8.41
 74
       0
 49
0.0
 74
       0
 49
-8.41
 74
       0
  0
LTYPE
  5
2B
100
AcDbSymbolTableRecord
100
AcDbLinetypeTableRecord
  2
DASHDOT2
 70
      64
  3
CADPAC LINETYPE
 72
      65
 73
       4
 40
25.23
 49
12.615
 74
       0
 49
-6.3075
 74
       0
 49
0.0
 74
       0
 49
-6.3075
 74
       0
  0
LTYPE
  5
2C
100
AcDbSymbolTableRecord
100
AcDbLinetypeTableRecord
  2
DIVIDEX2
 70
      64
  3
CADPAC LINETYPE
 72
      65
 73
       6
 40
52.5625
 49
21.025
 74
       0
 49
-10.5125
 74
       0
 49
0.0
 74
       0
 49
-10.5125
 74
       0
 49
0.0
 74
       0
 49
-10.5125
 74
       0
  0
LTYPE
  5
2D
100
AcDbSymbolTableRecord
100
AcDbLinetypeTableRecord
  2
DIVIDE
 70
      64
  3
CADPAC LINETYPE
 72
      65
 73
       6
 40
42.05
 49
16.82
 74
       0
 49
-8.41
 74
       0
 49
0.0
 74
       0
 49
-8.41
 74
       0
 49
0.0
 74
       0
 49
-8.41
 74
       0
  0
LTYPE
  5
2E
100
AcDbSymbolTableRecord
100
AcDbLinetypeTableRecord
  2
DIVIDE2
 70
      64
  3
CADPAC LINETYPE
 72
      65
 73
       6
 40
31.5375
 49
12.615
 74
       0
 49
-6.3075
 74
       0
 49
0.0
 74
       0
 49
-6.3075
 74
       0
 49
0.0
 74
       0
 49
-6.3075
 74
       0
  0
LTYPE
  5
2F
100
AcDbSymbolTableRecord
100
AcDbLinetypeTableRecord
  2
BORDERX2
 70
      64
  3
CADPAC LINETYPE
 72
      65
 73
       6
 40
73.5875
 49
21.025
 74
       0
 49
-10.5125
 74
       0
 49
21.025
 74
       0
 49
-10.5125
 74
       0
 49
0.0
 74
       0
 49
-10.5125
 74
       0
  0
LTYPE
  5
30
100
AcDbSymbolTableRecord
100
AcDbLinetypeTableRecord
  2
BORDER
 70
      64
  3
CADPAC LINETYPE
 72
      65
 73
       6
 40
58.87
 49
16.82
 74
       0
 49
-8.41
 74
       0
 49
16.82
 74
       0
 49
-8.41
 74
       0
 49
0.0
 74
       0
 49
-8.41
 74
       0
  0
LTYPE
  5
31
100
AcDbSymbolTableRecord
100
AcDbLinetypeTableRecord
  2
BORDER2
 70
      64
  3
CADPAC LINETYPE
 72
      65
 73
       6
 40
44.1525
 49
12.615
 74
       0
 49
-6.3075
 74
       0
 49
12.615
 74
       0
 49
-6.3075
 74
       0
 49
0.0
 74
       0
 49
-6.3075
 74
       0
  0
LTYPE
  5
32
100
AcDbSymbolTableRecord
100
AcDbLinetypeTableRecord
  2
PHANTOMX2
 70
      64
  3
CADPAC LINETYPE
 72
      65
 73
       6
 40
63.075
 49
21.025
 74
       0
 49
-8.41
 74
       0
 49
8.41
 74
       0
 49
-8.41
 74
       0
 49
8.41
 74
       0
 49
-8.41
 74
       0
  0
LTYPE
  5
33
100
AcDbSymbolTableRecord
100
AcDbLinetypeTableRecord
  2
PHANTOM
 70
      64
  3
CADPAC LINETYPE
 72
      65
 73
       6
 40
52.142
 49
16.82
 74
       0
 49
-8.41
 74
       0
 49
5.046
 74
       0
 49
-8.41
 74
       0
 49
5.046
 74
       0
 49
-8.41
 74
       0
  0
LTYPE
  5
34
100
AcDbSymbolTableRecord
100
AcDbLinetypeTableRecord
  2
PHANTOM2
 70
      64
  3
CADPAC LINETYPE
 72
      65
 73
       6
 40
44.573
 49
12.615
 74
       0
 49
-8.41
 74
       0
 49
3.364
 74
       0
 49
-8.41
 74
       0
 49
3.364
 74
       0
 49
-8.41
 74
       0
  0
LTYPE
  5
35
100
AcDbSymbolTableRecord
100
AcDbLinetypeTableRecord
  2
ACAD_ISO06W100
 70
      64
  3
CADPAC LINETYPE
 72
      65
 73
       8
 40
56.7675
 49
21.025
 74
       0
 49
-10.5125
 74
       0
 49
0.0
 74
       0
 49
-8.41
 74
       0
 49
0.0
 74
       0
 49
-8.41
 74
       0
 49
0.0
 74
       0
 49
-8.41
 74
       0
  0
LTYPE
  5
36
100
AcDbSymbolTableRecord
100
AcDbLinetypeTableRecord
  2
ACAD_ISO13W100
 70
      64
  3
CADPAC LINETYPE
 72
      65
 73
       8
 40
67.28
 49
16.82
 74
       0
 49
-8.41
 74
       0
 49
16.82
 74
       0
 49
-8.41
 74
       0
 49
0.0
 74
       0
 49
-8.41
 74
       0
 49
0.0
 74
       0
 49
-8.41
 74
       0
  0
LTYPE
  5
37
100
AcDbSymbolTableRecord
100
AcDbLinetypeTableRecord
  2
ACAD_ISO14W100
 70
      64
  3
CADPAC LINETYPE
 72
      65
 73
       8
 40
50.46
 49
16.82
 74
       0
 49
-8.41
 74
       0
 49
0.0
 74
       0
 49
-8.41
 74
       0
 49
0.0
 74
       0
 49
-8.41
 74
       0
 49
0.0
 74
       0
 49
-8.41
 74
       0
  0
ENDTAB
  0
TABLE
  2
LAYER
  5
2
100
AcDbSymbolTable
 70
       4
  0
LAYER
  5
14
100
AcDbSymbolTableRecord
100
AcDbLayerTableRecord
  2
0
 70
       0
 62
       7
  6
CONTINUOUS
  0
LAYER
  5
38
100
AcDbSymbolTableRecord
100
AcDbLayerTableRecord
  2
D-BMK
 70
       0
 62
       7
  6
CONTINUOUS
  0
LAYER
  5
39
100
AcDbSymbolTableRecord
100
AcDbLayerTableRecord
  2
D-STR
 70
       0
 62
       7
  6
CONTINUOUS
  0
LAYER
  5
3A
100
AcDbSymbolTableRecord
100
AcDbLayerTableRecord
  2
D-STR-TXT
 70
       0
 62
       7
  6
CONTINUOUS
  0
ENDTAB
  0
TABLE
  2
STYLE
  5
3
100
AcDbSymbolTable
 70
       1
  0
STYLE
  5
17
100
AcDbSymbolTableRecord
100
AcDbTextStyleTableRecord
  2
STANDARD
 70
       0
 40
0.0
 41
1.2
 50
0.0
 71
       0
 42
3.5
  3
MS Gothic.ttf
  4

1001
ACAD
1000
MS Gothic
1071
    32786
  0
ENDTAB
  0
TABLE
  2
VIEW
  5
5
100
AcDbSymbolTable
 70
       1
  0
VIEW
  5
3B
100
AcDbSymbolTableRecord
100
AcDbViewTableRecord
  2
QQQQ
 70
       0
 40
612.17
 10
0.0
 20
0.0
 41
885.105
 11
0.0
 21
0.0
 31
1.0
 12
100.0
 22
100.0
 32
0.0
 42
50.0
 43
0.0
 44
0.0
 50
0.0
 71
       0
  0
ENDTAB
  0
TABLE
  2
UCS
  5
6
100
AcDbSymbolTable
 70
       0
  0
ENDTAB
  0
TABLE
  2
APPID
  5
8
100
AcDbSymbolTable
 70
       1
  0
APPID
  5
16
100
AcDbSymbolTableRecord
100
AcDbRegAppTableRecord
  2
ACAD
 70
       0
  0
ENDTAB
  0
TABLE
  2
DIMSTYLE
  5
9
100
AcDbSymbolTable
 70
       1
  0
DIMSTYLE
105
18
100
AcDbSymbolTableRecord
100
AcDbDimStyleTableRecord
  2
STANDARD
 70
       0
  3

  4

  5

  6

  7

 40
1.0
 41
0.18
 42
0.0625
 43
0.38
 44
0.18
 45
0.0
 46
0.0
 47
0.0
 48
0.0
 71
       0
 72
       0
 73
       1
 74
       1
 75
       0
 76
       0
 77
       0
 78
       0
140
0.18
141
0.09
142
0.0
143
25.4
144
1.0
145
0.0
146
1.0
147
0.09
170
       0
171
       2
172
       0
173
       0
174
       0
175
       0
176
       0
177
       0
178
       0
270
       2
271
       4
272
       4
273
       2
274
       2
275
       0
280
       0
281
       0
282
       0
283
       1
284
       0
285
       0
286
       0
287
       0
288
       0
340
17
  0
ENDTAB
  0
TABLE
  2
BLOCK_RECORD
  5
1
100
AcDbSymbolTable
 70
      22
  0
BLOCK_RECORD
  5
A
100
AcDbSymbolTableRecord
100
AcDbBlockTableRecord
  2
*MODEL_SPACE
  0
BLOCK_RECORD
  5
B
100
AcDbSymbolTableRecord
100
AcDbBlockTableRecord
  2
*PAPER_SPACE
  0
BLOCK_RECORD
  5
3C
100
AcDbSymbolTableRecord
100
AcDbBlockTableRecord
  2
GROUP_1
  0
BLOCK_RECORD
  5
3D
100
AcDbSymbolTableRecord
100
AcDbBlockTableRecord
  2
GROUP_2
  0
BLOCK_RECORD
  5
3E
100
AcDbSymbolTableRecord
100
AcDbBlockTableRecord
  2
GROUP_3
  0
BLOCK_RECORD
  5
3F
100
AcDbSymbolTableRecord
100
AcDbBlockTableRecord
  2
GROUP_4
  0
BLOCK_RECORD
  5
40
100
AcDbSymbolTableRecord
100
AcDbBlockTableRecord
  2
GROUP_5
  0
BLOCK_RECORD
  5
41
100
AcDbSymbolTableRecord
100
AcDbBlockTableRecord
  2
GROUP_6
  0
BLOCK_RECORD
  5
42
100
AcDbSymbolTableRecord
100
AcDbBlockTableRecord
  2
GROUP_7
  0
BLOCK_RECORD
  5
43
100
AcDbSymbolTableRecord
100
AcDbBlockTableRecord
  2
GROUP_8
  0
BLOCK_RECORD
  5
44
100
AcDbSymbolTableRecord
100
AcDbBlockTableRecord
  2
GROUP_9
  0
BLOCK_RECORD
  5
45
100
AcDbSymbolTableRecord
100
AcDbBlockTableRecord
  2
GROUP_10
  0
BLOCK_RECORD
  5
46
100
AcDbSymbolTableRecord
100
AcDbBlockTableRecord
  2
GROUP_11
  0
BLOCK_RECORD
  5
47
100
AcDbSymbolTableRecord
100
AcDbBlockTableRecord
  2
GROUP_12
  0
BLOCK_RECORD
  5
48
100
AcDbSymbolTableRecord
100
AcDbBlockTableRecord
  2
GROUP_13
  0
BLOCK_RECORD
  5
49
100
AcDbSymbolTableRecord
100
AcDbBlockTableRecord
  2
GROUP_14
  0
BLOCK_RECORD
  5
4A
100
AcDbSymbolTableRecord
100
AcDbBlockTableRecord
  2
GROUP_15
  0
BLOCK_RECORD
  5
4B
100
AcDbSymbolTableRecord
100
AcDbBlockTableRecord
  2
GROUP_16
  0
BLOCK_RECORD
  5
4C
100
AcDbSymbolTableRecord
100
AcDbBlockTableRecord
  2
GROUP_17
  0
BLOCK_RECORD
  5
4D
100
AcDbSymbolTableRecord
100
AcDbBlockTableRecord
  2
GROUP_18
  0
BLOCK_RECORD
  5
4E
100
AcDbSymbolTableRecord
100
AcDbBlockTableRecord
  2
GROUP_19
  0
BLOCK_RECORD
  5
4F
100
AcDbSymbolTableRecord
100
AcDbBlockTableRecord
  2
GROUP_20
  0
BLOCK_RECORD
  5
50
100
AcDbSymbolTableRecord
100
AcDbBlockTableRecord
  2
GROUP_21
  0
BLOCK_RECORD
  5
51
100
AcDbSymbolTableRecord
100
AcDbBlockTableRecord
  2
GROUP_22
  0
ENDTAB
  0
ENDSEC
  0
SECTION
  2
BLOCKS
  0
BLOCK
  5
D
100
AcDbEntity
  8
0
100
AcDbBlockBegin
  2
*MODEL_SPACE
 70
       0
 10
0.0
 20
0.0
 30
0.0
  3
*MODEL_SPACE
  1

  0
ENDBLK
  5
E
100
AcDbEntity
  8
0
100
AcDbBlockEnd
  0
BLOCK
  5
F
100
AcDbEntity
 67
       1
  8
0
100
AcDbBlockBegin
  2
*PAPER_SPACE
 70
       0
 10
0.0
 20
0.0
 30
0.0
  3
*PAPER_SPACE
  1

  0
ENDBLK
  5
10
100
AcDbEntity
 67
       1
  8
0
100
AcDbBlockEnd
  0
BLOCK
  5
52
100
AcDbEntity
  8
0
100
AcDbBlockBegin
  2
GROUP_1
 70
       0
 10
0.0
 20
0.0
 30
0.0
  3
GROUP_1
  1

  0
CIRCLE
  5
53
100
AcDbEntity
  8
D-STR
  6
CONTINUOUS
 62
       1
100
AcDbCircle
 10
-70.04046939
 20
149.7
 30
0.0
 40
2.067
  0
CIRCLE
  5
54
100
AcDbEntity
  8
D-STR
  6
CONTINUOUS
 62
       1
100
AcDbCircle
 10
-70.04046939
 20
149.7
 30
0.0
 40
4.0
  0
LINE
  5
55
100
AcDbEntity
  8
D-STR
  6
CONTINUOUS
 62
       1
100
AcDbLine
 10
-72.34987047
 20
153.7
 30
0.0
 11
-67.73106831
 21
153.7
 31
0.0
  0
LINE
  5
56
100
AcDbEntity
  8
D-STR
  6
CONTINUOUS
 62
       1
100
AcDbLine
 10
-74.65927154
 20
149.7
 30
0.0
 11
-72.34987047
 21
153.7
 31
0.0
  0
LINE
  5
57
100
AcDbEntity
  8
D-STR
  6
CONTINUOUS
 62
       1
100
AcDbLine
 10
-72.34987047
 20
145.7
 30
0.0
 11
-74.65927154
 21
149.7
 31
0.0
  0
LINE
  5
58
100
AcDbEntity
  8
D-STR
  6
CONTINUOUS
 62
       1
100
AcDbLine
 10
-67.73106831
 20
145.7
 30
0.0
 11
-72.34987047
 21
145.7
 31
0.0
  0
LINE
  5
59
100
AcDbEntity
  8
D-STR
  6
CONTINUOUS
 62
       1
100
AcDbLine
 10
-65.42166724
 20
149.7
 30
0.0
 11
-67.73106831
 21
145.7
 31
0.0
  0
LINE
  5
5A
100
AcDbEntity
  8
D-STR
  6
CONTINUOUS
 62
       1
100
AcDbLine
 10
-67.73106831
 20
153.7
 30
0.0
 11
-65.42166724
 21
149.7
 31
0.0
  0
CIRCLE
  5
5B
100
AcDbEntity
  8
D-STR
  6
CONTINUOUS
 62
       7
100
AcDbCircle
 10
-70.04046939
 20
149.7
 30
0.0
 40
2.5
  0
LINE
  5
5C
100
AcDbEntity
  8
D-BMK
  6
CENTER
 62
       2
100
AcDbLine
 10
-74.65927154
 20
149.7
 30
0.0
 11
-65.42166724
 21
149.7
 31
0.0
  0
LINE
  5
5D
100
AcDbEntity
  8
D-BMK
  6
CENTER
 62
       2
100
AcDbLine
 10
-70.04046939
 20
145.7
 30
0.0
 11
-70.04046939
 21
153.7
 31
0.0
  0
ENDBLK
  5
5E
100
AcDbEntity
  8
0
100
AcDbBlockEnd
  0
BLOCK
  5
5F
100
AcDbEntity
  8
0
100
AcDbBlockBegin
  2
GROUP_2
 70
       0
 10
0.0
 20
0.0
 30
0.0
  3
GROUP_2
  1

  0
CIRCLE
  5
60
100
AcDbEntity
  8
D-STR
  6
CONTINUOUS
 62
       1
100
AcDbCircle
 10
-53.87466185
 20
153.2
 30
0.0
 40
2.4585
  0
CIRCLE
  5
61
100
AcDbEntity
  8
D-STR
  6
CONTINUOUS
 62
       1
100
AcDbCircle
 10
-53.87466185
 20
153.2
 30
0.0
 40
5.0
  0
LINE
  5
62
100
AcDbEntity
  8
D-STR
  6
CONTINUOUS
 62
       1
100
AcDbLine
 10
-56.7614132
 20
158.2
 30
0.0
 11
-50.98791051
 21
158.2
 31
0.0
  0
LINE
  5
63
100
AcDbEntity
  8
D-STR
  6
CONTINUOUS
 62
       1
100
AcDbLine
 10
-59.64816454
 20
153.2
 30
0.0
 11
-56.7614132
 21
158.2
 31
0.0
  0
LINE
  5
64
100
AcDbEntity
  8
D-STR
  6
CONTINUOUS
 62
       1
100
AcDbLine
 10
-56.7614132
 20
148.2
 30
0.0
 11
-59.64816454
 21
153.2
 31
0.0
  0
LINE
  5
65
100
AcDbEntity
  8
D-STR
  6
CONTINUOUS
 62
       1
100
AcDbLine
 10
-50.98791051
 20
148.2
 30
0.0
 11
-56.7614132
 21
148.2
 31
0.0
  0
LINE
  5
66
100
AcDbEntity
  8
D-STR
  6
CONTINUOUS
 62
       1
100
AcDbLine
 10
-48.10115916
 20
153.2
 30
0.0
 11
-50.98791051
 21
148.2
 31
0.0
  0
LINE
  5
67
100
AcDbEntity
  8
D-STR
  6
CONTINUOUS
 62
       1
100
AcDbLine
 10
-50.98791051
 20
158.2
 30
0.0
 11
-48.10115916
 21
153.2
 31
0.0
  0
CIRCLE
  5
68
100
AcDbEntity
  8
D-STR
  6
CONTINUOUS
 62
       7
100
AcDbCircle
 10
-53.87466185
 20
153.2
 30
0.0
 40
3.0
  0
LINE
  5
69
100
AcDbEntity
  8
D-BMK
  6
CENTER
 62
       2
100
AcDbLine
 10
-59.64816454
 20
153.2
 30
0.0
 11
-48.10115916
 21
153.2
 31
0.0
  0
LINE
  5
6A
100
AcDbEntity
  8
D-BMK
  6
CENTER
 62
       2
100
AcDbLine
 10
-53.87466185
 20
148.2
 30
0.0
 11
-53.87466185
 21
158.2
 31
0.0
  0
ENDBLK
  5
6B
100
AcDbEntity
  8
0
100
AcDbBlockEnd
  0
BLOCK
  5
6C
100
AcDbEntity
  8
0
100
AcDbBlockBegin
  2
GROUP_3
 70
       0
 10
0.0
 20
0.0
 30
0.0
  3
GROUP_3
  1

  0
CIRCLE
  5
6D
100
AcDbEntity
  8
D-STR
  6
CONTINUOUS
 62
       1
100
AcDbCircle
 10
-33.09005216
 20
159.3
 30
0.0
 40
3.3235
  0
CIRCLE
  5
6E
100
AcDbEntity
  8
D-STR
  6
CONTINUOUS
 62
       1
100
AcDbCircle
 10
-33.09005216
 20
159.3
 30
0.0
 40
6.5
  0
LINE
  5
6F
100
AcDbEntity
  8
D-STR
  6
CONTINUOUS
 62
       1
100
AcDbLine
 10
-36.84282891
 20
165.8
 30
0.0
 11
-29.33727541
 21
165.8
 31
0.0
  0
LINE
  5
70
100
AcDbEntity
  8
D-STR
  6
CONTINUOUS
 62
       1
100
AcDbLine
 10
-40.59560566
 20
159.3
 30
0.0
 11
-36.84282891
 21
165.8
 31
0.0
  0
LINE
  5
71
100
AcDbEntity
  8
D-STR
  6
CONTINUOUS
 62
       1
100
AcDbLine
 10
-36.84282891
 20
152.8
 30
0.0
 11
-40.59560566
 21
159.3
 31
0.0
  0
LINE
  5
72
100
AcDbEntity
  8
D-STR
  6
CONTINUOUS
 62
       1
100
AcDbLine
 10
-29.33727541
 20
152.8
 30
0.0
 11
-36.84282891
 21
152.8
 31
0.0
  0
LINE
  5
73
100
AcDbEntity
  8
D-STR
  6
CONTINUOUS
 62
       1
100
AcDbLine
 10
-25.58449866
 20
159.3
 30
0.0
 11
-29.33727541
 21
152.8
 31
0.0
  0
LINE
  5
74
100
AcDbEntity
  8
D-STR
  6
CONTINUOUS
 62
       1
100
AcDbLine
 10
-29.33727541
 20
165.8
 30
0.0
 11
-25.58449866
 21
159.3
 31
0.0
  0
CIRCLE
  5
75
100
AcDbEntity
  8
D-STR
  6
CONTINUOUS
 62
       7
100
AcDbCircle
 10
-33.09005216
 20
159.3
 30
0.0
 40
4.0
  0
LINE
  5
76
100
AcDbEntity
  8
D-BMK
  6
CENTER
 62
       2
100
AcDbLine
 10
-40.59560566
 20
159.3
 30
0.0
 11
-25.58449866
 21
159.3
 31
0.0
  0
LINE
  5
77
100
AcDbEntity
  8
D-BMK
  6
CENTER
 62
       2
100
AcDbLine
 10
-33.09005216
 20
152.8
 30
0.0
 11
-33.09005216
 21
165.8
 31
0.0
  0
ENDBLK
  5
78
100
AcDbEntity
  8
0
100
AcDbBlockEnd
  0
BLOCK
  5
79
100
AcDbEntity
  8
0
100
AcDbBlockBegin
  2
GROUP_4
 70
       0
 10
0.0
 20
0.0
 30
0.0
  3
GROUP_4
  1

  0
CIRCLE
  5
7A
100
AcDbEntity
  8
D-STR
  6
CONTINUOUS
 62
       1
100
AcDbCircle
 10
-7.10929005
 20
165.4
 30
0.0
 40
4.1875
  0
CIRCLE
  5
7B
100
AcDbEntity
  8
D-STR
  6
CONTINUOUS
 62
       1
100
AcDbCircle
 10
-7.10929005
 20
165.4
 30
0.0
 40
8.0
  0
LINE
  5
7C
100
AcDbEntity
  8
D-STR
  6
CONTINUOUS
 62
       1
100
AcDbLine
 10
-11.7280922
 20
173.4
 30
0.0
 11
-2.49048789
 21
173.4
 31
0.0
  0
LINE
  5
7D
100
AcDbEntity
  8
D-STR
  6
CONTINUOUS
 62
       1
100
AcDbLine
 10
-16.34689435
 20
165.4
 30
0.0
 11
-11.7280922
 21
173.4
 31
0.0
  0
LINE
  5
7E
100
AcDbEntity
  8
D-STR
  6
CONTINUOUS
 62
       1
100
AcDbLine
 10
-11.7280922
 20
157.4
 30
0.0
 11
-16.34689435
 21
165.4
 31
0.0
  0
LINE
  5
7F
100
AcDbEntity
  8
D-STR
  6
CONTINUOUS
 62
       1
100
AcDbLine
 10
-2.49048789
 20
157.4
 30
0.0
 11
-11.7280922
 21
157.4
 31
0.0
  0
LINE
  5
80
100
AcDbEntity
  8
D-STR
  6
CONTINUOUS
 62
       1
100
AcDbLine
 10
2.12831426
 20
165.4
 30
0.0
 11
-2.49048789
 21
157.4
 31
0.0
  0
LINE
  5
81
100
AcDbEntity
  8
D-STR
  6
CONTINUOUS
 62
       1
100
AcDbLine
 10
-2.49048789
 20
173.4
 30
0.0
 11
2.12831426
 21
165.4
 31
0.0
  0
CIRCLE
  5
82
100
AcDbEntity
  8
D-STR
  6
CONTINUOUS
 62
       7
100
AcDbCircle
 10
-7.10929005
 20
165.4
 30
0.0
 40
5.0
  0
LINE
  5
83
100
AcDbEntity
  8
D-BMK
  6
CENTER
 62
       2
100
AcDbLine
 10
-16.34689435
 20
165.4
 30
0.0
 11
2.12831426
 21
165.4
 31
0.0
  0
LINE
  5
84
100
AcDbEntity
  8
D-BMK
  6
CENTER
 62
       2
100
AcDbLine
 10
-7.10929005
 20
157.4
 30
0.0
 11
-7.10929005
 21
173.4
 31
0.0
  0
ENDBLK
  5
85
100
AcDbEntity
  8
0
100
AcDbBlockEnd
  0
BLOCK
  5
86
100
AcDbEntity
  8
0
100
AcDbBlockBegin
  2
GROUP_5
 70
       0
 10
0.0
 20
0.0
 30
0.0
  3
GROUP_5
  1

  0
CIRCLE
  5
87
100
AcDbEntity
  8
D-STR
  6
CONTINUOUS
 62
       1
100
AcDbCircle
 10
22.91292395
 20
170.8
 30
0.0
 40
5.053
  0
CIRCLE
  5
88
100
AcDbEntity
  8
D-STR
  6
CONTINUOUS
 62
       1
100
AcDbCircle
 10
22.91292395
 20
170.8
 30
0.0
 40
9.0
  0
LINE
  5
89
100
AcDbEntity
  8
D-STR
  6
CONTINUOUS
 62
       1
100
AcDbLine
 10
17.71677153
 20
179.8
 30
0.0
 11
28.10907637
 21
179.8
 31
0.0
  0
LINE
  5
8A
100
AcDbEntity
  8
D-STR
  6
CONTINUOUS
 62
       1
100
AcDbLine
 10
12.5206191
 20
170.8
 30
0.0
 11
17.71677153
 21
179.8
 31
0.0
  0
LINE
  5
8B
100
AcDbEntity
  8
D-STR
  6
CONTINUOUS
 62
       1
100
AcDbLine
 10
17.71677153
 20
161.8
 30
0.0
 11
12.5206191
 21
170.8
 31
0.0
  0
LINE
  5
8C
100
AcDbEntity
  8
D-STR
  6
CONTINUOUS
 62
       1
100
AcDbLine
 10
28.10907637
 20
161.8
 30
0.0
 11
17.71677153
 21
161.8
 31
0.0
  0
LINE
  5
8D
100
AcDbEntity
  8
D-STR
  6
CONTINUOUS
 62
       1
100
AcDbLine
 10
33.3052288
 20
170.8
 30
0.0
 11
28.10907637
 21
161.8
 31
0.0
  0
LINE
  5
8E
100
AcDbEntity
  8
D-STR
  6
CONTINUOUS
 62
       1
100
AcDbLine
 10
28.10907637
 20
179.8
 30
0.0
 11
33.3052288
 21
170.8
 31
0.0
  0
CIRCLE
  5
8F
100
AcDbEntity
  8
D-STR
  6
CONTINUOUS
 62
       7
100
AcDbCircle
 10
22.91292395
 20
170.8
 30
0.0
 40
6.0
  0
LINE
  5
90
100
AcDbEntity
  8
D-BMK
  6
CENTER
 62
       2
100
AcDbLine
 10
12.5206191
 20
170.8
 30
0.0
 11
33.3052288
 21
170.8
 31
0.0
  0
LINE
  5
91
100
AcDbEntity
  8
D-BMK
  6
CENTER
 62
       2
100
AcDbLine
 10
22.91292395
 20
161.8
 30
0.0
 11
22.91292395
 21
179.8
 31
0.0
  0
ENDBLK
  5
92
100
AcDbEntity
  8
0
100
AcDbBlockEnd
  0
BLOCK
  5
93
100
AcDbEntity
  8
0
100
AcDbBlockBegin
  2
GROUP_6
 70
       0
 10
0.0
 20
0.0
 30
0.0
  3
GROUP_6
  1

  0
CIRCLE
  5
94
100
AcDbEntity
  8
D-STR
  6
CONTINUOUS
 62
       1
100
AcDbCircle
 10
97.39110868
 20
183.8
 30
0.0
 40
6.9175
  0
CIRCLE
  5
95
100
AcDbEntity
  8
D-STR
  6
CONTINUOUS
 62
       1
100
AcDbCircle
 10
97.39110868
 20
183.8
 30
0.0
 40
12.0
  0
LINE
  5
96
100
AcDbEntity
  8
D-STR
  6
CONTINUOUS
 62
       1
100
AcDbLine
 10
90.46290545
 20
195.8
 30
0.0
 11
104.31931191
 21
195.8
 31
0.0
  0
LINE
  5
97
100
AcDbEntity
  8
D-STR
  6
CONTINUOUS
 62
       1
100
AcDbLine
 10
83.53470221
 20
183.8
 30
0.0
 11
90.46290545
 21
195.8
 31
0.0
  0
LINE
  5
98
100
AcDbEntity
  8
D-STR
  6
CONTINUOUS
 62
       1
100
AcDbLine
 10
90.46290545
 20
171.8
 30
0.0
 11
83.53470221
 21
183.8
 31
0.0
  0
LINE
  5
99
100
AcDbEntity
  8
D-STR
  6
CONTINUOUS
 62
       1
100
AcDbLine
 10
104.31931191
 20
171.8
 30
0.0
 11
90.46290545
 21
171.8
 31
0.0
  0
LINE
  5
9A
100
AcDbEntity
  8
D-STR
  6
CONTINUOUS
 62
       1
100
AcDbLine
 10
111.24751514
 20
183.8
 30
0.0
 11
104.31931191
 21
171.8
 31
0.0
  0
LINE
  5
9B
100
AcDbEntity
  8
D-STR
  6
CONTINUOUS
 62
       1
100
AcDbLine
 10
104.31931191
 20
195.8
 30
0.0
 11
111.24751514
 21
183.8
 31
0.0
  0
CIRCLE
  5
9C
100
AcDbEntity
  8
D-STR
  6
CONTINUOUS
 62
       7
100
AcDbCircle
 10
97.39110868
 20
183.8
 30
0.0
 40
8.0
  0
LINE
  5
9D
100
AcDbEntity
  8
D-BMK
  6
CENTER
 62
       2
100
AcDbLine
 10
83.53470221
 20
183.8
 30
0.0
 11
111.24751514
 21
183.8
 31
0.0
  0
LINE
  5
9E
100
AcDbEntity
  8
D-BMK
  6
CENTER
 62
       2
100
AcDbLine
 10
97.39110868
 20
171.8
 30
0.0
 11
97.39110868
 21
195.8
 31
0.0
  0
ENDBLK
  5
9F
100
AcDbEntity
  8
0
100
AcDbBlockEnd
  0
BLOCK
  5
A0
100
AcDbEntity
  8
0
100
AcDbBlockBegin
  2
GROUP_7
 70
       0
 10
0.0
 20
0.0
 30
0.0
  3
GROUP_7
  1

  0
CIRCLE
  5
A1
100
AcDbEntity
  8
D-STR
  6
CONTINUOUS
 62
       1
100
AcDbCircle
 10
145.88853129
 20
196.0
 30
0.0
 40
8.647
  0
CIRCLE
  5
A2
100
AcDbEntity
  8
D-STR
  6
CONTINUOUS
 62
       1
100
AcDbCircle
 10
145.88853129
 20
196.0
 30
0.0
 40
15.0
  0
LINE
  5
A3
100
AcDbEntity
  8
D-STR
  6
CONTINUOUS
 62
       1
100
AcDbLine
 10
137.22827725
 20
211.0
 30
0.0
 11
154.54878533
 21
211.0
 31
0.0
  0
LINE
  5
A4
100
AcDbEntity
  8
D-STR
  6
CONTINUOUS
 62
       1
100
AcDbLine
 10
128.56802321
 20
196.0
 30
0.0
 11
137.22827725
 21
211.0
 31
0.0
  0
LINE
  5
A5
100
AcDbEntity
  8
D-STR
  6
CONTINUOUS
 62
       1
100
AcDbLine
 10
137.22827725
 20
181.0
 30
0.0
 11
128.56802321
 21
196.0
 31
0.0
  0
LINE
  5
A6
100
AcDbEntity
  8
D-STR
  6
CONTINUOUS
 62
       1
100
AcDbLine
 10
154.54878533
 20
181.0
 30
0.0
 11
137.22827725
 21
181.0
 31
0.0
  0
LINE
  5
A7
100
AcDbEntity
  8
D-STR
  6
CONTINUOUS
 62
       1
100
AcDbLine
 10
163.20903936
 20
196.0
 30
0.0
 11
154.54878533
 21
181.0
 31
0.0
  0
LINE
  5
A8
100
AcDbEntity
  8
D-STR
  6
CONTINUOUS
 62
       1
100
AcDbLine
 10
154.54878533
 20
211.0
 30
0.0
 11
163.20903936
 21
196.0
 31
0.0
  0
CIRCLE
  5
A9
100
AcDbEntity
  8
D-STR
  6
CONTINUOUS
 62
       7
100
AcDbCircle
 10
145.88853129
 20
196.0
 30
0.0
 40
10.0
  0
LINE
  5
AA
100
AcDbEntity
  8
D-BMK
  6
CENTER
 62
       2
100
AcDbLine
 10
128.56802321
 20
196.0
 30
0.0
 11
163.20903936
 21
196.0
 31
0.0
  0
LINE
  5
AB
100
AcDbEntity
  8
D-BMK
  6
CENTER
 62
       2
100
AcDbLine
 10
145.88853129
 20
181.0
 30
0.0
 11
145.88853129
 21
211.0
 31
0.0
  0
ENDBLK
  5
AC
100
AcDbEntity
  8
0
100
AcDbBlockEnd
  0
BLOCK
  5
AD
100
AcDbEntity
  8
0
100
AcDbBlockBegin
  2
GROUP_8
 70
       0
 10
0.0
 20
0.0
 30
0.0
  3
GROUP_8
  1

  0
CIRCLE
  5
AE
100
AcDbEntity
  8
D-STR
  6
CONTINUOUS
 62
       1
100
AcDbCircle
 10
204.77825874
 20
208.5
 30
0.0
 40
10.376
  0
CIRCLE
  5
AF
100
AcDbEntity
  8
D-STR
  6
CONTINUOUS
 62
       1
100
AcDbCircle
 10
204.77825874
 20
208.5
 30
0.0
 40
18.0
  0
LINE
  5
B0
100
AcDbEntity
  8
D-STR
  6
CONTINUOUS
 62
       1
100
AcDbLine
 10
194.3859539
 20
226.5
 30
0.0
 11
215.17056359
 21
226.5
 31
0.0
  0
LINE
  5
B1
100
AcDbEntity
  8
D-STR
  6
CONTINUOUS
 62
       1
100
AcDbLine
 10
183.99364905
 20
208.5
 30
0.0
 11
194.3859539
 21
226.5
 31
0.0
  0
LINE
  5
B2
100
AcDbEntity
  8
D-STR
  6
CONTINUOUS
 62
       1
100
AcDbLine
 10
194.3859539
 20
190.5
 30
0.0
 11
183.99364905
 21
208.5
 31
0.0
  0
LINE
  5
B3
100
AcDbEntity
  8
D-STR
  6
CONTINUOUS
 62
       1
100
AcDbLine
 10
215.17056359
 20
190.5
 30
0.0
 11
194.3859539
 21
190.5
 31
0.0
  0
LINE
  5
B4
100
AcDbEntity
  8
D-STR
  6
CONTINUOUS
 62
       1
100
AcDbLine
 10
225.56286844
 20
208.5
 30
0.0
 11
215.17056359
 21
190.5
 31
0.0
  0
LINE
  5
B5
100
AcDbEntity
  8
D-STR
  6
CONTINUOUS
 62
       1
100
AcDbLine
 10
215.17056359
 20
226.5
 30
0.0
 11
225.56286844
 21
208.5
 31
0.0
  0
CIRCLE
  5
B6
100
AcDbEntity
  8
D-STR
  6
CONTINUOUS
 62
       7
100
AcDbCircle
 10
204.77825874
 20
208.5
 30
0.0
 40
12.0
  0
LINE
  5
B7
100
AcDbEntity
  8
D-BMK
  6
CENTER
 62
       2
100
AcDbLine
 10
183.99364905
 20
208.5
 30
0.0
 11
225.56286844
 21
208.5
 31
0.0
  0
LINE
  5
B8
100
AcDbEntity
  8
D-BMK
  6
CENTER
 62
       2
100
AcDbLine
 10
204.77825874
 20
190.5
 30
0.0
 11
204.77825874
 21
226.5
 31
0.0
  0
ENDBLK
  5
B9
100
AcDbEntity
  8
0
100
AcDbBlockEnd
  0
BLOCK
  5
BA
100
AcDbEntity
  8
0
100
AcDbBlockBegin
  2
GROUP_9
 70
       0
 10
0.0
 20
0.0
 30
0.0
  3
GROUP_9
  1

  0
CIRCLE
  5
BB
100
AcDbEntity
  8
D-STR
  6
CONTINUOUS
 62
       1
100
AcDbCircle
 10
278.6790932
 20
227.6
 30
0.0
 40
13.1055
  0
CIRCLE
  5
BC
100
AcDbEntity
  8
D-STR
  6
CONTINUOUS
 62
       1
100
AcDbCircle
 10
278.6790932
 20
227.6
 30
0.0
 40
23.0
  0
LINE
  5
BD
100
AcDbEntity
  8
D-STR
  6
CONTINUOUS
 62
       1
100
AcDbLine
 10
265.40003701
 20
250.6
 30
0.0
 11
291.95814939
 21
250.6
 31
0.0
  0
LINE
  5
BE
100
AcDbEntity
  8
D-STR
  6
CONTINUOUS
 62
       1
100
AcDbLine
 10
252.12098082
 20
227.6
 30
0.0
 11
265.40003701
 21
250.6
 31
0.0
  0
LINE
  5
BF
100
AcDbEntity
  8
D-STR
  6
CONTINUOUS
 62
       1
100
AcDbLine
 10
265.40003701
 20
204.6
 30
0.0
 11
252.12098082
 21
227.6
 31
0.0
  0
LINE
  5
C0
100
AcDbEntity
  8
D-STR
  6
CONTINUOUS
 62
       1
100
AcDbLine
 10
291.95814939
 20
204.6
 30
0.0
 11
265.40003701
 21
204.6
 31
0.0
  0
LINE
  5
C1
100
AcDbEntity
  8
D-STR
  6
CONTINUOUS
 62
       1
100
AcDbLine
 10
305.23720558
 20
227.6
 30
0.0
 11
291.95814939
 21
204.6
 31
0.0
  0
LINE
  5
C2
100
AcDbEntity
  8
D-STR
  6
CONTINUOUS
 62
       1
100
AcDbLine
 10
291.95814939
 20
250.6
 30
0.0
 11
305.23720558
 21
227.6
 31
0.0
  0
CIRCLE
  5
C3
100
AcDbEntity
  8
D-STR
  6
CONTINUOUS
 62
       7
100
AcDbCircle
 10
278.6790932
 20
227.6
 30
0.0
 40
15.0
  0
LINE
  5
C4
100
AcDbEntity
  8
D-BMK
  6
CENTER
 62
       2
100
AcDbLine
 10
252.12098082
 20
227.6
 30
0.0
 11
305.23720558
 21
227.6
 31
0.0
  0
LINE
  5
C5
100
AcDbEntity
  8
D-BMK
  6
CENTER
 62
       2
100
AcDbLine
 10
278.6790932
 20
204.6
 30
0.0
 11
278.6790932
 21
250.6
 31
0.0
  0
ENDBLK
  5
C6
100
AcDbEntity
  8
0
100
AcDbBlockEnd
  0
BLOCK
  5
C7
100
AcDbEntity
  8
0
100
AcDbBlockBegin
  2
GROUP_10
 70
       0
 10
0.0
 20
0.0
 30
0.0
  3
GROUP_10
  1

  0
CIRCLE
  5
C8
100
AcDbEntity
  8
D-STR
  6
CONTINUOUS
 62
       1
100
AcDbCircle
 10
368.74573519
 20
249.5
 30
0.0
 40
15.835
  0
CIRCLE
  5
C9
100
AcDbEntity
  8
D-STR
  6
CONTINUOUS
 62
       1
100
AcDbCircle
 10
368.74573519
 20
249.5
 30
0.0
 40
27.5
  0
LINE
  5
CA
100
AcDbEntity
  8
D-STR
  6
CONTINUOUS
 62
       1
100
AcDbLine
 10
352.86860279
 20
277.0
 30
0.0
 11
384.6228676
 21
277.0
 31
0.0
  0
LINE
  5
CB
100
AcDbEntity
  8
D-STR
  6
CONTINUOUS
 62
       1
100
AcDbLine
 10
336.99147039
 20
249.5
 30
0.0
 11
352.86860279
 21
277.0
 31
0.0
  0
LINE
  5
CC
100
AcDbEntity
  8
D-STR
  6
CONTINUOUS
 62
       1
100
AcDbLine
 10
352.86860279
 20
222.0
 30
0.0
 11
336.99147039
 21
249.5
 31
0.0
  0
LINE
  5
CD
100
AcDbEntity
  8
D-STR
  6
CONTINUOUS
 62
       1
100
AcDbLine
 10
384.6228676
 20
222.0
 30
0.0
 11
352.86860279
 21
222.0
 31
0.0
  0
LINE
  5
CE
100
AcDbEntity
  8
D-STR
  6
CONTINUOUS
 62
       1
100
AcDbLine
 10
400.5
 20
249.5
 30
0.0
 11
384.6228676
 21
222.0
 31
0.0
  0
LINE
  5
CF
100
AcDbEntity
  8
D-STR
  6
CONTINUOUS
 62
       1
100
AcDbLine
 10
384.6228676
 20
277.0
 30
0.0
 11
400.5
 21
249.5
 31
0.0
  0
CIRCLE
  5
D0
100
AcDbEntity
  8
D-STR
  6
CONTINUOUS
 62
       7
100
AcDbCircle
 10
368.74573519
 20
249.5
 30
0.0
 40
18.0
  0
LINE
  5
D1
100
AcDbEntity
  8
D-BMK
  6
CENTER
 62
       2
100
AcDbLine
 10
336.99147039
 20
249.5
 30
0.0
 11
400.5
 21
249.5
 31
0.0
  0
LINE
  5
D2
100
AcDbEntity
  8
D-BMK
  6
CENTER
 62
       2
100
AcDbLine
 10
368.74573519
 20
222.0
 30
0.0
 11
368.74573519
 21
277.0
 31
0.0
  0
ENDBLK
  5
D3
100
AcDbEntity
  8
0
100
AcDbBlockEnd
  0
BLOCK
  5
D4
100
AcDbEntity
  8
0
100
AcDbBlockBegin
  2
GROUP_11
 70
       0
 10
0.0
 20
0.0
 30
0.0
  3
GROUP_11
  1

  0
LINE
  5
D5
100
AcDbEntity
  8
D-STR
  6
CONTINUOUS
 62
       1
100
AcDbLine
 10
-74.04046939
 20
138.1
 30
0.0
 11
-66.04046939
 21
138.1
 31
0.0
  0
LINE
  5
D6
100
AcDbEntity
  8
D-STR
  6
CONTINUOUS
 62
       1
100
AcDbLine
 10
-65.42166724
 20
133.35726559
 30
0.0
 11
-65.42166724
 21
137.74273441
 31
0.0
  0
LINE
  5
D7
100
AcDbEntity
  8
D-STR
  6
CONTINUOUS
 62
       1
100
AcDbLine
 10
-74.65927154
 20
133.35726559
 30
0.0
 11
-74.65927154
 21
137.74273441
 31
0.0
  0
LINE
  5
D8
100
AcDbEntity
  8
D-STR
  6
CONTINUOUS
 62
       1
100
AcDbLine
 10
-74.04046939
 20
138.1
 30
0.0
 11
-74.65927154
 21
137.74273441
 31
0.0
  0
LINE
  5
D9
100
AcDbEntity
  8
D-STR
  6
CONTINUOUS
 62
       1
100
AcDbLine
 10
-66.04046939
 20
138.1
 30
0.0
 11
-65.42166724
 21
137.74273441
 31
0.0
  0
ARC
  5
DA
100
AcDbEntity
  8
D-STR
  6
CONTINUOUS
 62
       1
100
AcDbCircle
 10
-70.04046939
 20
130.45726559
 30
0.0
 40
7.64273441
100
AcDbArc
 50
72.41204623
 51
107.58795377
  0
LINE
  5
DB
100
AcDbEntity
  8
D-STR
  6
CONTINUOUS
 62
       1
100
AcDbLine
 10
-67.73106831
 20
133.35726559
 30
0.0
 11
-67.73106831
 21
137.74273441
 31
0.0
  0
LINE
  5
DC
100
AcDbEntity
  8
D-STR
  6
CONTINUOUS
 62
       1
100
AcDbLine
 10
-72.34987047
 20
133.35726559
 30
0.0
 11
-72.34987047
 21
137.74273441
 31
0.0
  0
ARC
  5
DD
100
AcDbEntity
  8
D-STR
  6
CONTINUOUS
 62
       1
100
AcDbCircle
 10
-73.504571
 20
136.0553418
 30
0.0
 40
2.0446582
100
AcDbArc
 50
55.61575253
 51
124.38424747
  0
ARC
  5
DE
100
AcDbEntity
  8
D-STR
  6
CONTINUOUS
 62
       1
100
AcDbCircle
 10
-66.57636777
 20
136.0553418
 30
0.0
 40
2.0446582
100
AcDbArc
 50
55.61575253
 51
124.38424747
  0
ARC
  5
DF
100
AcDbEntity
  8
D-STR
  6
CONTINUOUS
 62
       1
100
AcDbCircle
 10
-70.04046939
 20
140.64273441
 30
0.0
 40
7.64273441
100
AcDbArc
 50
252.41204623
 51
287.58795377
  0
ARC
  5
E0
100
AcDbEntity
  8
D-STR
  6
CONTINUOUS
 62
       1
100
AcDbCircle
 10
-73.504571
 20
135.0446582
 30
0.0
 40
2.0446582
100
AcDbArc
 50
235.61575253
 51
304.38424747
  0
ARC
  5
E1
100
AcDbEntity
  8
D-STR
  6
CONTINUOUS
 62
       1
100
AcDbCircle
 10
-66.57636777
 20
135.0446582
 30
0.0
 40
2.0446582
100
AcDbArc
 50
235.61575253
 51
304.38424747
  0
LINE
  5
E2
100
AcDbEntity
  8
D-STR
  6
CONTINUOUS
 62
       1
100
AcDbLine
 10
-74.04046939
 20
133.0
 30
0.0
 11
-66.04046939
 21
133.0
 31
0.0
  0
LINE
  5
E3
100
AcDbEntity
  8
D-STR
  6
CONTINUOUS
 62
       1
100
AcDbLine
 10
-74.04046939
 20
133.0
 30
0.0
 11
-74.65927154
 21
133.35726559
 31
0.0
  0
LINE
  5
E4
100
AcDbEntity
  8
D-STR
  6
CONTINUOUS
 62
       1
100
AcDbLine
 10
-66.04046939
 20
133.0
 30
0.0
 11
-65.42166724
 21
133.35726559
 31
0.0
  0
LINE
  5
E5
100
AcDbEntity
  8
D-BMK
  6
CENTER
 62
       2
100
AcDbLine
 10
-70.04046939
 20
138.1
 30
0.0
 11
-70.04046939
 21
133.0
 31
0.0
  0
ENDBLK
  5
E6
100
AcDbEntity
  8
0
100
AcDbBlockEnd
  0
BLOCK
  5
E7
100
AcDbEntity
  8
0
100
AcDbBlockBegin
  2
GROUP_12
 70
       0
 10
0.0
 20
0.0
 30
0.0
  3
GROUP_12
  1

  0
LINE
  5
E8
100
AcDbEntity
  8
D-STR
  6
CONTINUOUS
 62
       1
100
AcDbLine
 10
-58.87466185
 20
138.7
 30
0.0
 11
-48.87466185
 21
138.7
 31
0.0
  0
LINE
  5
E9
100
AcDbEntity
  8
D-STR
  6
CONTINUOUS
 62
       1
100
AcDbLine
 10
-48.10115916
 20
133.44658199
 30
0.0
 11
-48.10115916
 21
138.25341801
 31
0.0
  0
LINE
  5
EA
100
AcDbEntity
  8
D-STR
  6
CONTINUOUS
 62
       1
100
AcDbLine
 10
-59.64816454
 20
133.44658199
 30
0.0
 11
-59.64816454
 21
138.25341801
 31
0.0
  0
LINE
  5
EB
100
AcDbEntity
  8
D-STR
  6
CONTINUOUS
 62
       1
100
AcDbLine
 10
-58.87466185
 20
138.7
 30
0.0
 11
-59.64816454
 21
138.25341801
 31
0.0
  0
LINE
  5
EC
100
AcDbEntity
  8
D-STR
  6
CONTINUOUS
 62
       1
100
AcDbLine
 10
-48.87466185
 20
138.7
 30
0.0
 11
-48.10115916
 21
138.25341801
 31
0.0
  0
ARC
  5
ED
100
AcDbEntity
  8
D-STR
  6
CONTINUOUS
 62
       1
100
AcDbCircle
 10
-53.87466185
 20
129.14658199
 30
0.0
 40
9.55341801
100
AcDbArc
 50
72.41204623
 51
107.58795377
  0
LINE
  5
EE
100
AcDbEntity
  8
D-STR
  6
CONTINUOUS
 62
       1
100
AcDbLine
 10
-50.98791051
 20
133.44658199
 30
0.0
 11
-50.98791051
 21
138.25341801
 31
0.0
  0
LINE
  5
EF
100
AcDbEntity
  8
D-STR
  6
CONTINUOUS
 62
       1
100
AcDbLine
 10
-56.7614132
 20
133.44658199
 30
0.0
 11
-56.7614132
 21
138.25341801
 31
0.0
  0
ARC
  5
F0
100
AcDbEntity
  8
D-STR
  6
CONTINUOUS
 62
       1
100
AcDbCircle
 10
-58.20478887
 20
136.14417725
 30
0.0
 40
2.55582275
100
AcDbArc
 50
55.61575253
 51
124.38424747
  0
ARC
  5
F1
100
AcDbEntity
  8
D-STR
  6
CONTINUOUS
 62
       1
100
AcDbCircle
 10
-49.54453483
 20
136.14417725
 30
0.0
 40
2.55582275
100
AcDbArc
 50
55.61575253
 51
124.38424747
  0
ARC
  5
F2
100
AcDbEntity
  8
D-STR
  6
CONTINUOUS
 62
       1
100
AcDbCircle
 10
-53.87466185
 20
142.55341801
 30
0.0
 40
9.55341801
100
AcDbArc
 50
252.41204623
 51
287.58795377
  0
ARC
  5
F3
100
AcDbEntity
  8
D-STR
  6
CONTINUOUS
 62
       1
100
AcDbCircle
 10
-58.20478887
 20
135.55582275
 30
0.0
 40
2.55582275
100
AcDbArc
 50
235.61575253
 51
304.38424747
  0
ARC
  5
F4
100
AcDbEntity
  8
D-STR
  6
CONTINUOUS
 62
       1
100
AcDbCircle
 10
-49.54453483
 20
135.55582275
 30
0.0
 40
2.55582275
100
AcDbArc
 50
235.61575253
 51
304.38424747
  0
LINE
  5
F5
100
AcDbEntity
  8
D-STR
  6
CONTINUOUS
 62
       1
100
AcDbLine
 10
-58.87466185
 20
133.0
 30
0.0
 11
-48.87466185
 21
133.0
 31
0.0
  0
LINE
  5
F6
100
AcDbEntity
  8
D-STR
  6
CONTINUOUS
 62
       1
100
AcDbLine
 10
-58.87466185
 20
133.0
 30
0.0
 11
-59.64816454
 21
133.44658199
 31
0.0
  0
LINE
  5
F7
100
AcDbEntity
  8
D-STR
  6
CONTINUOUS
 62
       1
100
AcDbLine
 10
-48.87466185
 20
133.0
 30
0.0
 11
-48.10115916
 21
133.44658199
 31
0.0
  0
LINE
  5
F8
100
AcDbEntity
  8
D-BMK
  6
CENTER
 62
       2
100
AcDbLine
 10
-53.87466185
 20
138.7
 30
0.0
 11
-53.87466185
 21
133.0
 31
0.0
  0
ENDBLK
  5
F9
100
AcDbEntity
  8
0
100
AcDbBlockEnd
  0
BLOCK
  5
FA
100
AcDbEntity
  8
0
100
AcDbBlockBegin
  2
GROUP_13
 70
       0
 10
0.0
 20
0.0
 30
0.0
  3
GROUP_13
  1

  0
LINE
  5
FB
100
AcDbEntity
  8
D-STR
  6
CONTINUOUS
 62
       1
100
AcDbLine
 10
-39.59005216
 20
140.5
 30
0.0
 11
-26.59005216
 21
140.5
 31
0.0
  0
LINE
  5
FC
100
AcDbEntity
  8
D-STR
  6
CONTINUOUS
 62
       1
100
AcDbLine
 10
-25.58449866
 20
133.58055658
 30
0.0
 11
-25.58449866
 21
139.91944342
 31
0.0
  0
LINE
  5
FD
100
AcDbEntity
  8
D-STR
  6
CONTINUOUS
 62
       1
100
AcDbLine
 10
-40.59560566
 20
133.58055658
 30
0.0
 11
-40.59560566
 21
139.91944342
 31
0.0
  0
LINE
  5
FE
100
AcDbEntity
  8
D-STR
  6
CONTINUOUS
 62
       1
100
AcDbLine
 10
-39.59005216
 20
140.5
 30
0.0
 11
-40.59560566
 21
139.91944342
 31
0.0
  0
LINE
  5
FF
100
AcDbEntity
  8
D-STR
  6
CONTINUOUS
 62
       1
100
AcDbLine
 10
-26.59005216
 20
140.5
 30
0.0
 11
-25.58449866
 21
139.91944342
 31
0.0
  0
ARC
  5
100
100
AcDbEntity
  8
D-STR
  6
CONTINUOUS
 62
       1
100
AcDbCircle
 10
-33.09005216
 20
128.08055658
 30
0.0
 40
12.41944342
100
AcDbArc
 50
72.41204623
 51
107.58795377
  0
LINE
  5
101
100
AcDbEntity
  8
D-STR
  6
CONTINUOUS
 62
       1
100
AcDbLine
 10
-29.33727541
 20
133.58055658
 30
0.0
 11
-29.33727541
 21
139.91944342
 31
0.0
  0
LINE
  5
102
100
AcDbEntity
  8
D-STR
  6
CONTINUOUS
 62
       1
100
AcDbLine
 10
-36.84282891
 20
133.58055658
 30
0.0
 11
-36.84282891
 21
139.91944342
 31
0.0
  0
ARC
  5
103
100
AcDbEntity
  8
D-STR
  6
CONTINUOUS
 62
       1
100
AcDbCircle
 10
-38.71921729
 20
137.17743043
 30
0.0
 40
3.32256957
100
AcDbArc
 50
55.61575253
 51
124.38424747
  0
ARC
  5
104
100
AcDbEntity
  8
D-STR
  6
CONTINUOUS
 62
       1
100
AcDbCircle
 10
-27.46088704
 20
137.17743043
 30
0.0
 40
3.32256957
100
AcDbArc
 50
55.61575253
 51
124.38424747
  0
ARC
  5
105
100
AcDbEntity
  8
D-STR
  6
CONTINUOUS
 62
       1
100
AcDbCircle
 10
-33.09005216
 20
145.41944342
 30
0.0
 40
12.41944342
100
AcDbArc
 50
252.41204623
 51
287.58795377
  0
ARC
  5
106
100
AcDbEntity
  8
D-STR
  6
CONTINUOUS
 62
       1
100
AcDbCircle
 10
-38.71921729
 20
136.32256957
 30
0.0
 40
3.32256957
100
AcDbArc
 50
235.61575253
 51
304.38424747
  0
ARC
  5
107
100
AcDbEntity
  8
D-STR
  6
CONTINUOUS
 62
       1
100
AcDbCircle
 10
-27.46088704
 20
136.32256957
 30
0.0
 40
3.32256957
100
AcDbArc
 50
235.61575253
 51
304.38424747
  0
LINE
  5
108
100
AcDbEntity
  8
D-STR
  6
CONTINUOUS
 62
       1
100
AcDbLine
 10
-39.59005216
 20
133.0
 30
0.0
 11
-26.59005216
 21
133.0
 31
0.0
  0
LINE
  5
109
100
AcDbEntity
  8
D-STR
  6
CONTINUOUS
 62
       1
100
AcDbLine
 10
-39.59005216
 20
133.0
 30
0.0
 11
-40.59560566
 21
133.58055658
 31
0.0
  0
LINE
  5
10A
100
AcDbEntity
  8
D-STR
  6
CONTINUOUS
 62
       1
100
AcDbLine
 10
-26.59005216
 20
133.0
 30
0.0
 11
-25.58449866
 21
133.58055658
 31
0.0
  0
LINE
  5
10B
100
AcDbEntity
  8
D-BMK
  6
CENTER
 62
       2
100
AcDbLine
 10
-33.09005216
 20
140.5
 30
0.0
 11
-33.09005216
 21
133.0
 31
0.0
  0
ENDBLK
  5
10C
100
AcDbEntity
  8
0
100
AcDbBlockEnd
  0
BLOCK
  5
10D
100
AcDbEntity
  8
0
100
AcDbBlockBegin
  2
GROUP_14
 70
       0
 10
0.0
 20
0.0
 30
0.0
  3
GROUP_14
  1

  0
LINE
  5
10E
100
AcDbEntity
  8
D-STR
  6
CONTINUOUS
 62
       1
100
AcDbLine
 10
-15.10929005
 20
142.3
 30
0.0
 11
0.89070995
 21
142.3
 31
0.0
  0
LINE
  5
10F
100
AcDbEntity
  8
D-STR
  6
CONTINUOUS
 62
       1
100
AcDbLine
 10
2.12831426
 20
133.71453118
 30
0.0
 11
2.12831426
 21
141.58546882
 31
0.0
  0
LINE
  5
110
100
AcDbEntity
  8
D-STR
  6
CONTINUOUS
 62
       1
100
AcDbLine
 10
-16.34689435
 20
133.71453118
 30
0.0
 11
-16.34689435
 21
141.58546882
 31
0.0
  0
LINE
  5
111
100
AcDbEntity
  8
D-STR
  6
CONTINUOUS
 62
       1
100
AcDbLine
 10
-15.10929005
 20
142.3
 30
0.0
 11
-16.34689435
 21
141.58546882
 31
0.0
  0
LINE
  5
112
100
AcDbEntity
  8
D-STR
  6
CONTINUOUS
 62
       1
100
AcDbLine
 10
0.89070995
 20
142.3
 30
0.0
 11
2.12831426
 21
141.58546882
 31
0.0
  0
ARC
  5
113
100
AcDbEntity
  8
D-STR
  6
CONTINUOUS
 62
       1
100
AcDbCircle
 10
-7.10929005
 20
127.01453118
 30
0.0
 40
15.28546882
100
AcDbArc
 50
72.41204623
 51
107.58795377
  0
LINE
  5
114
100
AcDbEntity
  8
D-STR
  6
CONTINUOUS
 62
       1
100
AcDbLine
 10
-2.49048789
 20
133.71453118
 30
0.0
 11
-2.49048789
 21
141.58546882
 31
0.0
  0
LINE
  5
115
100
AcDbEntity
  8
D-STR
  6
CONTINUOUS
 62
       1
100
AcDbLine
 10
-11.7280922
 20
133.71453118
 30
0.0
 11
-11.7280922
 21
141.58546882
 31
0.0
  0
ARC
  5
116
100
AcDbEntity
  8
D-STR
  6
CONTINUOUS
 62
       1
100
AcDbCircle
 10
-14.03749328
 20
138.2106836
 30
0.0
 40
4.0893164
100
AcDbArc
 50
55.61575253
 51
124.38424747
  0
ARC
  5
117
100
AcDbEntity
  8
D-STR
  6
CONTINUOUS
 62
       1
100
AcDbCircle
 10
-0.18108682
 20
138.2106836
 30
0.0
 40
4.0893164
100
AcDbArc
 50
55.61575253
 51
124.38424747
  0
ARC
  5
118
100
AcDbEntity
  8
D-STR
  6
CONTINUOUS
 62
       1
100
AcDbCircle
 10
-7.10929005
 20
148.28546882
 30
0.0
 40
15.28546882
100
AcDbArc
 50
252.41204623
 51
287.58795377
  0
ARC
  5
119
100
AcDbEntity
  8
D-STR
  6
CONTINUOUS
 62
       1
100
AcDbCircle
 10
-14.03749328
 20
137.0893164
 30
0.0
 40
4.0893164
100
AcDbArc
 50
235.61575253
 51
304.38424747
  0
ARC
  5
11A
100
AcDbEntity
  8
D-STR
  6
CONTINUOUS
 62
       1
100
AcDbCircle
 10
-0.18108682
 20
137.0893164
 30
0.0
 40
4.0893164
100
AcDbArc
 50
235.61575253
 51
304.38424747
  0
LINE
  5
11B
100
AcDbEntity
  8
D-STR
  6
CONTINUOUS
 62
       1
100
AcDbLine
 10
-15.10929005
 20
133.0
 30
0.0
 11
0.89070995
 21
133.0
 31
0.0
  0
LINE
  5
11C
100
AcDbEntity
  8
D-STR
  6
CONTINUOUS
 62
       1
100
AcDbLine
 10
-15.10929005
 20
133.0
 30
0.0
 11
-16.34689435
 21
133.71453118
 31
0.0
  0
LINE
  5
11D
100
AcDbEntity
  8
D-STR
  6
CONTINUOUS
 62
       1
100
AcDbLine
 10
0.89070995
 20
133.0
 30
0.0
 11
2.12831426
 21
133.71453118
 31
0.0
  0
LINE
  5
11E
100
AcDbEntity
  8
D-BMK
  6
CENTER
 62
       2
100
AcDbLine
 10
-7.10929005
 20
142.3
 30
0.0
 11
-7.10929005
 21
133.0
 31
0.0
  0
ENDBLK
  5
11F
100
AcDbEntity
  8
0
100
AcDbBlockEnd
  0
BLOCK
  5
120
100
AcDbEntity
  8
0
100
AcDbBlockBegin
  2
GROUP_15
 70
       0
 10
0.0
 20
0.0
 30
0.0
  3
GROUP_15
  1

  0
LINE
  5
121
100
AcDbEntity
  8
D-STR
  6
CONTINUOUS
 62
       1
100
AcDbLine
 10
13.91292395
 20
145.0
 30
0.0
 11
31.91292395
 21
145.0
 31
0.0
  0
LINE
  5
122
100
AcDbEntity
  8
D-STR
  6
CONTINUOUS
 62
       1
100
AcDbLine
 10
33.3052288
 20
133.80384758
 30
0.0
 11
33.3052288
 21
144.19615242
 31
0.0
  0
LINE
  5
123
100
AcDbEntity
  8
D-STR
  6
CONTINUOUS
 62
       1
100
AcDbLine
 10
12.5206191
 20
133.80384758
 30
0.0
 11
12.5206191
 21
144.19615242
 31
0.0
  0
LINE
  5
124
100
AcDbEntity
  8
D-STR
  6
CONTINUOUS
 62
       1
100
AcDbLine
 10
13.91292395
 20
145.0
 30
0.0
 11
12.5206191
 21
144.19615242
 31
0.0
  0
LINE
  5
125
100
AcDbEntity
  8
D-STR
  6
CONTINUOUS
 62
       1
100
AcDbLine
 10
31.91292395
 20
145.0
 30
0.0
 11
33.3052288
 21
144.19615242
 31
0.0
  0
ARC
  5
126
100
AcDbEntity
  8
D-STR
  6
CONTINUOUS
 62
       1
100
AcDbCircle
 10
22.91292395
 20
127.80384758
 30
0.0
 40
17.19615242
100
AcDbArc
 50
72.41204623
 51
107.58795377
  0
LINE
  5
127
100
AcDbEntity
  8
D-STR
  6
CONTINUOUS
 62
       1
100
AcDbLine
 10
28.10907637
 20
133.80384758
 30
0.0
 11
28.10907637
 21
144.19615242
 31
0.0
  0
LINE
  5
128
100
AcDbEntity
  8
D-STR
  6
CONTINUOUS
 62
       1
100
AcDbLine
 10
17.71677153
 20
133.80384758
 30
0.0
 11
17.71677153
 21
144.19615242
 31
0.0
  0
ARC
  5
129
100
AcDbEntity
  8
D-STR
  6
CONTINUOUS
 62
       1
100
AcDbCircle
 10
15.11869532
 20
140.39951905
 30
0.0
 40
4.60048095
100
AcDbArc
 50
55.61575253
 51
124.38424747
  0
ARC
  5
12A
100
AcDbEntity
  8
D-STR
  6
CONTINUOUS
 62
       1
100
AcDbCircle
 10
30.70715258
 20
140.39951905
 30
0.0
 40
4.60048095
100
AcDbArc
 50
55.61575253
 51
124.38424747
  0
ARC
  5
12B
100
AcDbEntity
  8
D-STR
  6
CONTINUOUS
 62
       1
100
AcDbCircle
 10
22.91292395
 20
150.19615242
 30
0.0
 40
17.19615242
100
AcDbArc
 50
252.41204623
 51
287.58795377
  0
ARC
  5
12C
100
AcDbEntity
  8
D-STR
  6
CONTINUOUS
 62
       1
100
AcDbCircle
 10
15.11869532
 20
137.60048095
 30
0.0
 40
4.60048095
100
AcDbArc
 50
235.61575253
 51
304.38424747
  0
ARC
  5
12D
100
AcDbEntity
  8
D-STR
  6
CONTINUOUS
 62
       1
100
AcDbCircle
 10
30.70715258
 20
137.60048095
 30
0.0
 40
4.60048095
100
AcDbArc
 50
235.61575253
 51
304.38424747
  0
LINE
  5
12E
100
AcDbEntity
  8
D-STR
  6
CONTINUOUS
 62
       1
100
AcDbLine
 10
13.91292395
 20
133.0
 30
0.0
 11
31.91292395
 21
133.0
 31
0.0
  0
LINE
  5
12F
100
AcDbEntity
  8
D-STR
  6
CONTINUOUS
 62
       1
100
AcDbLine
 10
13.91292395
 20
133.0
 30
0.0
 11
12.5206191
 21
133.80384758
 31
0.0
  0
LINE
  5
130
100
AcDbEntity
  8
D-STR
  6
CONTINUOUS
 62
       1
100
AcDbLine
 10
31.91292395
 20
133.0
 30
0.0
 11
33.3052288
 21
133.80384758
 31
0.0
  0
LINE
  5
131
100
AcDbEntity
  8
D-BMK
  6
CENTER
 62
       2
100
AcDbLine
 10
22.91292395
 20
145.0
 30
0.0
 11
22.91292395
 21
133.0
 31
0.0
  0
ENDBLK
  5
132
100
AcDbEntity
  8
0
100
AcDbBlockEnd
  0
BLOCK
  5
133
100
AcDbEntity
  8
0
100
AcDbBlockBegin
  2
GROUP_16
 70
       0
 10
0.0
 20
0.0
 30
0.0
  3
GROUP_16
  1

  0
LINE
  5
134
100
AcDbEntity
  8
D-STR
  6
CONTINUOUS
 62
       1
100
AcDbLine
 10
85.39110868
 20
149.4
 30
0.0
 11
109.39110868
 21
149.4
 31
0.0
  0
LINE
  5
135
100
AcDbEntity
  8
D-STR
  6
CONTINUOUS
 62
       1
100
AcDbLine
 10
111.24751514
 20
134.07179677
 30
0.0
 11
111.24751514
 21
148.32820323
 31
0.0
  0
LINE
  5
136
100
AcDbEntity
  8
D-STR
  6
CONTINUOUS
 62
       1
100
AcDbLine
 10
83.53470221
 20
134.07179677
 30
0.0
 11
83.53470221
 21
148.32820323
 31
0.0
  0
LINE
  5
137
100
AcDbEntity
  8
D-STR
  6
CONTINUOUS
 62
       1
100
AcDbLine
 10
85.39110868
 20
149.4
 30
0.0
 11
83.53470221
 21
148.32820323
 31
0.0
  0
LINE
  5
138
100
AcDbEntity
  8
D-STR
  6
CONTINUOUS
 62
       1
100
AcDbLine
 10
109.39110868
 20
149.4
 30
0.0
 11
111.24751514
 21
148.32820323
 31
0.0
  0
ARC
  5
139
100
AcDbEntity
  8
D-STR
  6
CONTINUOUS
 62
       1
100
AcDbCircle
 10
97.39110868
 20
126.47179677
 30
0.0
 40
22.92820323
100
AcDbArc
 50
72.41204623
 51
107.58795377
  0
LINE
  5
13A
100
AcDbEntity
  8
D-STR
  6
CONTINUOUS
 62
       1
100
AcDbLine
 10
104.31931191
 20
134.07179677
 30
0.0
 11
104.31931191
 21
148.32820323
 31
0.0
  0
LINE
  5
13B
100
AcDbEntity
  8
D-STR
  6
CONTINUOUS
 62
       1
100
AcDbLine
 10
90.46290545
 20
134.07179677
 30
0.0
 11
90.46290545
 21
148.32820323
 31
0.0
  0
ARC
  5
13C
100
AcDbEntity
  8
D-STR
  6
CONTINUOUS
 62
       1
100
AcDbCircle
 10
86.99880383
 20
143.2660254
 30
0.0
 40
6.1339746
100
AcDbArc
 50
55.61575253
 51
124.38424747
  0
ARC
  5
13D
100
AcDbEntity
  8
D-STR
  6
CONTINUOUS
 62
       1
100
AcDbCircle
 10
107.78341352
 20
143.2660254
 30
0.0
 40
6.1339746
100
AcDbArc
 50
55.61575253
 51
124.38424747
  0
ARC
  5
13E
100
AcDbEntity
  8
D-STR
  6
CONTINUOUS
 62
       1
100
AcDbCircle
 10
86.99880383
 20
139.1339746
 30
0.0
 40
6.1339746
100
AcDbArc
 50
235.61575253
 51
304.38424747
  0
ARC
  5
13F
100
AcDbEntity
  8
D-STR
  6
CONTINUOUS
 62
       1
100
AcDbCircle
 10
97.39110868
 20
155.92820323
 30
0.0
 40
22.92820323
100
AcDbArc
 50
252.41204623
 51
287.58795377
  0
ARC
  5
140
100
AcDbEntity
  8
D-STR
  6
CONTINUOUS
 62
       1
100
AcDbCircle
 10
107.78341352
 20
139.1339746
 30
0.0
 40
6.1339746
100
AcDbArc
 50
235.61575253
 51
304.38424747
  0
LINE
  5
141
100
AcDbEntity
  8
D-STR
  6
CONTINUOUS
 62
       1
100
AcDbLine
 10
85.39110868
 20
133.0
 30
0.0
 11
109.39110868
 21
133.0
 31
0.0
  0
LINE
  5
142
100
AcDbEntity
  8
D-STR
  6
CONTINUOUS
 62
       1
100
AcDbLine
 10
85.39110868
 20
133.0
 30
0.0
 11
83.53470221
 21
134.07179677
 31
0.0
  0
LINE
  5
143
100
AcDbEntity
  8
D-STR
  6
CONTINUOUS
 62
       1
100
AcDbLine
 10
109.39110868
 20
133.0
 30
0.0
 11
111.24751514
 21
134.07179677
 31
0.0
  0
LINE
  5
144
100
AcDbEntity
  8
D-BMK
  6
CENTER
 62
       2
100
AcDbLine
 10
97.39110868
 20
149.4
 30
0.0
 11
97.39110868
 21
133.0
 31
0.0
  0
ENDBLK
  5
145
100
AcDbEntity
  8
0
100
AcDbBlockEnd
  0
BLOCK
  5
146
100
AcDbEntity
  8
0
100
AcDbBlockBegin
  2
GROUP_17
 70
       0
 10
0.0
 20
0.0
 30
0.0
  3
GROUP_17
  1

  0
LINE
  5
147
100
AcDbEntity
  8
D-STR
  6
CONTINUOUS
 62
       1
100
AcDbLine
 10
130.88853129
 20
153.3
 30
0.0
 11
160.88853129
 21
153.3
 31
0.0
  0
LINE
  5
148
100
AcDbEntity
  8
D-STR
  6
CONTINUOUS
 62
       1
100
AcDbLine
 10
163.20903936
 20
134.33974596
 30
0.0
 11
163.20903936
 21
151.96025404
 31
0.0
  0
LINE
  5
149
100
AcDbEntity
  8
D-STR
  6
CONTINUOUS
 62
       1
100
AcDbLine
 10
128.56802321
 20
134.33974596
 30
0.0
 11
128.56802321
 21
151.96025404
 31
0.0
  0
LINE
  5
14A
100
AcDbEntity
  8
D-STR
  6
CONTINUOUS
 62
       1
100
AcDbLine
 10
130.88853129
 20
153.3
 30
0.0
 11
128.56802321
 21
151.96025404
 31
0.0
  0
LINE
  5
14B
100
AcDbEntity
  8
D-STR
  6
CONTINUOUS
 62
       1
100
AcDbLine
 10
160.88853129
 20
153.3
 30
0.0
 11
163.20903936
 21
151.96025404
 31
0.0
  0
ARC
  5
14C
100
AcDbEntity
  8
D-STR
  6
CONTINUOUS
 62
       1
100
AcDbCircle
 10
145.88853129
 20
124.63974596
 30
0.0
 40
28.66025404
100
AcDbArc
 50
72.41204623
 51
107.58795377
  0
LINE
  5
14D
100
AcDbEntity
  8
D-STR
  6
CONTINUOUS
 62
       1
100
AcDbLine
 10
154.54878533
 20
134.33974596
 30
0.0
 11
154.54878533
 21
151.96025404
 31
0.0
  0
LINE
  5
14E
100
AcDbEntity
  8
D-STR
  6
CONTINUOUS
 62
       1
100
AcDbLine
 10
137.22827725
 20
134.33974596
 30
0.0
 11
137.22827725
 21
151.96025404
 31
0.0
  0
ARC
  5
14F
100
AcDbEntity
  8
D-STR
  6
CONTINUOUS
 62
       1
100
AcDbCircle
 10
132.89815023
 20
145.63253175
 30
0.0
 40
7.66746825
100
AcDbArc
 50
55.61575253
 51
124.38424747
  0
ARC
  5
150
100
AcDbEntity
  8
D-STR
  6
CONTINUOUS
 62
       1
100
AcDbCircle
 10
158.87891234
 20
145.63253175
 30
0.0
 40
7.66746825
100
AcDbArc
 50
55.61575253
 51
124.38424747
  0
ARC
  5
151
100
AcDbEntity
  8
D-STR
  6
CONTINUOUS
 62
       1
100
AcDbCircle
 10
145.88853129
 20
161.66025404
 30
0.0
 40
28.66025404
100
AcDbArc
 50
252.41204623
 51
287.58795377
  0
ARC
  5
152
100
AcDbEntity
  8
D-STR
  6
CONTINUOUS
 62
       1
100
AcDbCircle
 10
132.89815023
 20
140.66746825
 30
0.0
 40
7.66746825
100
AcDbArc
 50
235.61575253
 51
304.38424747
  0
ARC
  5
153
100
AcDbEntity
  8
D-STR
  6
CONTINUOUS
 62
       1
100
AcDbCircle
 10
158.87891234
 20
140.66746825
 30
0.0
 40
7.66746825
100
AcDbArc
 50
235.61575253
 51
304.38424747
  0
LINE
  5
154
100
AcDbEntity
  8
D-STR
  6
CONTINUOUS
 62
       1
100
AcDbLine
 10
130.88853129
 20
133.0
 30
0.0
 11
160.88853129
 21
133.0
 31
0.0
  0
LINE
  5
155
100
AcDbEntity
  8
D-STR
  6
CONTINUOUS
 62
       1
100
AcDbLine
 10
130.88853129
 20
133.0
 30
0.0
 11
128.56802321
 21
134.33974596
 31
0.0
  0
LINE
  5
156
100
AcDbEntity
  8
D-STR
  6
CONTINUOUS
 62
       1
100
AcDbLine
 10
160.88853129
 20
133.0
 30
0.0
 11
163.20903936
 21
134.33974596
 31
0.0
  0
LINE
  5
157
100
AcDbEntity
  8
D-BMK
  6
CENTER
 62
       2
100
AcDbLine
 10
145.88853129
 20
153.3
 30
0.0
 11
145.88853129
 21
133.0
 31
0.0
  0
ENDBLK
  5
158
100
AcDbEntity
  8
0
100
AcDbBlockEnd
  0
BLOCK
  5
159
100
AcDbEntity
  8
0
100
AcDbBlockBegin
  2
GROUP_18
 70
       0
 10
0.0
 20
0.0
 30
0.0
  3
GROUP_18
  1

  0
LINE
  5
15A
100
AcDbEntity
  8
D-STR
  6
CONTINUOUS
 62
       1
100
AcDbLine
 10
186.77825874
 20
156.9
 30
0.0
 11
222.77825874
 21
156.9
 31
0.0
  0
LINE
  5
15B
100
AcDbEntity
  8
D-STR
  6
CONTINUOUS
 62
       1
100
AcDbLine
 10
225.56286844
 20
134.60769515
 30
0.0
 11
225.56286844
 21
155.29230485
 31
0.0
  0
LINE
  5
15C
100
AcDbEntity
  8
D-STR
  6
CONTINUOUS
 62
       1
100
AcDbLine
 10
183.99364905
 20
134.60769515
 30
0.0
 11
183.99364905
 21
155.29230485
 31
0.0
  0
LINE
  5
15D
100
AcDbEntity
  8
D-STR
  6
CONTINUOUS
 62
       1
100
AcDbLine
 10
186.77825874
 20
156.9
 30
0.0
 11
183.99364905
 21
155.29230485
 31
0.0
  0
LINE
  5
15E
100
AcDbEntity
  8
D-STR
  6
CONTINUOUS
 62
       1
100
AcDbLine
 10
222.77825874
 20
156.9
 30
0.0
 11
225.56286844
 21
155.29230485
 31
0.0
  0
ARC
  5
15F
100
AcDbEntity
  8
D-STR
  6
CONTINUOUS
 62
       1
100
AcDbCircle
 10
204.77825874
 20
122.50769515
 30
0.0
 40
34.39230485
100
AcDbArc
 50
72.41204623
 51
107.58795377
  0
LINE
  5
160
100
AcDbEntity
  8
D-STR
  6
CONTINUOUS
 62
       1
100
AcDbLine
 10
215.17056359
 20
134.60769515
 30
0.0
 11
215.17056359
 21
155.29230485
 31
0.0
  0
LINE
  5
161
100
AcDbEntity
  8
D-STR
  6
CONTINUOUS
 62
       1
100
AcDbLine
 10
194.3859539
 20
134.60769515
 30
0.0
 11
194.3859539
 21
155.29230485
 31
0.0
  0
ARC
  5
162
100
AcDbEntity
  8
D-STR
  6
CONTINUOUS
 62
       1
100
AcDbCircle
 10
189.18980148
 20
147.69903811
 30
0.0
 40
9.20096189
100
AcDbArc
 50
55.61575253
 51
124.38424747
  0
ARC
  5
163
100
AcDbEntity
  8
D-STR
  6
CONTINUOUS
 62
       1
100
AcDbCircle
 10
220.36671601
 20
147.69903811
 30
0.0
 40
9.20096189
100
AcDbArc
 50
55.61575253
 51
124.38424747
  0
ARC
  5
164
100
AcDbEntity
  8
D-STR
  6
CONTINUOUS
 62
       1
100
AcDbCircle
 10
204.77825874
 20
167.39230485
 30
0.0
 40
34.39230485
100
AcDbArc
 50
252.41204623
 51
287.58795377
  0
ARC
  5
165
100
AcDbEntity
  8
D-STR
  6
CONTINUOUS
 62
       1
100
AcDbCircle
 10
189.18980148
 20
142.20096189
 30
0.0
 40
9.20096189
100
AcDbArc
 50
235.61575253
 51
304.38424747
  0
ARC
  5
166
100
AcDbEntity
  8
D-STR
  6
CONTINUOUS
 62
       1
100
AcDbCircle
 10
220.36671601
 20
142.20096189
 30
0.0
 40
9.20096189
100
AcDbArc
 50
235.61575253
 51
304.38424747
  0
LINE
  5
167
100
AcDbEntity
  8
D-STR
  6
CONTINUOUS
 62
       1
100
AcDbLine
 10
186.77825874
 20
133.0
 30
0.0
 11
222.77825874
 21
133.0
 31
0.0
  0
LINE
  5
168
100
AcDbEntity
  8
D-STR
  6
CONTINUOUS
 62
       1
100
AcDbLine
 10
186.77825874
 20
133.0
 30
0.0
 11
183.99364905
 21
134.60769515
 31
0.0
  0
LINE
  5
169
100
AcDbEntity
  8
D-STR
  6
CONTINUOUS
 62
       1
100
AcDbLine
 10
222.77825874
 20
133.0
 30
0.0
 11
225.56286844
 21
134.60769515
 31
0.0
  0
LINE
  5
16A
100
AcDbEntity
  8
D-BMK
  6
CENTER
 62
       2
100
AcDbLine
 10
204.77825874
 20
156.9
 30
0.0
 11
204.77825874
 21
133.0
 31
0.0
  0
ENDBLK
  5
16B
100
AcDbEntity
  8
0
100
AcDbBlockEnd
  0
BLOCK
  5
16C
100
AcDbEntity
  8
0
100
AcDbBlockBegin
  2
GROUP_19
 70
       0
 10
0.0
 20
0.0
 30
0.0
  3
GROUP_19
  1

  0
LINE
  5
16D
100
AcDbEntity
  8
D-STR
  6
CONTINUOUS
 62
       1
100
AcDbLine
 10
255.6790932
 20
161.6
 30
0.0
 11
301.6790932
 21
161.6
 31
0.0
  0
LINE
  5
16E
100
AcDbEntity
  8
D-STR
  6
CONTINUOUS
 62
       1
100
AcDbLine
 10
305.23720558
 20
135.05427714
 30
0.0
 11
305.23720558
 21
159.54572286
 31
0.0
  0
LINE
  5
16F
100
AcDbEntity
  8
D-STR
  6
CONTINUOUS
 62
       1
100
AcDbLine
 10
252.12098082
 20
135.05427714
 30
0.0
 11
252.12098082
 21
159.54572286
 31
0.0
  0
LINE
  5
170
100
AcDbEntity
  8
D-STR
  6
CONTINUOUS
 62
       1
100
AcDbLine
 10
255.6790932
 20
161.6
 30
0.0
 11
252.12098082
 21
159.54572286
 31
0.0
  0
LINE
  5
171
100
AcDbEntity
  8
D-STR
  6
CONTINUOUS
 62
       1
100
AcDbLine
 10
301.6790932
 20
161.6
 30
0.0
 11
305.23720558
 21
159.54572286
 31
0.0
  0
ARC
  5
172
100
AcDbEntity
  8
D-STR
  6
CONTINUOUS
 62
       1
100
AcDbCircle
 10
278.6790932
 20
117.65427714
 30
0.0
 40
43.94572286
100
AcDbArc
 50
72.41204623
 51
107.58795377
  0
LINE
  5
173
100
AcDbEntity
  8
D-STR
  6
CONTINUOUS
 62
       1
100
AcDbLine
 10
291.95814939
 20
135.05427714
 30
0.0
 11
291.95814939
 21
159.54572286
 31
0.0
  0
LINE
  5
174
100
AcDbEntity
  8
D-STR
  6
CONTINUOUS
 62
       1
100
AcDbLine
 10
265.40003701
 20
135.05427714
 30
0.0
 11
265.40003701
 21
159.54572286
 31
0.0
  0
ARC
  5
175
100
AcDbEntity
  8
D-STR
  6
CONTINUOUS
 62
       1
100
AcDbCircle
 10
258.76050891
 20
149.84321536
 30
0.0
 40
11.75678464
100
AcDbArc
 50
55.61575253
 51
124.38424747
  0
ARC
  5
176
100
AcDbEntity
  8
D-STR
  6
CONTINUOUS
 62
       1
100
AcDbCircle
 10
298.59767749
 20
149.84321536
 30
0.0
 40
11.75678464
100
AcDbArc
 50
55.61575253
 51
124.38424747
  0
ARC
  5
177
100
AcDbEntity
  8
D-STR
  6
CONTINUOUS
 62
       1
100
AcDbCircle
 10
278.6790932
 20
176.94572286
 30
0.0
 40
43.94572286
100
AcDbArc
 50
252.41204623
 51
287.58795377
  0
ARC
  5
178
100
AcDbEntity
  8
D-STR
  6
CONTINUOUS
 62
       1
100
AcDbCircle
 10
258.76050891
 20
144.75678464
 30
0.0
 40
11.75678464
100
AcDbArc
 50
235.61575253
 51
304.38424747
  0
ARC
  5
179
100
AcDbEntity
  8
D-STR
  6
CONTINUOUS
 62
       1
100
AcDbCircle
 10
298.59767749
 20
144.75678464
 30
0.0
 40
11.75678464
100
AcDbArc
 50
235.61575253
 51
304.38424747
  0
LINE
  5
17A
100
AcDbEntity
  8
D-STR
  6
CONTINUOUS
 62
       1
100
AcDbLine
 10
255.6790932
 20
133.0
 30
0.0
 11
301.6790932
 21
133.0
 31
0.0
  0
LINE
  5
17B
100
AcDbEntity
  8
D-STR
  6
CONTINUOUS
 62
       1
100
AcDbLine
 10
255.6790932
 20
133.0
 30
0.0
 11
252.12098082
 21
135.05427714
 31
0.0
  0
LINE
  5
17C
100
AcDbEntity
  8
D-STR
  6
CONTINUOUS
 62
       1
100
AcDbLine
 10
301.6790932
 20
133.0
 30
0.0
 11
305.23720558
 21
135.05427714
 31
0.0
  0
LINE
  5
17D
100
AcDbEntity
  8
D-BMK
  6
CENTER
 62
       2
100
AcDbLine
 10
278.6790932
 20
161.6
 30
0.0
 11
278.6790932
 21
133.0
 31
0.0
  0
ENDBLK
  5
17E
100
AcDbEntity
  8
0
100
AcDbBlockEnd
  0
BLOCK
  5
17F
100
AcDbEntity
  8
0
100
AcDbBlockBegin
  2
GROUP_20
 70
       0
 10
0.0
 20
0.0
 30
0.0
  3
GROUP_20
  1

  0
LINE
  5
180
100
AcDbEntity
  8
D-STR
  6
CONTINUOUS
 62
       1
100
AcDbLine
 10
341.24573519
 20
167.7
 30
0.0
 11
396.24573519
 21
167.7
 31
0.0
  0
LINE
  5
181
100
AcDbEntity
  8
D-STR
  6
CONTINUOUS
 62
       1
100
AcDbLine
 10
400.5
 20
135.45620093
 30
0.0
 11
400.5
 21
165.24379907
 31
0.0
  0
LINE
  5
182
100
AcDbEntity
  8
D-STR
  6
CONTINUOUS
 62
       1
100
AcDbLine
 10
336.99147039
 20
135.45620093
 30
0.0
 11
336.99147039
 21
165.24379907
 31
0.0
  0
LINE
  5
183
100
AcDbEntity
  8
D-STR
  6
CONTINUOUS
 62
       1
100
AcDbLine
 10
341.24573519
 20
167.7
 30
0.0
 11
336.99147039
 21
165.24379907
 31
0.0
  0
LINE
  5
184
100
AcDbEntity
  8
D-STR
  6
CONTINUOUS
 62
       1
100
AcDbLine
 10
396.24573519
 20
167.7
 30
0.0
 11
400.5
 21
165.24379907
 31
0.0
  0
ARC
  5
185
100
AcDbEntity
  8
D-STR
  6
CONTINUOUS
 62
       1
100
AcDbCircle
 10
368.74573519
 20
115.15620093
 30
0.0
 40
52.54379907
100
AcDbArc
 50
72.41204623
 51
107.58795377
  0
LINE
  5
186
100
AcDbEntity
  8
D-STR
  6
CONTINUOUS
 62
       1
100
AcDbLine
 10
384.6228676
 20
135.45620093
 30
0.0
 11
384.6228676
 21
165.24379907
 31
0.0
  0
LINE
  5
187
100
AcDbEntity
  8
D-STR
  6
CONTINUOUS
 62
       1
100
AcDbLine
 10
352.86860279
 20
135.45620093
 30
0.0
 11
352.86860279
 21
165.24379907
 31
0.0
  0
ARC
  5
188
100
AcDbEntity
  8
D-STR
  6
CONTINUOUS
 62
       1
100
AcDbCircle
 10
344.93003659
 20
153.64297488
 30
0.0
 40
14.05702512
100
AcDbArc
 50
55.61575253
 51
124.38424747
  0
ARC
  5
189
100
AcDbEntity
  8
D-STR
  6
CONTINUOUS
 62
       1
100
AcDbCircle
 10
392.5614338
 20
153.64297488
 30
0.0
 40
14.05702512
100
AcDbArc
 50
55.61575253
 51
124.38424747
  0
ARC
  5
18A
100
AcDbEntity
  8
D-STR
  6
CONTINUOUS
 62
       1
100
AcDbCircle
 10
368.74573519
 20
185.54379907
 30
0.0
 40
52.54379907
100
AcDbArc
 50
252.41204623
 51
287.58795377
  0
ARC
  5
18B
100
AcDbEntity
  8
D-STR
  6
CONTINUOUS
 62
       1
100
AcDbCircle
 10
344.93003659
 20
147.05702512
 30
0.0
 40
14.05702512
100
AcDbArc
 50
235.61575253
 51
304.38424747
  0
ARC
  5
18C
100
AcDbEntity
  8
D-STR
  6
CONTINUOUS
 62
       1
100
AcDbCircle
 10
392.5614338
 20
147.05702512
 30
0.0
 40
14.05702512
100
AcDbArc
 50
235.61575253
 51
304.38424747
  0
LINE
  5
18D
100
AcDbEntity
  8
D-STR
  6
CONTINUOUS
 62
       1
100
AcDbLine
 10
341.24573519
 20
133.0
 30
0.0
 11
396.24573519
 21
133.0
 31
0.0
  0
LINE
  5
18E
100
AcDbEntity
  8
D-STR
  6
CONTINUOUS
 62
       1
100
AcDbLine
 10
341.24573519
 20
133.0
 30
0.0
 11
336.99147039
 21
135.45620093
 31
0.0
  0
LINE
  5
18F
100
AcDbEntity
  8
D-STR
  6
CONTINUOUS
 62
       1
100
AcDbLine
 10
396.24573519
 20
133.0
 30
0.0
 11
400.5
 21
135.45620093
 31
0.0
  0
LINE
  5
190
100
AcDbEntity
  8
D-BMK
  6
CENTER
 62
       2
100
AcDbLine
 10
368.74573519
 20
167.7
 30
0.0
 11
368.74573519
 21
133.0
 31
0.0
  0
ENDBLK
  5
191
100
AcDbEntity
  8
0
100
AcDbBlockEnd
  0
BLOCK
  5
192
100
AcDbEntity
  8
0
100
AcDbBlockBegin
  2
GROUP_21
 70
       0
 10
0.0
 20
0.0
 30
0.0
  3
GROUP_21
  1

  0
CIRCLE
  5
193
100
AcDbEntity
  8
D-STR
  6
CONTINUOUS
 62
       1
100
AcDbCircle
 10
57.5539401
 20
177.3
 30
0.0
 40
5.9175
  0
CIRCLE
  5
194
100
AcDbEntity
  8
D-STR
  6
CONTINUOUS
 62
       1
100
AcDbCircle
 10
57.5539401
 20
177.3
 30
0.0
 40
10.5
  0
LINE
  5
195
100
AcDbEntity
  8
D-STR
  6
CONTINUOUS
 62
       1
100
AcDbLine
 10
51.49176227
 20
187.8
 30
0.0
 11
63.61611793
 21
187.8
 31
0.0
  0
LINE
  5
196
100
AcDbEntity
  8
D-STR
  6
CONTINUOUS
 62
       1
100
AcDbLine
 10
45.42958445
 20
177.3
 30
0.0
 11
51.49176227
 21
187.8
 31
0.0
  0
LINE
  5
197
100
AcDbEntity
  8
D-STR
  6
CONTINUOUS
 62
       1
100
AcDbLine
 10
51.49176227
 20
166.8
 30
0.0
 11
45.42958445
 21
177.3
 31
0.0
  0
LINE
  5
198
100
AcDbEntity
  8
D-STR
  6
CONTINUOUS
 62
       1
100
AcDbLine
 10
63.61611793
 20
166.8
 30
0.0
 11
51.49176227
 21
166.8
 31
0.0
  0
LINE
  5
199
100
AcDbEntity
  8
D-STR
  6
CONTINUOUS
 62
       1
100
AcDbLine
 10
69.67829575
 20
177.3
 30
0.0
 11
63.61611793
 21
166.8
 31
0.0
  0
LINE
  5
19A
100
AcDbEntity
  8
D-STR
  6
CONTINUOUS
 62
       1
100
AcDbLine
 10
63.61611793
 20
187.8
 30
0.0
 11
69.67829575
 21
177.3
 31
0.0
  0
CIRCLE
  5
19B
100
AcDbEntity
  8
D-STR
  6
CONTINUOUS
 62
       7
100
AcDbCircle
 10
57.5539401
 20
177.3
 30
0.0
 40
7.0
  0
LINE
  5
19C
100
AcDbEntity
  8
D-BMK
  6
CENTER
 62
       2
100
AcDbLine
 10
45.42958445
 20
177.3
 30
0.0
 11
69.67829575
 21
177.3
 31
0.0
  0
LINE
  5
19D
100
AcDbEntity
  8
D-BMK
  6
CENTER
 62
       2
100
AcDbLine
 10
57.5539401
 20
166.8
 30
0.0
 11
57.5539401
 21
187.8
 31
0.0
  0
ENDBLK
  5
19E
100
AcDbEntity
  8
0
100
AcDbBlockEnd
  0
BLOCK
  5
19F
100
AcDbEntity
  8
0
100
AcDbBlockBegin
  2
GROUP_22
 70
       0
 10
0.0
 20
0.0
 30
0.0
  3
GROUP_22
  1

  0
LINE
  5
1A0
100
AcDbEntity
  8
D-STR
  6
CONTINUOUS
 62
       1
100
AcDbLine
 10
47.0539401
 20
147.1
 30
0.0
 11
68.0539401
 21
147.1
 31
0.0
  0
LINE
  5
1A1
100
AcDbEntity
  8
D-STR
  6
CONTINUOUS
 62
       1
100
AcDbLine
 10
69.67829575
 20
133.93782217
 30
0.0
 11
69.67829575
 21
146.16217783
 31
0.0
  0
LINE
  5
1A2
100
AcDbEntity
  8
D-STR
  6
CONTINUOUS
 62
       1
100
AcDbLine
 10
45.42958445
 20
133.93782217
 30
0.0
 11
45.42958445
 21
146.16217783
 31
0.0
  0
LINE
  5
1A3
100
AcDbEntity
  8
D-STR
  6
CONTINUOUS
 62
       1
100
AcDbLine
 10
47.0539401
 20
147.1
 30
0.0
 11
45.42958445
 21
146.16217783
 31
0.0
  0
LINE
  5
1A4
100
AcDbEntity
  8
D-STR
  6
CONTINUOUS
 62
       1
100
AcDbLine
 10
68.0539401
 20
147.1
 30
0.0
 11
69.67829575
 21
146.16217783
 31
0.0
  0
ARC
  5
1A5
100
AcDbEntity
  8
D-STR
  6
CONTINUOUS
 62
       1
100
AcDbCircle
 10
57.5539401
 20
127.03782217
 30
0.0
 40
20.06217783
100
AcDbArc
 50
72.41204623
 51
107.58795377
  0
LINE
  5
1A6
100
AcDbEntity
  8
D-STR
  6
CONTINUOUS
 62
       1
100
AcDbLine
 10
63.61611793
 20
133.93782217
 30
0.0
 11
63.61611793
 21
146.16217783
 31
0.0
  0
LINE
  5
1A7
100
AcDbEntity
  8
D-STR
  6
CONTINUOUS
 62
       1
100
AcDbLine
 10
51.49176227
 20
133.93782217
 30
0.0
 11
51.49176227
 21
146.16217783
 31
0.0
  0
ARC
  5
1A8
100
AcDbEntity
  8
D-STR
  6
CONTINUOUS
 62
       1
100
AcDbCircle
 10
48.46067336
 20
141.73277223
 30
0.0
 40
5.36722777
100
AcDbArc
 50
55.61575253
 51
124.38424747
  0
ARC
  5
1A9
100
AcDbEntity
  8
D-STR
  6
CONTINUOUS
 62
       1
100
AcDbCircle
 10
66.64720684
 20
141.73277223
 30
0.0
 40
5.36722777
100
AcDbArc
 50
55.61575253
 51
124.38424747
  0
ARC
  5
1AA
100
AcDbEntity
  8
D-STR
  6
CONTINUOUS
 62
       1
100
AcDbCircle
 10
57.5539401
 20
153.06217783
 30
0.0
 40
20.06217783
100
AcDbArc
 50
252.41204623
 51
287.58795377
  0
ARC
  5
1AB
100
AcDbEntity
  8
D-STR
  6
CONTINUOUS
 62
       1
100
AcDbCircle
 10
48.46067336
 20
138.36722777
 30
0.0
 40
5.36722777
100
AcDbArc
 50
235.61575253
 51
304.38424747
  0
ARC
  5
1AC
100
AcDbEntity
  8
D-STR
  6
CONTINUOUS
 62
       1
100
AcDbCircle
 10
66.64720684
 20
138.36722777
 30
0.0
 40
5.36722777
100
AcDbArc
 50
235.61575253
 51
304.38424747
  0
LINE
  5
1AD
100
AcDbEntity
  8
D-STR
  6
CONTINUOUS
 62
       1
100
AcDbLine
 10
47.0539401
 20
133.0
 30
0.0
 11
68.0539401
 21
133.0
 31
0.0
  0
LINE
  5
1AE
100
AcDbEntity
  8
D-STR
  6
CONTINUOUS
 62
       1
100
AcDbLine
 10
47.0539401
 20
133.0
 30
0.0
 11
45.42958445
 21
133.93782217
 31
0.0
  0
LINE
  5
1AF
100
AcDbEntity
  8
D-STR
  6
CONTINUOUS
 62
       1
100
AcDbLine
 10
68.0539401
 20
133.0
 30
0.0
 11
69.67829575
 21
133.93782217
 31
0.0
  0
LINE
  5
1B0
100
AcDbEntity
  8
D-BMK
  6
CENTER
 62
       2
100
AcDbLine
 10
57.5539401
 20
147.1
 30
0.0
 11
57.5539401
 21
133.0
 31
0.0
  0
ENDBLK
  5
1B1
100
AcDbEntity
  8
0
100
AcDbBlockEnd
  0
ENDSEC
  0
SECTION
  2
ENTITIES
  0
INSERT
  5
1B2
100
AcDbEntity
  8
0
  6
CONTINUOUS
100
AcDbBlockReference
  2
GROUP_1
 10
0.0
 20
0.0
 30
0.0
  0
INSERT
  5
1B3
100
AcDbEntity
  8
0
  6
CONTINUOUS
100
AcDbBlockReference
  2
GROUP_2
 10
0.0
 20
0.0
 30
0.0
  0
INSERT
  5
1B4
100
AcDbEntity
  8
0
  6
CONTINUOUS
100
AcDbBlockReference
  2
GROUP_3
 10
0.0
 20
0.0
 30
0.0
  0
INSERT
  5
1B5
100
AcDbEntity
  8
0
  6
CONTINUOUS
100
AcDbBlockReference
  2
GROUP_4
 10
0.0
 20
0.0
 30
0.0
  0
INSERT
  5
1B6
100
AcDbEntity
  8
0
  6
CONTINUOUS
100
AcDbBlockReference
  2
GROUP_5
 10
0.0
 20
0.0
 30
0.0
  0
INSERT
  5
1B7
100
AcDbEntity
  8
0
  6
CONTINUOUS
100
AcDbBlockReference
  2
GROUP_6
 10
0.0
 20
0.0
 30
0.0
  0
INSERT
  5
1B8
100
AcDbEntity
  8
0
  6
CONTINUOUS
100
AcDbBlockReference
  2
GROUP_7
 10
0.0
 20
0.0
 30
0.0
  0
INSERT
  5
1B9
100
AcDbEntity
  8
0
  6
CONTINUOUS
100
AcDbBlockReference
  2
GROUP_8
 10
0.0
 20
0.0
 30
0.0
  0
INSERT
  5
1BA
100
AcDbEntity
  8
0
  6
CONTINUOUS
100
AcDbBlockReference
  2
GROUP_9
 10
0.0
 20
0.0
 30
0.0
  0
INSERT
  5
1BB
100
AcDbEntity
  8
0
  6
CONTINUOUS
100
AcDbBlockReference
  2
GROUP_10
 10
0.0
 20
0.0
 30
0.0
  0
INSERT
  5
1BC
100
AcDbEntity
  8
0
  6
CONTINUOUS
100
AcDbBlockReference
  2
GROUP_11
 10
0.0
 20
0.0
 30
0.0
  0
INSERT
  5
1BD
100
AcDbEntity
  8
0
  6
CONTINUOUS
100
AcDbBlockReference
  2
GROUP_12
 10
0.0
 20
0.0
 30
0.0
  0
INSERT
  5
1BE
100
AcDbEntity
  8
0
  6
CONTINUOUS
100
AcDbBlockReference
  2
GROUP_13
 10
0.0
 20
0.0
 30
0.0
  0
INSERT
  5
1BF
100
AcDbEntity
  8
0
  6
CONTINUOUS
100
AcDbBlockReference
  2
GROUP_14
 10
0.0
 20
0.0
 30
0.0
  0
INSERT
  5
1C0
100
AcDbEntity
  8
0
  6
CONTINUOUS
100
AcDbBlockReference
  2
GROUP_15
 10
0.0
 20
0.0
 30
0.0
  0
INSERT
  5
1C1
100
AcDbEntity
  8
0
  6
CONTINUOUS
100
AcDbBlockReference
  2
GROUP_16
 10
0.0
 20
0.0
 30
0.0
  0
INSERT
  5
1C2
100
AcDbEntity
  8
0
  6
CONTINUOUS
100
AcDbBlockReference
  2
GROUP_17
 10
0.0
 20
0.0
 30
0.0
  0
INSERT
  5
1C3
100
AcDbEntity
  8
0
  6
CONTINUOUS
100
AcDbBlockReference
  2
GROUP_18
 10
0.0
 20
0.0
 30
0.0
  0
INSERT
  5
1C4
100
AcDbEntity
  8
0
  6
CONTINUOUS
100
AcDbBlockReference
  2
GROUP_19
 10
0.0
 20
0.0
 30
0.0
  0
INSERT
  5
1C5
100
AcDbEntity
  8
0
  6
CONTINUOUS
100
AcDbBlockReference
  2
GROUP_20
 10
0.0
 20
0.0
 30
0.0
  0
INSERT
  5
1C6
100
AcDbEntity
  8
0
  6
CONTINUOUS
100
AcDbBlockReference
  2
GROUP_21
 10
0.0
 20
0.0
 30
0.0
  0
INSERT
  5
1C7
100
AcDbEntity
  8
0
  6
CONTINUOUS
100
AcDbBlockReference
  2
GROUP_22
 10
0.0
 20
0.0
 30
0.0
  0
TEXT
  5
1C8
100
AcDbEntity
  8
D-STR-TXT
 62
       7
100
AcDbText
 10
-400.5
 20
273.5
 30
0.0
 40
3.5
  1
六角ナット並目スタイル2(座なし)
 41
1.2
 72
       5
 11
-335.4
 21
273.5
 31
0.0
100
AcDbText
  0
TEXT
  5
1C9
100
AcDbEntity
  8
D-STR-TXT
 62
       7
100
AcDbText
 10
-400.5
 20
269.0
 30
0.0
 40
3.5
  1
M5,M6,M8,M10,M12,(M14),M16,M20,M24,M30,M36
 41
1.2
 72
       5
 11
-312.3
 21
269.0
 31
0.0
100
AcDbText
  0
ENDSEC
  0
SECTION
  2
OBJECTS
  0
DICTIONARY
  5
19
100
AcDbDictionary
  3
ACAD_GROUP
350
1A
  3
ACAD_MLINESTYLE
350
1B
  0
DICTIONARY
  5
1A
102
{ACAD_REACTORS
330
19
102
}
100
AcDbDictionary
  0
DICTIONARY
  5
1B
102
{ACAD_REACTORS
330
19
102
}
100
AcDbDictionary
  3
STANDARD
350
1C
  0
MLINESTYLE
  5
1C
102
{ACAD_REACTORS
330
1B
102
}
100
AcDbMlineStyle
  2
STANDARD
 70
       0
  3

 62
       0
 51
90.0
 52
90.0
 71
       2
 49
0.5
 62
     256
  6
BYLAYER
 49
-0.5
 62
     256
  6
BYLAYER
  0
ENDSEC
  0
EOF
