  0
SECTION
  2
HEADER
  9
$ACADVER
  1
AC1014
  9
$ACADMAINTVER
 70
       0
  9
$DWGCODEPAGE
  3
ANSI_932
  9
$INSBASE
 10
0.0
 20
0.0
 30
0.0
  9
$EXTMIN
 10
-416.52
 20
-288.08
 30
0.0
  9
$EXTMAX
 10
416.52
 20
288.08
 30
0.0
  9
$LIMMIN
 10
-442.5525
 20
-306.085
  9
$LIMMAX
 10
442.5525
 20
306.085
  9
$ORTHOMODE
 70
       0
  9
$REGENMODE
 70
       1
  9
$FILLMODE
 70
       1
  9
$QTEXTMODE
 70
       0
  9
$MIRRTEXT
 70
       1
  9
$DRAGMODE
 70
       2
  9
$LTSCALE
 40
1.0
  9
$OSMODE
 70
       0
  9
$ATTMODE
 70
       1
  9
$TEXTSIZE
 40
0.2
  9
$TRACEWID
 40
0.05
  9
$TEXTSTYLE
  7
STANDARD
  9
$CLAYER
  8
0
  9
$CELTYPE
  6
CONTINUOUS
  9
$CECOLOR
 62
     256
  9
$CELTSCALE
 40
1.0
  9
$DELOBJ
 70
       1
  9
$DISPSILH
 70
       0
  9
$DIMSCALE
 40
1.0
  9
$DIMASZ
 40
0.18
  9
$DIMEXO
 40
0.0625
  9
$DIMDLI
 40
0.38
  9
$DIMRND
 40
0.0
  9
$DIMDLE
 40
0.0
  9
$DIMEXE
 40
0.18
  9
$DIMTP
 40
0.0
  9
$DIMTM
 40
0.0
  9
$DIMTXT
 40
0.18
  9
$DIMCEN
 40
0.09
  9
$DIMTSZ
 40
0.0
  9
$DIMTOL
 70
       0
  9
$DIMLIM
 70
       0
  9
$DIMTIH
 70
       1
  9
$DIMTOH
 70
       1
  9
$DIMSE1
 70
       0
  9
$DIMSE2
 70
       0
  9
$DIMTAD
 70
       0
  9
$DIMZIN
 70
       0
  9
$DIMBLK
  1

  9
$DIMASO
 70
       1
  9
$DIMSHO
 70
       1
  9
$DIMPOST
  1

  9
$DIMAPOST
  1

  9
$DIMALT
 70
       0
  9
$DIMALTD
 70
       2
  9
$DIMALTF
 40
25.4
  9
$DIMLFAC
 40
1.0
  9
$DIMTOFL
 70
       0
  9
$DIMTVP
 40
0.0
  9
$DIMTIX
 70
       0
  9
$DIMSOXD
 70
       0
  9
$DIMSAH
 70
       0
  9
$DIMBLK1
  1

  9
$DIMBLK2
  1

  9
$DIMSTYLE
  2
STANDARD
  9
$DIMCLRD
 70
       0
  9
$DIMCLRE
 70
       0
  9
$DIMCLRT
 70
       0
  9
$DIMTFAC
 40
1.0
  9
$DIMGAP
 40
0.09
  9
$DIMJUST
 70
       0
  9
$DIMSD1
 70
       0
  9
$DIMSD2
 70
       0
  9
$DIMTOLJ
 70
       1
  9
$DIMTZIN
 70
       0
  9
$DIMALTZ
 70
       0
  9
$DIMALTTZ
 70
       0
  9
$DIMFIT
 70
       3
  9
$DIMUPT
 70
       0
  9
$DIMUNIT
 70
       2
  9
$DIMDEC
 70
       4
  9
$DIMTDEC
 70
       4
  9
$DIMALTU
 70
       2
  9
$DIMALTTD
 70
       2
  9
$DIMTXSTY
  7
STANDARD
  9
$DIMAUNIT
 70
       0
  9
$LUNITS
 70
       2
  9
$LUPREC
 70
       4
  9
$SKETCHINC
 40
0.1
  9
$FILLETRAD
 40
0.0
  9
$AUNITS
 70
       0
  9
$AUPREC
 70
       0
  9
$MENU
  1
acad
  9
$ELEVATION
 40
0.0
  9
$PELEVATION
 40
0.0
  9
$THICKNESS
 40
0.0
  9
$LIMCHECK
 70
       0
  9
$BLIPMODE
 70
       1
  9
$CHAMFERA
 40
0.0
  9
$CHAMFERB
 40
0.0
  9
$CHAMFERC
 40
0.0
  9
$CHAMFERD
 40
0.0
  9
$SKPOLY
 70
       0
  9
$TDCREATE
 40
0.000000000
  9
$TDUPDATE
 40
0.000000000
  9
$TDINDWG
 40
0.0000000000
  9
$TDUSRTIMER
 40
0.0000000000
  9
$USRTIMER
 70
       1
  9
$ANGBASE
 50
0.0
  9
$ANGDIR
 70
       0
  9
$PDMODE
 70
       0
  9
$PDSIZE
 40
1.0
  9
$PLINEWID
 40
0.0
  9
$COORDS
 70
       1
  9
$SPLFRAME
 70
       0
  9
$SPLINETYPE
 70
       6
  9
$SPLINESEGS
 70
       8
  9
$ATTDIA
 70
       0
  9
$ATTREQ
 70
       1
  9
$HANDLING
 70
       1
  9
$HANDSEED
  5
2EA
  9
$SURFTAB1
 70
       6
  9
$SURFTAB2
 70
       6
  9
$SURFTYPE
 70
       6
  9
$SURFU
 70
       6
  9
$SURFV
 70
       6
  9
$UCSNAME
  2

  9
$UCSORG
 10
0.0
 20
0.0
 30
0.0
  9
$UCSXDIR
 10
1.0
 20
0.0
 30
0.0
  9
$UCSYDIR
 10
0.0
 20
1.0
 30
0.0
  9
$PUCSNAME
  2

  9
$PUCSORG
 10
0.0
 20
0.0
 30
0.0
  9
$PUCSXDIR
 10
1.0
 20
0.0
 30
0.0
  9
$PUCSYDIR
 10
0.0
 20
1.0
 30
0.0
  9
$USERI1
 70
       0
  9
$USERI2
 70
       0
  9
$USERI3
 70
       0
  9
$USERI4
 70
       0
  9
$USERI5
 70
       0
  9
$USERR1
 40
0.0
  9
$USERR2
 40
0.0
  9
$USERR3
 40
0.0
  9
$USERR4
 40
0.0
  9
$USERR5
 40
0.0
  9
$WORLDVIEW
 70
       1
  9
$SHADEDGE
 70
       3
  9
$SHADEDIF
 70
      70
  9
$TILEMODE
 70
       1
  9
$MAXACTVP
 70
      16
  9
$PINSBASE
 10
0.0
 20
0.0
 30
0.0
  9
$PLIMCHECK
 70
       0
  9
$PEXTMIN
 10
1.00000000E+20
 20
1.00000000E+20
 30
1.00000000E+20
  9
$PEXTMAX
 10
-1.00000000E+20
 20
-1.00000000E+20
 30
-1.00000000E+20
  9
$PLIMMIN
 10
0.0
 20
0.0
  9
$PLIMMAX
 10
12.0
 20
9.0
  9
$UNITMODE
 70
       0
  9
$VISRETAIN
 70
       0
  9
$PLINEGEN
 70
       1
  9
$PSLTSCALE
 70
       0
  9
$TREEDEPTH
 70
    3020
  9
$PICKSTYLE
 70
       1
  9
$CMLSTYLE
  2
STANDARD
  9
$CMLJUST
 70
       0
  9
$CMLSCALE
 40
1.0
  9
$PROXYGRAPHICS
 70
       0
  9
$MEASUREMENT
 70
       0
  0
ENDSEC
  0
SECTION
  2
CLASSES
  0
CLASS
  1
LWPOLYLINE
  2
AcDbPolyline
  3
"AutoCAD"
 90
        0
280
       0
281
       1
  0
CLASS
  1
IMAGE
  2
AcDbRasterImage
  3
ISM
 90
      127
280
       0
281
       1
  0
CLASS
  1
OLE2FRAME
  2
AcDbOle2Frame
  3
""
 90
        0
280
       0
281
       1
  0
CLASS
  1
HATCH
  2
AcDbHatch
  3
"ACAD_SEDONA"
 90
        0
280
       0
281
       1
  0
CLASS
  1
DICTIONARYVAR
  2
AcDbDictionaryVar
  3
"AutoCAD"
 90
        0
280
       0
281
       0
  0
CLASS
  1
RASTERVARIABLES
  2
AcDbRasterVariables
  3
ISM
 90
        0
280
       0
281
       0
  0
CLASS
  1
IMAGEDEF
  2
AcDbRasterImageDef
  3
ISM
 90
        0
280
       0
281
       0
  0
CLASS
  1
IMAGEDEF_REACTOR
  2
AcDbRasterImageDefReactor
  3
ISM
 90
        1
280
       0
281
       0
  0
CLASS
  1
IDBUFFER
  2
AcDbIdBuffer
  3
"Acad"
 90
        0
280
       0
281
       0
  0
CLASS
  1
SPATIAL_FILTER
  2
AcDbSpatialFilter
  3
"Acad"
 90
        0
280
       0
281
       0
  0
CLASS
  1
XRECORD
  2
AcDbXrecord
  3
"<Built In>"
 90
        0
280
       0
281
       0
  0
CLASS
  1
SORTENTSTABLE
  2
AcDbSortentsTable
  3
"AutoCAD"
 90
        0
280
       0
281
       0
  0
CLASS
  1
LAYER_INDEX
  2
AcDbLayerIndex
  3
"Acad"
 90
        0
280
       0
281
       0
  0
CLASS
  1
SPATIAL_INDEX
  2
AcDbSpatialIndex
  3
"Acad"
 90
        0
280
       0
281
       0
  0
CLASS
  1
OBJECT_PTR
  2
CAseDLPNTableRecord
  3
"ASE-LPNTableRecord"
 90
        1
280
       0
281
       0
  0
CLASS
  1
LAYOUT
  2
AcDbLayout
  3
"AutoCAD 2000"
 90
        1
280
       0
281
       0
  0
CLASS
  1
PLOTSETTINGS
  2
AcDbPlotSettings
  3
"AutoCAD 2000"
 90
        1
280
       0
281
       0
  0
CLASS
  1
ACDBDICTIONARYWDFLT
  2
AcDbDictionaryWithDefault
  3
"AutoCAD 2000"
 90
        1
280
       0
281
       0
  0
CLASS
  1
ACDBPLACEHOLDER
  2
AcDbPlaceHolder
  3
"AutoCAD 2000"
 90
        1
280
       0
281
       0
  0
CLASS
  1
VBA_PROJECT
  2
AcDbVbaProject
  3
"acadvba"
 90
        1
280
       0
281
       0
  0
CLASS
  1
WIPEOUT
  2
AcDbWipeout
  3
WipeOut|AutoCAD Express Tool|expresstools@autodesk.com
 90
      127
280
       0
281
       1
  0
CLASS
  1
WIPEOUTVARIABLES
  2
AcDbWipeoutVariables
  3
WipeOut|AutoCAD Express Tool|expresstools@autodesk.com
 90
        0
280
       0
281
       0
  0
CLASS
  1
RTEXT
  2
RText
  3
RText|AutoCAD Express Tool|expresstools@autodesk.com
 90
        0
280
       0
281
       1
  0
CLASS
  1
ARCALIGNEDTEXT
  2
AcDbArcAlignedText
  3
ATEXT|AutoCAD Express Tool|expresstools@autodesk.com
 90
        0
280
       0
281
       1
  0
ENDSEC
  0
SECTION
  2
TABLES
  0
TABLE
  2
VPORT
  5
7
100
AcDbSymbolTable
 70
       1
  0
VPORT
  5
15
100
AcDbSymbolTableRecord
100
AcDbViewportTableRecord
  2
*ACTIVE
 70
       0
 10
0.0
 20
0.0
 11
1.0
 21
1.0
 12
0.0
 22
0.0
 13
0.0
 23
0.0
 14
1.0
 24
1.0
 15
0.0
 25
0.0
 16
0.0
 26
0.0
 36
1.0
 17
0.0
 27
0.0
 37
0.0
 40
612.17
 41
1.44584838
 42
50.0
 43
0.0
 44
0.0
 50
0.0
 51
0.0
 71
       0
 72
     100
 73
       1
 74
       1
 75
       0
 76
       0
 77
       0
 78
       0
  0
ENDTAB
  0
TABLE
  2
LTYPE
  5
4
100
AcDbSymbolTable
 70
      30
  0
LTYPE
  5
11
100
AcDbSymbolTableRecord
100
AcDbLinetypeTableRecord
  2
BYBLOCK
 70
      64
  3

 72
      65
 73
       0
 40
0.0
  0
LTYPE
  5
12
100
AcDbSymbolTableRecord
100
AcDbLinetypeTableRecord
  2
BYLAYER
 70
      64
  3

 72
      65
 73
       0
 40
0.0
  0
LTYPE
  5
13
100
AcDbSymbolTableRecord
100
AcDbLinetypeTableRecord
  2
CONTINUOUS
 70
      64
  3
Solid line
 72
      65
 73
       0
 40
0.0
  0
LTYPE
  5
1D
100
AcDbSymbolTableRecord
100
AcDbLinetypeTableRecord
  2
HIDDENX2
 70
      64
  3
CADPAC LINETYPE
 72
      65
 73
       2
 40
33.64
 49
25.23
 74
       0
 49
-8.41
 74
       0
  0
LTYPE
  5
1E
100
AcDbSymbolTableRecord
100
AcDbLinetypeTableRecord
  2
HIDDEN
 70
      64
  3
CADPAC LINETYPE
 72
      65
 73
       2
 40
25.23
 49
16.82
 74
       0
 49
-8.41
 74
       0
  0
LTYPE
  5
1F
100
AcDbSymbolTableRecord
100
AcDbLinetypeTableRecord
  2
HIDDEN2
 70
      64
  3
CADPAC LINETYPE
 72
      65
 73
       2
 40
21.025
 49
12.615
 74
       0
 49
-8.41
 74
       0
  0
LTYPE
  5
20
100
AcDbSymbolTableRecord
100
AcDbLinetypeTableRecord
  2
DASHED
 70
      64
  3
CADPAC LINETYPE
 72
      65
 73
       2
 40
25.23
 49
16.82
 74
       0
 49
-8.41
 74
       0
  0
LTYPE
  5
21
100
AcDbSymbolTableRecord
100
AcDbLinetypeTableRecord
  2
DASHED2
 70
      64
  3
CADPAC LINETYPE
 72
      65
 73
       2
 40
18.9225
 49
12.615
 74
       0
 49
-6.3075
 74
       0
  0
LTYPE
  5
22
100
AcDbSymbolTableRecord
100
AcDbLinetypeTableRecord
  2
DASHEDX2
 70
      64
  3
CADPAC LINETYPE
 72
      65
 73
       2
 40
37.845
 49
25.23
 74
       0
 49
-12.615
 74
       0
  0
LTYPE
  5
23
100
AcDbSymbolTableRecord
100
AcDbLinetypeTableRecord
  2
DOTX2
 70
      64
  3
CADPAC LINETYPE
 72
      65
 73
       2
 40
10.5125
 49
0.0
 74
       0
 49
-10.5125
 74
       0
  0
LTYPE
  5
24
100
AcDbSymbolTableRecord
100
AcDbLinetypeTableRecord
  2
DOT
 70
      64
  3
CADPAC LINETYPE
 72
      65
 73
       2
 40
8.41
 49
0.0
 74
       0
 49
-8.41
 74
       0
  0
LTYPE
  5
25
100
AcDbSymbolTableRecord
100
AcDbLinetypeTableRecord
  2
DOT2
 70
      64
  3
CADPAC LINETYPE
 72
      65
 73
       2
 40
6.3075
 49
0.0
 74
       0
 49
-6.3075
 74
       0
  0
LTYPE
  5
26
100
AcDbSymbolTableRecord
100
AcDbLinetypeTableRecord
  2
CENTERX2
 70
      64
  3
CADPAC LINETYPE
 72
      65
 73
       4
 40
50.46
 49
21.025
 74
       0
 49
-10.5125
 74
       0
 49
8.41
 74
       0
 49
-10.5125
 74
       0
  0
LTYPE
  5
27
100
AcDbSymbolTableRecord
100
AcDbLinetypeTableRecord
  2
CENTER
 70
      64
  3
CADPAC LINETYPE
 72
      65
 73
       4
 40
38.686
 49
16.82
 74
       0
 49
-8.41
 74
       0
 49
5.046
 74
       0
 49
-8.41
 74
       0
  0
LTYPE
  5
28
100
AcDbSymbolTableRecord
100
AcDbLinetypeTableRecord
  2
CENTER2
 70
      64
  3
CADPAC LINETYPE
 72
      65
 73
       4
 40
26.912
 49
12.615
 74
       0
 49
-6.3075
 74
       0
 49
1.682
 74
       0
 49
-6.3075
 74
       0
  0
LTYPE
  5
29
100
AcDbSymbolTableRecord
100
AcDbLinetypeTableRecord
  2
DASHDOTX2
 70
      64
  3
CADPAC LINETYPE
 72
      65
 73
       4
 40
42.05
 49
21.025
 74
       0
 49
-10.5125
 74
       0
 49
0.0
 74
       0
 49
-10.5125
 74
       0
  0
LTYPE
  5
2A
100
AcDbSymbolTableRecord
100
AcDbLinetypeTableRecord
  2
DASHDOT
 70
      64
  3
CADPAC LINETYPE
 72
      65
 73
       4
 40
33.64
 49
16.82
 74
       0
 49
-8.41
 74
       0
 49
0.0
 74
       0
 49
-8.41
 74
       0
  0
LTYPE
  5
2B
100
AcDbSymbolTableRecord
100
AcDbLinetypeTableRecord
  2
DASHDOT2
 70
      64
  3
CADPAC LINETYPE
 72
      65
 73
       4
 40
25.23
 49
12.615
 74
       0
 49
-6.3075
 74
       0
 49
0.0
 74
       0
 49
-6.3075
 74
       0
  0
LTYPE
  5
2C
100
AcDbSymbolTableRecord
100
AcDbLinetypeTableRecord
  2
DIVIDEX2
 70
      64
  3
CADPAC LINETYPE
 72
      65
 73
       6
 40
52.5625
 49
21.025
 74
       0
 49
-10.5125
 74
       0
 49
0.0
 74
       0
 49
-10.5125
 74
       0
 49
0.0
 74
       0
 49
-10.5125
 74
       0
  0
LTYPE
  5
2D
100
AcDbSymbolTableRecord
100
AcDbLinetypeTableRecord
  2
DIVIDE
 70
      64
  3
CADPAC LINETYPE
 72
      65
 73
       6
 40
42.05
 49
16.82
 74
       0
 49
-8.41
 74
       0
 49
0.0
 74
       0
 49
-8.41
 74
       0
 49
0.0
 74
       0
 49
-8.41
 74
       0
  0
LTYPE
  5
2E
100
AcDbSymbolTableRecord
100
AcDbLinetypeTableRecord
  2
DIVIDE2
 70
      64
  3
CADPAC LINETYPE
 72
      65
 73
       6
 40
31.5375
 49
12.615
 74
       0
 49
-6.3075
 74
       0
 49
0.0
 74
       0
 49
-6.3075
 74
       0
 49
0.0
 74
       0
 49
-6.3075
 74
       0
  0
LTYPE
  5
2F
100
AcDbSymbolTableRecord
100
AcDbLinetypeTableRecord
  2
BORDERX2
 70
      64
  3
CADPAC LINETYPE
 72
      65
 73
       6
 40
73.5875
 49
21.025
 74
       0
 49
-10.5125
 74
       0
 49
21.025
 74
       0
 49
-10.5125
 74
       0
 49
0.0
 74
       0
 49
-10.5125
 74
       0
  0
LTYPE
  5
30
100
AcDbSymbolTableRecord
100
AcDbLinetypeTableRecord
  2
BORDER
 70
      64
  3
CADPAC LINETYPE
 72
      65
 73
       6
 40
58.87
 49
16.82
 74
       0
 49
-8.41
 74
       0
 49
16.82
 74
       0
 49
-8.41
 74
       0
 49
0.0
 74
       0
 49
-8.41
 74
       0
  0
LTYPE
  5
31
100
AcDbSymbolTableRecord
100
AcDbLinetypeTableRecord
  2
BORDER2
 70
      64
  3
CADPAC LINETYPE
 72
      65
 73
       6
 40
44.1525
 49
12.615
 74
       0
 49
-6.3075
 74
       0
 49
12.615
 74
       0
 49
-6.3075
 74
       0
 49
0.0
 74
       0
 49
-6.3075
 74
       0
  0
LTYPE
  5
32
100
AcDbSymbolTableRecord
100
AcDbLinetypeTableRecord
  2
PHANTOMX2
 70
      64
  3
CADPAC LINETYPE
 72
      65
 73
       6
 40
63.075
 49
21.025
 74
       0
 49
-8.41
 74
       0
 49
8.41
 74
       0
 49
-8.41
 74
       0
 49
8.41
 74
       0
 49
-8.41
 74
       0
  0
LTYPE
  5
33
100
AcDbSymbolTableRecord
100
AcDbLinetypeTableRecord
  2
PHANTOM
 70
      64
  3
CADPAC LINETYPE
 72
      65
 73
       6
 40
52.142
 49
16.82
 74
       0
 49
-8.41
 74
       0
 49
5.046
 74
       0
 49
-8.41
 74
       0
 49
5.046
 74
       0
 49
-8.41
 74
       0
  0
LTYPE
  5
34
100
AcDbSymbolTableRecord
100
AcDbLinetypeTableRecord
  2
PHANTOM2
 70
      64
  3
CADPAC LINETYPE
 72
      65
 73
       6
 40
44.573
 49
12.615
 74
       0
 49
-8.41
 74
       0
 49
3.364
 74
       0
 49
-8.41
 74
       0
 49
3.364
 74
       0
 49
-8.41
 74
       0
  0
LTYPE
  5
35
100
AcDbSymbolTableRecord
100
AcDbLinetypeTableRecord
  2
ACAD_ISO06W100
 70
      64
  3
CADPAC LINETYPE
 72
      65
 73
       8
 40
56.7675
 49
21.025
 74
       0
 49
-10.5125
 74
       0
 49
0.0
 74
       0
 49
-8.41
 74
       0
 49
0.0
 74
       0
 49
-8.41
 74
       0
 49
0.0
 74
       0
 49
-8.41
 74
       0
  0
LTYPE
  5
36
100
AcDbSymbolTableRecord
100
AcDbLinetypeTableRecord
  2
ACAD_ISO13W100
 70
      64
  3
CADPAC LINETYPE
 72
      65
 73
       8
 40
67.28
 49
16.82
 74
       0
 49
-8.41
 74
       0
 49
16.82
 74
       0
 49
-8.41
 74
       0
 49
0.0
 74
       0
 49
-8.41
 74
       0
 49
0.0
 74
       0
 49
-8.41
 74
       0
  0
LTYPE
  5
37
100
AcDbSymbolTableRecord
100
AcDbLinetypeTableRecord
  2
ACAD_ISO14W100
 70
      64
  3
CADPAC LINETYPE
 72
      65
 73
       8
 40
50.46
 49
16.82
 74
       0
 49
-8.41
 74
       0
 49
0.0
 74
       0
 49
-8.41
 74
       0
 49
0.0
 74
       0
 49
-8.41
 74
       0
 49
0.0
 74
       0
 49
-8.41
 74
       0
  0
ENDTAB
  0
TABLE
  2
LAYER
  5
2
100
AcDbSymbolTable
 70
       4
  0
LAYER
  5
14
100
AcDbSymbolTableRecord
100
AcDbLayerTableRecord
  2
0
 70
       0
 62
       7
  6
CONTINUOUS
  0
LAYER
  5
38
100
AcDbSymbolTableRecord
100
AcDbLayerTableRecord
  2
D-BMK
 70
       0
 62
       7
  6
CONTINUOUS
  0
LAYER
  5
39
100
AcDbSymbolTableRecord
100
AcDbLayerTableRecord
  2
D-STR
 70
       0
 62
       7
  6
CONTINUOUS
  0
LAYER
  5
3A
100
AcDbSymbolTableRecord
100
AcDbLayerTableRecord
  2
D-STR-TXT
 70
       0
 62
       7
  6
CONTINUOUS
  0
ENDTAB
  0
TABLE
  2
STYLE
  5
3
100
AcDbSymbolTable
 70
       1
  0
STYLE
  5
17
100
AcDbSymbolTableRecord
100
AcDbTextStyleTableRecord
  2
STANDARD
 70
       0
 40
0.0
 41
1.2
 50
0.0
 71
       0
 42
3.5
  3
MS Gothic.ttf
  4

1001
ACAD
1000
MS Gothic
1071
    32786
  0
ENDTAB
  0
TABLE
  2
VIEW
  5
5
100
AcDbSymbolTable
 70
       1
  0
VIEW
  5
3B
100
AcDbSymbolTableRecord
100
AcDbViewTableRecord
  2
QQQQ
 70
       0
 40
612.17
 10
0.0
 20
0.0
 41
885.105
 11
0.0
 21
0.0
 31
1.0
 12
100.0
 22
100.0
 32
0.0
 42
50.0
 43
0.0
 44
0.0
 50
0.0
 71
       0
  0
ENDTAB
  0
TABLE
  2
UCS
  5
6
100
AcDbSymbolTable
 70
       0
  0
ENDTAB
  0
TABLE
  2
APPID
  5
8
100
AcDbSymbolTable
 70
       1
  0
APPID
  5
16
100
AcDbSymbolTableRecord
100
AcDbRegAppTableRecord
  2
ACAD
 70
       0
  0
ENDTAB
  0
TABLE
  2
DIMSTYLE
  5
9
100
AcDbSymbolTable
 70
       1
  0
DIMSTYLE
105
18
100
AcDbSymbolTableRecord
100
AcDbDimStyleTableRecord
  2
STANDARD
 70
       0
  3

  4

  5

  6

  7

 40
1.0
 41
0.18
 42
0.0625
 43
0.38
 44
0.18
 45
0.0
 46
0.0
 47
0.0
 48
0.0
 71
       0
 72
       0
 73
       1
 74
       1
 75
       0
 76
       0
 77
       0
 78
       0
140
0.18
141
0.09
142
0.0
143
25.4
144
1.0
145
0.0
146
1.0
147
0.09
170
       0
171
       2
172
       0
173
       0
174
       0
175
       0
176
       0
177
       0
178
       0
270
       2
271
       4
272
       4
273
       2
274
       2
275
       0
280
       0
281
       0
282
       0
283
       1
284
       0
285
       0
286
       0
287
       0
288
       0
340
17
  0
ENDTAB
  0
TABLE
  2
BLOCK_RECORD
  5
1
100
AcDbSymbolTable
 70
      38
  0
BLOCK_RECORD
  5
A
100
AcDbSymbolTableRecord
100
AcDbBlockTableRecord
  2
*MODEL_SPACE
  0
BLOCK_RECORD
  5
B
100
AcDbSymbolTableRecord
100
AcDbBlockTableRecord
  2
*PAPER_SPACE
  0
BLOCK_RECORD
  5
3C
100
AcDbSymbolTableRecord
100
AcDbBlockTableRecord
  2
GROUP_1
  0
BLOCK_RECORD
  5
3D
100
AcDbSymbolTableRecord
100
AcDbBlockTableRecord
  2
GROUP_2
  0
BLOCK_RECORD
  5
3E
100
AcDbSymbolTableRecord
100
AcDbBlockTableRecord
  2
GROUP_3
  0
BLOCK_RECORD
  5
3F
100
AcDbSymbolTableRecord
100
AcDbBlockTableRecord
  2
GROUP_4
  0
BLOCK_RECORD
  5
40
100
AcDbSymbolTableRecord
100
AcDbBlockTableRecord
  2
GROUP_5
  0
BLOCK_RECORD
  5
41
100
AcDbSymbolTableRecord
100
AcDbBlockTableRecord
  2
GROUP_6
  0
BLOCK_RECORD
  5
42
100
AcDbSymbolTableRecord
100
AcDbBlockTableRecord
  2
GROUP_7
  0
BLOCK_RECORD
  5
43
100
AcDbSymbolTableRecord
100
AcDbBlockTableRecord
  2
GROUP_8
  0
BLOCK_RECORD
  5
44
100
AcDbSymbolTableRecord
100
AcDbBlockTableRecord
  2
GROUP_9
  0
BLOCK_RECORD
  5
45
100
AcDbSymbolTableRecord
100
AcDbBlockTableRecord
  2
GROUP_10
  0
BLOCK_RECORD
  5
46
100
AcDbSymbolTableRecord
100
AcDbBlockTableRecord
  2
GROUP_11
  0
BLOCK_RECORD
  5
47
100
AcDbSymbolTableRecord
100
AcDbBlockTableRecord
  2
GROUP_12
  0
BLOCK_RECORD
  5
48
100
AcDbSymbolTableRecord
100
AcDbBlockTableRecord
  2
GROUP_13
  0
BLOCK_RECORD
  5
49
100
AcDbSymbolTableRecord
100
AcDbBlockTableRecord
  2
GROUP_14
  0
BLOCK_RECORD
  5
4A
100
AcDbSymbolTableRecord
100
AcDbBlockTableRecord
  2
GROUP_15
  0
BLOCK_RECORD
  5
4B
100
AcDbSymbolTableRecord
100
AcDbBlockTableRecord
  2
GROUP_16
  0
BLOCK_RECORD
  5
4C
100
AcDbSymbolTableRecord
100
AcDbBlockTableRecord
  2
GROUP_17
  0
BLOCK_RECORD
  5
4D
100
AcDbSymbolTableRecord
100
AcDbBlockTableRecord
  2
GROUP_18
  0
BLOCK_RECORD
  5
4E
100
AcDbSymbolTableRecord
100
AcDbBlockTableRecord
  2
GROUP_19
  0
BLOCK_RECORD
  5
4F
100
AcDbSymbolTableRecord
100
AcDbBlockTableRecord
  2
GROUP_20
  0
BLOCK_RECORD
  5
50
100
AcDbSymbolTableRecord
100
AcDbBlockTableRecord
  2
GROUP_21
  0
BLOCK_RECORD
  5
51
100
AcDbSymbolTableRecord
100
AcDbBlockTableRecord
  2
GROUP_22
  0
BLOCK_RECORD
  5
52
100
AcDbSymbolTableRecord
100
AcDbBlockTableRecord
  2
GROUP_23
  0
BLOCK_RECORD
  5
53
100
AcDbSymbolTableRecord
100
AcDbBlockTableRecord
  2
GROUP_24
  0
BLOCK_RECORD
  5
54
100
AcDbSymbolTableRecord
100
AcDbBlockTableRecord
  2
GROUP_25
  0
BLOCK_RECORD
  5
55
100
AcDbSymbolTableRecord
100
AcDbBlockTableRecord
  2
GROUP_26
  0
BLOCK_RECORD
  5
56
100
AcDbSymbolTableRecord
100
AcDbBlockTableRecord
  2
GROUP_27
  0
BLOCK_RECORD
  5
57
100
AcDbSymbolTableRecord
100
AcDbBlockTableRecord
  2
GROUP_28
  0
BLOCK_RECORD
  5
58
100
AcDbSymbolTableRecord
100
AcDbBlockTableRecord
  2
GROUP_29
  0
BLOCK_RECORD
  5
59
100
AcDbSymbolTableRecord
100
AcDbBlockTableRecord
  2
GROUP_30
  0
BLOCK_RECORD
  5
5A
100
AcDbSymbolTableRecord
100
AcDbBlockTableRecord
  2
GROUP_31
  0
BLOCK_RECORD
  5
5B
100
AcDbSymbolTableRecord
100
AcDbBlockTableRecord
  2
GROUP_32
  0
BLOCK_RECORD
  5
5C
100
AcDbSymbolTableRecord
100
AcDbBlockTableRecord
  2
GROUP_33
  0
BLOCK_RECORD
  5
5D
100
AcDbSymbolTableRecord
100
AcDbBlockTableRecord
  2
GROUP_34
  0
BLOCK_RECORD
  5
5E
100
AcDbSymbolTableRecord
100
AcDbBlockTableRecord
  2
GROUP_35
  0
BLOCK_RECORD
  5
5F
100
AcDbSymbolTableRecord
100
AcDbBlockTableRecord
  2
GROUP_36
  0
BLOCK_RECORD
  5
60
100
AcDbSymbolTableRecord
100
AcDbBlockTableRecord
  2
GROUP_37
  0
BLOCK_RECORD
  5
61
100
AcDbSymbolTableRecord
100
AcDbBlockTableRecord
  2
GROUP_38
  0
ENDTAB
  0
ENDSEC
  0
SECTION
  2
BLOCKS
  0
BLOCK
  5
D
100
AcDbEntity
  8
0
100
AcDbBlockBegin
  2
*MODEL_SPACE
 70
       0
 10
0.0
 20
0.0
 30
0.0
  3
*MODEL_SPACE
  1

  0
ENDBLK
  5
E
100
AcDbEntity
  8
0
100
AcDbBlockEnd
  0
BLOCK
  5
F
100
AcDbEntity
 67
       1
  8
0
100
AcDbBlockBegin
  2
*PAPER_SPACE
 70
       0
 10
0.0
 20
0.0
 30
0.0
  3
*PAPER_SPACE
  1

  0
ENDBLK
  5
10
100
AcDbEntity
 67
       1
  8
0
100
AcDbBlockEnd
  0
BLOCK
  5
62
100
AcDbEntity
  8
0
100
AcDbBlockBegin
  2
GROUP_1
 70
       0
 10
0.0
 20
0.0
 30
0.0
  3
GROUP_1
  1

  0
LINE
  5
63
100
AcDbEntity
  8
D-STR
  6
CONTINUOUS
 62
       1
100
AcDbLine
 10
-400.25247914
 20
-276.0
 30
0.0
 11
-397.05247914
 21
-276.0
 31
0.0
  0
LINE
  5
64
100
AcDbEntity
  8
D-STR
  6
CONTINUOUS
 62
       1
100
AcDbLine
 10
-396.80495828
 20
-276.85709376
 30
0.0
 11
-396.80495828
 21
-276.14290624
 31
0.0
  0
LINE
  5
65
100
AcDbEntity
  8
D-STR
  6
CONTINUOUS
 62
       1
100
AcDbLine
 10
-400.5
 20
-276.85709376
 30
0.0
 11
-400.5
 21
-276.14290624
 31
0.0
  0
LINE
  5
66
100
AcDbEntity
  8
D-STR
  6
CONTINUOUS
 62
       1
100
AcDbLine
 10
-400.25247914
 20
-276.0
 30
0.0
 11
-400.5
 21
-276.14290624
 31
0.0
  0
LINE
  5
67
100
AcDbEntity
  8
D-STR
  6
CONTINUOUS
 62
       1
100
AcDbLine
 10
-397.05247914
 20
-276.0
 30
0.0
 11
-396.80495828
 21
-276.14290624
 31
0.0
  0
ARC
  5
68
100
AcDbEntity
  8
D-STR
  6
CONTINUOUS
 62
       1
100
AcDbCircle
 10
-398.65247914
 20
-279.05709376
 30
0.0
 40
3.05709376
100
AcDbArc
 50
72.41204623
 51
107.58795377
  0
LINE
  5
69
100
AcDbEntity
  8
D-STR
  6
CONTINUOUS
 62
       1
100
AcDbLine
 10
-397.72871871
 20
-276.85709376
 30
0.0
 11
-397.72871871
 21
-276.14290624
 31
0.0
  0
LINE
  5
6A
100
AcDbEntity
  8
D-STR
  6
CONTINUOUS
 62
       1
100
AcDbLine
 10
-399.57623957
 20
-276.85709376
 30
0.0
 11
-399.57623957
 21
-276.14290624
 31
0.0
  0
ARC
  5
6B
100
AcDbEntity
  8
D-STR
  6
CONTINUOUS
 62
       1
100
AcDbCircle
 10
-400.03811978
 20
-276.81786328
 30
0.0
 40
0.81786328
100
AcDbArc
 50
55.61575253
 51
124.38424747
  0
ARC
  5
6C
100
AcDbEntity
  8
D-STR
  6
CONTINUOUS
 62
       1
100
AcDbCircle
 10
-397.26683849
 20
-276.81786328
 30
0.0
 40
0.81786328
100
AcDbArc
 50
55.61575253
 51
124.38424747
  0
ARC
  5
6D
100
AcDbEntity
  8
D-STR
  6
CONTINUOUS
 62
       1
100
AcDbCircle
 10
-398.65247914
 20
-273.94290624
 30
0.0
 40
3.05709376
100
AcDbArc
 50
252.41204623
 51
287.58795377
  0
ARC
  5
6E
100
AcDbEntity
  8
D-STR
  6
CONTINUOUS
 62
       1
100
AcDbCircle
 10
-400.03811978
 20
-276.18213672
 30
0.0
 40
0.81786328
100
AcDbArc
 50
235.61575253
 51
304.38424747
  0
ARC
  5
6F
100
AcDbEntity
  8
D-STR
  6
CONTINUOUS
 62
       1
100
AcDbCircle
 10
-397.26683849
 20
-276.18213672
 30
0.0
 40
0.81786328
100
AcDbArc
 50
235.61575253
 51
304.38424747
  0
LINE
  5
70
100
AcDbEntity
  8
D-STR
  6
CONTINUOUS
 62
       1
100
AcDbLine
 10
-400.25247914
 20
-277.0
 30
0.0
 11
-397.05247914
 21
-277.0
 31
0.0
  0
LINE
  5
71
100
AcDbEntity
  8
D-STR
  6
CONTINUOUS
 62
       1
100
AcDbLine
 10
-400.25247914
 20
-277.0
 30
0.0
 11
-400.5
 21
-276.85709376
 31
0.0
  0
LINE
  5
72
100
AcDbEntity
  8
D-STR
  6
CONTINUOUS
 62
       1
100
AcDbLine
 10
-397.05247914
 20
-277.0
 30
0.0
 11
-396.80495828
 21
-276.85709376
 31
0.0
  0
LINE
  5
73
100
AcDbEntity
  8
D-BMK
  6
CENTER
 62
       2
100
AcDbLine
 10
-398.65247914
 20
-276.0
 30
0.0
 11
-398.65247914
 21
-277.0
 31
0.0
  0
ENDBLK
  5
74
100
AcDbEntity
  8
0
100
AcDbBlockEnd
  0
BLOCK
  5
75
100
AcDbEntity
  8
0
100
AcDbBlockBegin
  2
GROUP_2
 70
       0
 10
0.0
 20
0.0
 30
0.0
  3
GROUP_2
  1

  0
LINE
  5
76
100
AcDbEntity
  8
D-STR
  6
CONTINUOUS
 62
       1
100
AcDbLine
 10
-394.18615612
 20
-275.8
 30
0.0
 11
-390.18615612
 21
-275.8
 31
0.0
  0
LINE
  5
77
100
AcDbEntity
  8
D-STR
  6
CONTINUOUS
 62
       1
100
AcDbLine
 10
-389.87675505
 20
-276.82136721
 30
0.0
 11
-389.87675505
 21
-275.97863279
 31
0.0
  0
LINE
  5
78
100
AcDbEntity
  8
D-STR
  6
CONTINUOUS
 62
       1
100
AcDbLine
 10
-394.4955572
 20
-276.82136721
 30
0.0
 11
-394.4955572
 21
-275.97863279
 31
0.0
  0
LINE
  5
79
100
AcDbEntity
  8
D-STR
  6
CONTINUOUS
 62
       1
100
AcDbLine
 10
-394.18615612
 20
-275.8
 30
0.0
 11
-394.4955572
 21
-275.97863279
 31
0.0
  0
LINE
  5
7A
100
AcDbEntity
  8
D-STR
  6
CONTINUOUS
 62
       1
100
AcDbLine
 10
-390.18615612
 20
-275.8
 30
0.0
 11
-389.87675505
 21
-275.97863279
 31
0.0
  0
ARC
  5
7B
100
AcDbEntity
  8
D-STR
  6
CONTINUOUS
 62
       1
100
AcDbCircle
 10
-392.18615612
 20
-279.62136721
 30
0.0
 40
3.82136721
100
AcDbArc
 50
72.41204623
 51
107.58795377
  0
LINE
  5
7C
100
AcDbEntity
  8
D-STR
  6
CONTINUOUS
 62
       1
100
AcDbLine
 10
-391.03145559
 20
-276.82136721
 30
0.0
 11
-391.03145559
 21
-275.97863279
 31
0.0
  0
LINE
  5
7D
100
AcDbEntity
  8
D-STR
  6
CONTINUOUS
 62
       1
100
AcDbLine
 10
-393.34085666
 20
-276.82136721
 30
0.0
 11
-393.34085666
 21
-275.97863279
 31
0.0
  0
ARC
  5
7E
100
AcDbEntity
  8
D-STR
  6
CONTINUOUS
 62
       1
100
AcDbCircle
 10
-393.91820693
 20
-276.8223291
 30
0.0
 40
1.0223291
100
AcDbArc
 50
55.61575253
 51
124.38424747
  0
ARC
  5
7F
100
AcDbEntity
  8
D-STR
  6
CONTINUOUS
 62
       1
100
AcDbCircle
 10
-390.45410532
 20
-276.8223291
 30
0.0
 40
1.0223291
100
AcDbArc
 50
55.61575253
 51
124.38424747
  0
ARC
  5
80
100
AcDbEntity
  8
D-STR
  6
CONTINUOUS
 62
       1
100
AcDbCircle
 10
-392.18615612
 20
-273.17863279
 30
0.0
 40
3.82136721
100
AcDbArc
 50
252.41204623
 51
287.58795377
  0
ARC
  5
81
100
AcDbEntity
  8
D-STR
  6
CONTINUOUS
 62
       1
100
AcDbCircle
 10
-393.91820693
 20
-275.9776709
 30
0.0
 40
1.0223291
100
AcDbArc
 50
235.61575253
 51
304.38424747
  0
ARC
  5
82
100
AcDbEntity
  8
D-STR
  6
CONTINUOUS
 62
       1
100
AcDbCircle
 10
-390.45410532
 20
-275.9776709
 30
0.0
 40
1.0223291
100
AcDbArc
 50
235.61575253
 51
304.38424747
  0
LINE
  5
83
100
AcDbEntity
  8
D-STR
  6
CONTINUOUS
 62
       1
100
AcDbLine
 10
-394.18615612
 20
-277.0
 30
0.0
 11
-390.18615612
 21
-277.0
 31
0.0
  0
LINE
  5
84
100
AcDbEntity
  8
D-STR
  6
CONTINUOUS
 62
       1
100
AcDbLine
 10
-394.18615612
 20
-277.0
 30
0.0
 11
-394.4955572
 21
-276.82136721
 31
0.0
  0
LINE
  5
85
100
AcDbEntity
  8
D-STR
  6
CONTINUOUS
 62
       1
100
AcDbLine
 10
-390.18615612
 20
-277.0
 30
0.0
 11
-389.87675505
 21
-276.82136721
 31
0.0
  0
LINE
  5
86
100
AcDbEntity
  8
D-BMK
  6
CENTER
 62
       2
100
AcDbLine
 10
-392.18615612
 20
-275.8
 30
0.0
 11
-392.18615612
 21
-277.0
 31
0.0
  0
ENDBLK
  5
87
100
AcDbEntity
  8
0
100
AcDbBlockEnd
  0
BLOCK
  5
88
100
AcDbEntity
  8
0
100
AcDbBlockBegin
  2
GROUP_3
 70
       0
 10
0.0
 20
0.0
 30
0.0
  3
GROUP_3
  1

  0
LINE
  5
89
100
AcDbEntity
  8
D-STR
  6
CONTINUOUS
 62
       1
100
AcDbLine
 10
-386.60325236
 20
-275.4
 30
0.0
 11
-381.60325236
 21
-275.4
 31
0.0
  0
LINE
  5
8A
100
AcDbEntity
  8
D-STR
  6
CONTINUOUS
 62
       1
100
AcDbLine
 10
-381.21650101
 20
-276.77670901
 30
0.0
 11
-381.21650101
 21
-275.62329099
 31
0.0
  0
LINE
  5
8B
100
AcDbEntity
  8
D-STR
  6
CONTINUOUS
 62
       1
100
AcDbLine
 10
-386.9900037
 20
-276.77670901
 30
0.0
 11
-386.9900037
 21
-275.62329099
 31
0.0
  0
LINE
  5
8C
100
AcDbEntity
  8
D-STR
  6
CONTINUOUS
 62
       1
100
AcDbLine
 10
-386.60325236
 20
-275.4
 30
0.0
 11
-386.9900037
 21
-275.62329099
 31
0.0
  0
LINE
  5
8D
100
AcDbEntity
  8
D-STR
  6
CONTINUOUS
 62
       1
100
AcDbLine
 10
-381.60325236
 20
-275.4
 30
0.0
 11
-381.21650101
 21
-275.62329099
 31
0.0
  0
ARC
  5
8E
100
AcDbEntity
  8
D-STR
  6
CONTINUOUS
 62
       1
100
AcDbCircle
 10
-384.10325236
 20
-280.17670901
 30
0.0
 40
4.77670901
100
AcDbArc
 50
72.41204623
 51
107.58795377
  0
LINE
  5
8F
100
AcDbEntity
  8
D-STR
  6
CONTINUOUS
 62
       1
100
AcDbLine
 10
-382.65987668
 20
-276.77670901
 30
0.0
 11
-382.65987668
 21
-275.62329099
 31
0.0
  0
LINE
  5
90
100
AcDbEntity
  8
D-STR
  6
CONTINUOUS
 62
       1
100
AcDbLine
 10
-385.54662803
 20
-276.77670901
 30
0.0
 11
-385.54662803
 21
-275.62329099
 31
0.0
  0
ARC
  5
91
100
AcDbEntity
  8
D-STR
  6
CONTINUOUS
 62
       1
100
AcDbCircle
 10
-386.26831586
 20
-276.67791137
 30
0.0
 40
1.27791137
100
AcDbArc
 50
55.61575253
 51
124.38424747
  0
ARC
  5
92
100
AcDbEntity
  8
D-STR
  6
CONTINUOUS
 62
       1
100
AcDbCircle
 10
-381.93818885
 20
-276.67791137
 30
0.0
 40
1.27791137
100
AcDbArc
 50
55.61575253
 51
124.38424747
  0
ARC
  5
93
100
AcDbEntity
  8
D-STR
  6
CONTINUOUS
 62
       1
100
AcDbCircle
 10
-384.10325236
 20
-272.22329099
 30
0.0
 40
4.77670901
100
AcDbArc
 50
252.41204623
 51
287.58795377
  0
ARC
  5
94
100
AcDbEntity
  8
D-STR
  6
CONTINUOUS
 62
       1
100
AcDbCircle
 10
-386.26831586
 20
-275.72208863
 30
0.0
 40
1.27791137
100
AcDbArc
 50
235.61575253
 51
304.38424747
  0
ARC
  5
95
100
AcDbEntity
  8
D-STR
  6
CONTINUOUS
 62
       1
100
AcDbCircle
 10
-381.93818885
 20
-275.72208863
 30
0.0
 40
1.27791137
100
AcDbArc
 50
235.61575253
 51
304.38424747
  0
LINE
  5
96
100
AcDbEntity
  8
D-STR
  6
CONTINUOUS
 62
       1
100
AcDbLine
 10
-386.60325236
 20
-277.0
 30
0.0
 11
-381.60325236
 21
-277.0
 31
0.0
  0
LINE
  5
97
100
AcDbEntity
  8
D-STR
  6
CONTINUOUS
 62
       1
100
AcDbLine
 10
-386.60325236
 20
-277.0
 30
0.0
 11
-386.9900037
 21
-276.77670901
 31
0.0
  0
LINE
  5
98
100
AcDbEntity
  8
D-STR
  6
CONTINUOUS
 62
       1
100
AcDbLine
 10
-381.60325236
 20
-277.0
 30
0.0
 11
-381.21650101
 21
-276.77670901
 31
0.0
  0
LINE
  5
99
100
AcDbEntity
  8
D-BMK
  6
CENTER
 62
       2
100
AcDbLine
 10
-384.10325236
 20
-275.4
 30
0.0
 11
-384.10325236
 21
-277.0
 31
0.0
  0
ENDBLK
  5
9A
100
AcDbEntity
  8
0
100
AcDbBlockEnd
  0
BLOCK
  5
9B
100
AcDbEntity
  8
0
100
AcDbBlockBegin
  2
GROUP_4
 70
       0
 10
0.0
 20
0.0
 30
0.0
  3
GROUP_4
  1

  0
LINE
  5
9C
100
AcDbEntity
  8
D-STR
  6
CONTINUOUS
 62
       1
100
AcDbLine
 10
-377.61564805
 20
-275.2
 30
0.0
 11
-372.11564805
 21
-275.2
 31
0.0
  0
LINE
  5
9D
100
AcDbEntity
  8
D-STR
  6
CONTINUOUS
 62
       1
100
AcDbLine
 10
-371.69022157
 20
-276.75437991
 30
0.0
 11
-371.69022157
 21
-275.44562009
 31
0.0
  0
LINE
  5
9E
100
AcDbEntity
  8
D-STR
  6
CONTINUOUS
 62
       1
100
AcDbLine
 10
-378.04107453
 20
-276.75437991
 30
0.0
 11
-378.04107453
 21
-275.44562009
 31
0.0
  0
LINE
  5
9F
100
AcDbEntity
  8
D-STR
  6
CONTINUOUS
 62
       1
100
AcDbLine
 10
-377.61564805
 20
-275.2
 30
0.0
 11
-378.04107453
 21
-275.44562009
 31
0.0
  0
LINE
  5
A0
100
AcDbEntity
  8
D-STR
  6
CONTINUOUS
 62
       1
100
AcDbLine
 10
-372.11564805
 20
-275.2
 30
0.0
 11
-371.69022157
 21
-275.44562009
 31
0.0
  0
ARC
  5
A1
100
AcDbEntity
  8
D-STR
  6
CONTINUOUS
 62
       1
100
AcDbCircle
 10
-374.86564805
 20
-280.45437991
 30
0.0
 40
5.25437991
100
AcDbArc
 50
72.41204623
 51
107.58795377
  0
LINE
  5
A2
100
AcDbEntity
  8
D-STR
  6
CONTINUOUS
 62
       1
100
AcDbLine
 10
-373.27793481
 20
-276.75437991
 30
0.0
 11
-373.27793481
 21
-275.44562009
 31
0.0
  0
LINE
  5
A3
100
AcDbEntity
  8
D-STR
  6
CONTINUOUS
 62
       1
100
AcDbLine
 10
-376.45336129
 20
-276.75437991
 30
0.0
 11
-376.45336129
 21
-275.44562009
 31
0.0
  0
ARC
  5
A4
100
AcDbEntity
  8
D-STR
  6
CONTINUOUS
 62
       1
100
AcDbCircle
 10
-377.24721791
 20
-276.60570251
 30
0.0
 40
1.40570251
100
AcDbArc
 50
55.61575253
 51
124.38424747
  0
ARC
  5
A5
100
AcDbEntity
  8
D-STR
  6
CONTINUOUS
 62
       1
100
AcDbCircle
 10
-372.48407819
 20
-276.60570251
 30
0.0
 40
1.40570251
100
AcDbArc
 50
55.61575253
 51
124.38424747
  0
ARC
  5
A6
100
AcDbEntity
  8
D-STR
  6
CONTINUOUS
 62
       1
100
AcDbCircle
 10
-374.86564805
 20
-271.74562009
 30
0.0
 40
5.25437991
100
AcDbArc
 50
252.41204623
 51
287.58795377
  0
ARC
  5
A7
100
AcDbEntity
  8
D-STR
  6
CONTINUOUS
 62
       1
100
AcDbCircle
 10
-377.24721791
 20
-275.59429749
 30
0.0
 40
1.40570251
100
AcDbArc
 50
235.61575253
 51
304.38424747
  0
ARC
  5
A8
100
AcDbEntity
  8
D-STR
  6
CONTINUOUS
 62
       1
100
AcDbCircle
 10
-372.48407819
 20
-275.59429749
 30
0.0
 40
1.40570251
100
AcDbArc
 50
235.61575253
 51
304.38424747
  0
LINE
  5
A9
100
AcDbEntity
  8
D-STR
  6
CONTINUOUS
 62
       1
100
AcDbLine
 10
-377.61564805
 20
-277.0
 30
0.0
 11
-372.11564805
 21
-277.0
 31
0.0
  0
LINE
  5
AA
100
AcDbEntity
  8
D-STR
  6
CONTINUOUS
 62
       1
100
AcDbLine
 10
-377.61564805
 20
-277.0
 30
0.0
 11
-378.04107453
 21
-276.75437991
 31
0.0
  0
LINE
  5
AB
100
AcDbEntity
  8
D-STR
  6
CONTINUOUS
 62
       1
100
AcDbLine
 10
-372.11564805
 20
-277.0
 30
0.0
 11
-371.69022157
 21
-276.75437991
 31
0.0
  0
LINE
  5
AC
100
AcDbEntity
  8
D-BMK
  6
CENTER
 62
       2
100
AcDbLine
 10
-374.86564805
 20
-275.2
 30
0.0
 11
-374.86564805
 21
-277.0
 31
0.0
  0
ENDBLK
  5
AD
100
AcDbEntity
  8
0
100
AcDbBlockEnd
  0
BLOCK
  5
AE
100
AcDbEntity
  8
0
100
AcDbBlockBegin
  2
GROUP_5
 70
       0
 10
0.0
 20
0.0
 30
0.0
  3
GROUP_5
  1

  0
LINE
  5
AF
100
AcDbEntity
  8
D-STR
  6
CONTINUOUS
 62
       1
100
AcDbLine
 10
-367.1073178
 20
-274.8
 30
0.0
 11
-360.1073178
 21
-274.8
 31
0.0
  0
LINE
  5
B0
100
AcDbEntity
  8
D-STR
  6
CONTINUOUS
 62
       1
100
AcDbLine
 10
-359.56586591
 20
-276.68739261
 30
0.0
 11
-359.56586591
 21
-275.11260739
 31
0.0
  0
LINE
  5
B1
100
AcDbEntity
  8
D-STR
  6
CONTINUOUS
 62
       1
100
AcDbLine
 10
-367.64876968
 20
-276.68739261
 30
0.0
 11
-367.64876968
 21
-275.11260739
 31
0.0
  0
LINE
  5
B2
100
AcDbEntity
  8
D-STR
  6
CONTINUOUS
 62
       1
100
AcDbLine
 10
-367.1073178
 20
-274.8
 30
0.0
 11
-367.64876968
 21
-275.11260739
 31
0.0
  0
LINE
  5
B3
100
AcDbEntity
  8
D-STR
  6
CONTINUOUS
 62
       1
100
AcDbLine
 10
-360.1073178
 20
-274.8
 30
0.0
 11
-359.56586591
 21
-275.11260739
 31
0.0
  0
ARC
  5
B4
100
AcDbEntity
  8
D-STR
  6
CONTINUOUS
 62
       1
100
AcDbCircle
 10
-363.6073178
 20
-281.48739261
 30
0.0
 40
6.68739261
100
AcDbArc
 50
72.41204623
 51
107.58795377
  0
LINE
  5
B5
100
AcDbEntity
  8
D-STR
  6
CONTINUOUS
 62
       1
100
AcDbLine
 10
-361.58659186
 20
-276.68739261
 30
0.0
 11
-361.58659186
 21
-275.11260739
 31
0.0
  0
LINE
  5
B6
100
AcDbEntity
  8
D-STR
  6
CONTINUOUS
 62
       1
100
AcDbLine
 10
-365.62804374
 20
-276.68739261
 30
0.0
 11
-365.62804374
 21
-275.11260739
 31
0.0
  0
ARC
  5
B7
100
AcDbEntity
  8
D-STR
  6
CONTINUOUS
 62
       1
100
AcDbCircle
 10
-366.63840671
 20
-276.58907592
 30
0.0
 40
1.78907592
100
AcDbArc
 50
55.61575253
 51
124.38424747
  0
ARC
  5
B8
100
AcDbEntity
  8
D-STR
  6
CONTINUOUS
 62
       1
100
AcDbCircle
 10
-360.57622889
 20
-276.58907592
 30
0.0
 40
1.78907592
100
AcDbArc
 50
55.61575253
 51
124.38424747
  0
ARC
  5
B9
100
AcDbEntity
  8
D-STR
  6
CONTINUOUS
 62
       1
100
AcDbCircle
 10
-363.6073178
 20
-270.31260739
 30
0.0
 40
6.68739261
100
AcDbArc
 50
252.41204623
 51
287.58795377
  0
ARC
  5
BA
100
AcDbEntity
  8
D-STR
  6
CONTINUOUS
 62
       1
100
AcDbCircle
 10
-366.63840671
 20
-275.21092408
 30
0.0
 40
1.78907592
100
AcDbArc
 50
235.61575253
 51
304.38424747
  0
ARC
  5
BB
100
AcDbEntity
  8
D-STR
  6
CONTINUOUS
 62
       1
100
AcDbCircle
 10
-360.57622889
 20
-275.21092408
 30
0.0
 40
1.78907592
100
AcDbArc
 50
235.61575253
 51
304.38424747
  0
LINE
  5
BC
100
AcDbEntity
  8
D-STR
  6
CONTINUOUS
 62
       1
100
AcDbLine
 10
-367.1073178
 20
-277.0
 30
0.0
 11
-360.1073178
 21
-277.0
 31
0.0
  0
LINE
  5
BD
100
AcDbEntity
  8
D-STR
  6
CONTINUOUS
 62
       1
100
AcDbLine
 10
-367.1073178
 20
-277.0
 30
0.0
 11
-367.64876968
 21
-276.68739261
 31
0.0
  0
LINE
  5
BE
100
AcDbEntity
  8
D-STR
  6
CONTINUOUS
 62
       1
100
AcDbLine
 10
-360.1073178
 20
-277.0
 30
0.0
 11
-359.56586591
 21
-276.68739261
 31
0.0
  0
LINE
  5
BF
100
AcDbEntity
  8
D-BMK
  6
CENTER
 62
       2
100
AcDbLine
 10
-363.6073178
 20
-274.8
 30
0.0
 11
-363.6073178
 21
-277.0
 31
0.0
  0
ENDBLK
  5
C0
100
AcDbEntity
  8
0
100
AcDbBlockEnd
  0
BLOCK
  5
C1
100
AcDbEntity
  8
0
100
AcDbBlockBegin
  2
GROUP_6
 70
       0
 10
0.0
 20
0.0
 30
0.0
  3
GROUP_6
  1

  0
LINE
  5
C2
100
AcDbEntity
  8
D-STR
  6
CONTINUOUS
 62
       1
100
AcDbLine
 10
-354.32826161
 20
-274.3
 30
0.0
 11
-346.32826161
 21
-274.3
 31
0.0
  0
LINE
  5
C3
100
AcDbEntity
  8
D-STR
  6
CONTINUOUS
 62
       1
100
AcDbLine
 10
-345.70945945
 20
-276.64273441
 30
0.0
 11
-345.70945945
 21
-274.65726559
 31
0.0
  0
LINE
  5
C4
100
AcDbEntity
  8
D-STR
  6
CONTINUOUS
 62
       1
100
AcDbLine
 10
-354.94706376
 20
-276.64273441
 30
0.0
 11
-354.94706376
 21
-274.65726559
 31
0.0
  0
LINE
  5
C5
100
AcDbEntity
  8
D-STR
  6
CONTINUOUS
 62
       1
100
AcDbLine
 10
-354.32826161
 20
-274.3
 30
0.0
 11
-354.94706376
 21
-274.65726559
 31
0.0
  0
LINE
  5
C6
100
AcDbEntity
  8
D-STR
  6
CONTINUOUS
 62
       1
100
AcDbLine
 10
-346.32826161
 20
-274.3
 30
0.0
 11
-345.70945945
 21
-274.65726559
 31
0.0
  0
ARC
  5
C7
100
AcDbEntity
  8
D-STR
  6
CONTINUOUS
 62
       1
100
AcDbCircle
 10
-350.32826161
 20
-281.94273441
 30
0.0
 40
7.64273441
100
AcDbArc
 50
72.41204623
 51
107.58795377
  0
LINE
  5
C8
100
AcDbEntity
  8
D-STR
  6
CONTINUOUS
 62
       1
100
AcDbLine
 10
-348.01886053
 20
-276.64273441
 30
0.0
 11
-348.01886053
 21
-274.65726559
 31
0.0
  0
LINE
  5
C9
100
AcDbEntity
  8
D-STR
  6
CONTINUOUS
 62
       1
100
AcDbLine
 10
-352.63766268
 20
-276.64273441
 30
0.0
 11
-352.63766268
 21
-274.65726559
 31
0.0
  0
ARC
  5
CA
100
AcDbEntity
  8
D-STR
  6
CONTINUOUS
 62
       1
100
AcDbCircle
 10
-353.79236322
 20
-276.3446582
 30
0.0
 40
2.0446582
100
AcDbArc
 50
55.61575253
 51
124.38424747
  0
ARC
  5
CB
100
AcDbEntity
  8
D-STR
  6
CONTINUOUS
 62
       1
100
AcDbCircle
 10
-346.86415999
 20
-276.3446582
 30
0.0
 40
2.0446582
100
AcDbArc
 50
55.61575253
 51
124.38424747
  0
ARC
  5
CC
100
AcDbEntity
  8
D-STR
  6
CONTINUOUS
 62
       1
100
AcDbCircle
 10
-350.32826161
 20
-269.35726559
 30
0.0
 40
7.64273441
100
AcDbArc
 50
252.41204623
 51
287.58795377
  0
ARC
  5
CD
100
AcDbEntity
  8
D-STR
  6
CONTINUOUS
 62
       1
100
AcDbCircle
 10
-353.79236322
 20
-274.9553418
 30
0.0
 40
2.0446582
100
AcDbArc
 50
235.61575253
 51
304.38424747
  0
ARC
  5
CE
100
AcDbEntity
  8
D-STR
  6
CONTINUOUS
 62
       1
100
AcDbCircle
 10
-346.86415999
 20
-274.9553418
 30
0.0
 40
2.0446582
100
AcDbArc
 50
235.61575253
 51
304.38424747
  0
LINE
  5
CF
100
AcDbEntity
  8
D-STR
  6
CONTINUOUS
 62
       1
100
AcDbLine
 10
-354.32826161
 20
-277.0
 30
0.0
 11
-346.32826161
 21
-277.0
 31
0.0
  0
LINE
  5
D0
100
AcDbEntity
  8
D-STR
  6
CONTINUOUS
 62
       1
100
AcDbLine
 10
-354.32826161
 20
-277.0
 30
0.0
 11
-354.94706376
 21
-276.64273441
 31
0.0
  0
LINE
  5
D1
100
AcDbEntity
  8
D-STR
  6
CONTINUOUS
 62
       1
100
AcDbLine
 10
-346.32826161
 20
-277.0
 30
0.0
 11
-345.70945945
 21
-276.64273441
 31
0.0
  0
LINE
  5
D2
100
AcDbEntity
  8
D-BMK
  6
CENTER
 62
       2
100
AcDbLine
 10
-350.32826161
 20
-274.3
 30
0.0
 11
-350.32826161
 21
-277.0
 31
0.0
  0
ENDBLK
  5
D3
100
AcDbEntity
  8
0
100
AcDbBlockEnd
  0
BLOCK
  5
D4
100
AcDbEntity
  8
0
100
AcDbBlockBegin
  2
GROUP_7
 70
       0
 10
0.0
 20
0.0
 30
0.0
  3
GROUP_7
  1

  0
LINE
  5
D5
100
AcDbEntity
  8
D-STR
  6
CONTINUOUS
 62
       1
100
AcDbLine
 10
-339.16245407
 20
-273.8
 30
0.0
 11
-329.16245407
 21
-273.8
 31
0.0
  0
LINE
  5
D6
100
AcDbEntity
  8
D-STR
  6
CONTINUOUS
 62
       1
100
AcDbLine
 10
-328.38895138
 20
-276.55341801
 30
0.0
 11
-328.38895138
 21
-274.24658199
 31
0.0
  0
LINE
  5
D7
100
AcDbEntity
  8
D-STR
  6
CONTINUOUS
 62
       1
100
AcDbLine
 10
-339.93595676
 20
-276.55341801
 30
0.0
 11
-339.93595676
 21
-274.24658199
 31
0.0
  0
LINE
  5
D8
100
AcDbEntity
  8
D-STR
  6
CONTINUOUS
 62
       1
100
AcDbLine
 10
-339.16245407
 20
-273.8
 30
0.0
 11
-339.93595676
 21
-274.24658199
 31
0.0
  0
LINE
  5
D9
100
AcDbEntity
  8
D-STR
  6
CONTINUOUS
 62
       1
100
AcDbLine
 10
-329.16245407
 20
-273.8
 30
0.0
 11
-328.38895138
 21
-274.24658199
 31
0.0
  0
ARC
  5
DA
100
AcDbEntity
  8
D-STR
  6
CONTINUOUS
 62
       1
100
AcDbCircle
 10
-334.16245407
 20
-283.35341801
 30
0.0
 40
9.55341801
100
AcDbArc
 50
72.41204623
 51
107.58795377
  0
LINE
  5
DB
100
AcDbEntity
  8
D-STR
  6
CONTINUOUS
 62
       1
100
AcDbLine
 10
-331.27570272
 20
-276.55341801
 30
0.0
 11
-331.27570272
 21
-274.24658199
 31
0.0
  0
LINE
  5
DC
100
AcDbEntity
  8
D-STR
  6
CONTINUOUS
 62
       1
100
AcDbLine
 10
-337.04920542
 20
-276.55341801
 30
0.0
 11
-337.04920542
 21
-274.24658199
 31
0.0
  0
ARC
  5
DD
100
AcDbEntity
  8
D-STR
  6
CONTINUOUS
 62
       1
100
AcDbCircle
 10
-338.49258109
 20
-276.35582275
 30
0.0
 40
2.55582275
100
AcDbArc
 50
55.61575253
 51
124.38424747
  0
ARC
  5
DE
100
AcDbEntity
  8
D-STR
  6
CONTINUOUS
 62
       1
100
AcDbCircle
 10
-329.83232705
 20
-276.35582275
 30
0.0
 40
2.55582275
100
AcDbArc
 50
55.61575253
 51
124.38424747
  0
ARC
  5
DF
100
AcDbEntity
  8
D-STR
  6
CONTINUOUS
 62
       1
100
AcDbCircle
 10
-334.16245407
 20
-267.44658199
 30
0.0
 40
9.55341801
100
AcDbArc
 50
252.41204623
 51
287.58795377
  0
ARC
  5
E0
100
AcDbEntity
  8
D-STR
  6
CONTINUOUS
 62
       1
100
AcDbCircle
 10
-338.49258109
 20
-274.44417725
 30
0.0
 40
2.55582275
100
AcDbArc
 50
235.61575253
 51
304.38424747
  0
ARC
  5
E1
100
AcDbEntity
  8
D-STR
  6
CONTINUOUS
 62
       1
100
AcDbCircle
 10
-329.83232705
 20
-274.44417725
 30
0.0
 40
2.55582275
100
AcDbArc
 50
235.61575253
 51
304.38424747
  0
LINE
  5
E2
100
AcDbEntity
  8
D-STR
  6
CONTINUOUS
 62
       1
100
AcDbLine
 10
-339.16245407
 20
-277.0
 30
0.0
 11
-329.16245407
 21
-277.0
 31
0.0
  0
LINE
  5
E3
100
AcDbEntity
  8
D-STR
  6
CONTINUOUS
 62
       1
100
AcDbLine
 10
-339.16245407
 20
-277.0
 30
0.0
 11
-339.93595676
 21
-276.55341801
 31
0.0
  0
LINE
  5
E4
100
AcDbEntity
  8
D-STR
  6
CONTINUOUS
 62
       1
100
AcDbLine
 10
-329.16245407
 20
-277.0
 30
0.0
 11
-328.38895138
 21
-276.55341801
 31
0.0
  0
LINE
  5
E5
100
AcDbEntity
  8
D-BMK
  6
CENTER
 62
       2
100
AcDbLine
 10
-334.16245407
 20
-273.8
 30
0.0
 11
-334.16245407
 21
-277.0
 31
0.0
  0
ENDBLK
  5
E6
100
AcDbEntity
  8
0
100
AcDbBlockEnd
  0
BLOCK
  5
E7
100
AcDbEntity
  8
0
100
AcDbBlockBegin
  2
GROUP_8
 70
       0
 10
0.0
 20
0.0
 30
0.0
  3
GROUP_8
  1

  0
LINE
  5
E8
100
AcDbEntity
  8
D-STR
  6
CONTINUOUS
 62
       1
100
AcDbLine
 10
-319.87784438
 20
-273.0
 30
0.0
 11
-306.87784438
 21
-273.0
 31
0.0
  0
LINE
  5
E9
100
AcDbEntity
  8
D-STR
  6
CONTINUOUS
 62
       1
100
AcDbLine
 10
-305.87229088
 20
-276.41944342
 30
0.0
 11
-305.87229088
 21
-273.58055658
 31
0.0
  0
LINE
  5
EA
100
AcDbEntity
  8
D-STR
  6
CONTINUOUS
 62
       1
100
AcDbLine
 10
-320.88339788
 20
-276.41944342
 30
0.0
 11
-320.88339788
 21
-273.58055658
 31
0.0
  0
LINE
  5
EB
100
AcDbEntity
  8
D-STR
  6
CONTINUOUS
 62
       1
100
AcDbLine
 10
-319.87784438
 20
-273.0
 30
0.0
 11
-320.88339788
 21
-273.58055658
 31
0.0
  0
LINE
  5
EC
100
AcDbEntity
  8
D-STR
  6
CONTINUOUS
 62
       1
100
AcDbLine
 10
-306.87784438
 20
-273.0
 30
0.0
 11
-305.87229088
 21
-273.58055658
 31
0.0
  0
ARC
  5
ED
100
AcDbEntity
  8
D-STR
  6
CONTINUOUS
 62
       1
100
AcDbCircle
 10
-313.37784438
 20
-285.41944342
 30
0.0
 40
12.41944342
100
AcDbArc
 50
72.41204623
 51
107.58795377
  0
LINE
  5
EE
100
AcDbEntity
  8
D-STR
  6
CONTINUOUS
 62
       1
100
AcDbLine
 10
-309.62506763
 20
-276.41944342
 30
0.0
 11
-309.62506763
 21
-273.58055658
 31
0.0
  0
LINE
  5
EF
100
AcDbEntity
  8
D-STR
  6
CONTINUOUS
 62
       1
100
AcDbLine
 10
-317.13062113
 20
-276.41944342
 30
0.0
 11
-317.13062113
 21
-273.58055658
 31
0.0
  0
ARC
  5
F0
100
AcDbEntity
  8
D-STR
  6
CONTINUOUS
 62
       1
100
AcDbCircle
 10
-319.0070095
 20
-276.32256957
 30
0.0
 40
3.32256957
100
AcDbArc
 50
55.61575253
 51
124.38424747
  0
ARC
  5
F1
100
AcDbEntity
  8
D-STR
  6
CONTINUOUS
 62
       1
100
AcDbCircle
 10
-307.74867925
 20
-276.32256957
 30
0.0
 40
3.32256957
100
AcDbArc
 50
55.61575253
 51
124.38424747
  0
ARC
  5
F2
100
AcDbEntity
  8
D-STR
  6
CONTINUOUS
 62
       1
100
AcDbCircle
 10
-313.37784438
 20
-264.58055658
 30
0.0
 40
12.41944342
100
AcDbArc
 50
252.41204623
 51
287.58795377
  0
ARC
  5
F3
100
AcDbEntity
  8
D-STR
  6
CONTINUOUS
 62
       1
100
AcDbCircle
 10
-319.0070095
 20
-273.67743043
 30
0.0
 40
3.32256957
100
AcDbArc
 50
235.61575253
 51
304.38424747
  0
ARC
  5
F4
100
AcDbEntity
  8
D-STR
  6
CONTINUOUS
 62
       1
100
AcDbCircle
 10
-307.74867925
 20
-273.67743043
 30
0.0
 40
3.32256957
100
AcDbArc
 50
235.61575253
 51
304.38424747
  0
LINE
  5
F5
100
AcDbEntity
  8
D-STR
  6
CONTINUOUS
 62
       1
100
AcDbLine
 10
-319.87784438
 20
-277.0
 30
0.0
 11
-306.87784438
 21
-277.0
 31
0.0
  0
LINE
  5
F6
100
AcDbEntity
  8
D-STR
  6
CONTINUOUS
 62
       1
100
AcDbLine
 10
-319.87784438
 20
-277.0
 30
0.0
 11
-320.88339788
 21
-276.41944342
 31
0.0
  0
LINE
  5
F7
100
AcDbEntity
  8
D-STR
  6
CONTINUOUS
 62
       1
100
AcDbLine
 10
-306.87784438
 20
-277.0
 30
0.0
 11
-305.87229088
 21
-276.41944342
 31
0.0
  0
LINE
  5
F8
100
AcDbEntity
  8
D-BMK
  6
CENTER
 62
       2
100
AcDbLine
 10
-313.37784438
 20
-273.0
 30
0.0
 11
-313.37784438
 21
-277.0
 31
0.0
  0
ENDBLK
  5
F9
100
AcDbEntity
  8
0
100
AcDbBlockEnd
  0
BLOCK
  5
FA
100
AcDbEntity
  8
0
100
AcDbBlockBegin
  2
GROUP_9
 70
       0
 10
0.0
 20
0.0
 30
0.0
  3
GROUP_9
  1

  0
LINE
  5
FB
100
AcDbEntity
  8
D-STR
  6
CONTINUOUS
 62
       1
100
AcDbLine
 10
-295.39708227
 20
-272.0
 30
0.0
 11
-279.39708227
 21
-272.0
 31
0.0
  0
LINE
  5
FC
100
AcDbEntity
  8
D-STR
  6
CONTINUOUS
 62
       1
100
AcDbLine
 10
-278.15947796
 20
-276.28546882
 30
0.0
 11
-278.15947796
 21
-272.71453118
 31
0.0
  0
LINE
  5
FD
100
AcDbEntity
  8
D-STR
  6
CONTINUOUS
 62
       1
100
AcDbLine
 10
-296.63468657
 20
-276.28546882
 30
0.0
 11
-296.63468657
 21
-272.71453118
 31
0.0
  0
LINE
  5
FE
100
AcDbEntity
  8
D-STR
  6
CONTINUOUS
 62
       1
100
AcDbLine
 10
-295.39708227
 20
-272.0
 30
0.0
 11
-296.63468657
 21
-272.71453118
 31
0.0
  0
LINE
  5
FF
100
AcDbEntity
  8
D-STR
  6
CONTINUOUS
 62
       1
100
AcDbLine
 10
-279.39708227
 20
-272.0
 30
0.0
 11
-278.15947796
 21
-272.71453118
 31
0.0
  0
ARC
  5
100
100
AcDbEntity
  8
D-STR
  6
CONTINUOUS
 62
       1
100
AcDbCircle
 10
-287.39708227
 20
-287.28546882
 30
0.0
 40
15.28546882
100
AcDbArc
 50
72.41204623
 51
107.58795377
  0
LINE
  5
101
100
AcDbEntity
  8
D-STR
  6
CONTINUOUS
 62
       1
100
AcDbLine
 10
-282.77828011
 20
-276.28546882
 30
0.0
 11
-282.77828011
 21
-272.71453118
 31
0.0
  0
LINE
  5
102
100
AcDbEntity
  8
D-STR
  6
CONTINUOUS
 62
       1
100
AcDbLine
 10
-292.01588442
 20
-276.28546882
 30
0.0
 11
-292.01588442
 21
-272.71453118
 31
0.0
  0
ARC
  5
103
100
AcDbEntity
  8
D-STR
  6
CONTINUOUS
 62
       1
100
AcDbCircle
 10
-294.3252855
 20
-276.0893164
 30
0.0
 40
4.0893164
100
AcDbArc
 50
55.61575253
 51
124.38424747
  0
ARC
  5
104
100
AcDbEntity
  8
D-STR
  6
CONTINUOUS
 62
       1
100
AcDbCircle
 10
-280.46887904
 20
-276.0893164
 30
0.0
 40
4.0893164
100
AcDbArc
 50
55.61575253
 51
124.38424747
  0
ARC
  5
105
100
AcDbEntity
  8
D-STR
  6
CONTINUOUS
 62
       1
100
AcDbCircle
 10
-287.39708227
 20
-261.71453118
 30
0.0
 40
15.28546882
100
AcDbArc
 50
252.41204623
 51
287.58795377
  0
ARC
  5
106
100
AcDbEntity
  8
D-STR
  6
CONTINUOUS
 62
       1
100
AcDbCircle
 10
-294.3252855
 20
-272.9106836
 30
0.0
 40
4.0893164
100
AcDbArc
 50
235.61575253
 51
304.38424747
  0
ARC
  5
107
100
AcDbEntity
  8
D-STR
  6
CONTINUOUS
 62
       1
100
AcDbCircle
 10
-280.46887904
 20
-272.9106836
 30
0.0
 40
4.0893164
100
AcDbArc
 50
235.61575253
 51
304.38424747
  0
LINE
  5
108
100
AcDbEntity
  8
D-STR
  6
CONTINUOUS
 62
       1
100
AcDbLine
 10
-295.39708227
 20
-277.0
 30
0.0
 11
-279.39708227
 21
-277.0
 31
0.0
  0
LINE
  5
109
100
AcDbEntity
  8
D-STR
  6
CONTINUOUS
 62
       1
100
AcDbLine
 10
-295.39708227
 20
-277.0
 30
0.0
 11
-296.63468657
 21
-276.28546882
 31
0.0
  0
LINE
  5
10A
100
AcDbEntity
  8
D-STR
  6
CONTINUOUS
 62
       1
100
AcDbLine
 10
-279.39708227
 20
-277.0
 30
0.0
 11
-278.15947796
 21
-276.28546882
 31
0.0
  0
LINE
  5
10B
100
AcDbEntity
  8
D-BMK
  6
CENTER
 62
       2
100
AcDbLine
 10
-287.39708227
 20
-272.0
 30
0.0
 11
-287.39708227
 21
-277.0
 31
0.0
  0
ENDBLK
  5
10C
100
AcDbEntity
  8
0
100
AcDbBlockEnd
  0
BLOCK
  5
10D
100
AcDbEntity
  8
0
100
AcDbBlockBegin
  2
GROUP_10
 70
       0
 10
0.0
 20
0.0
 30
0.0
  3
GROUP_10
  1

  0
LINE
  5
10E
100
AcDbEntity
  8
D-STR
  6
CONTINUOUS
 62
       1
100
AcDbLine
 10
-266.37486827
 20
-271.0
 30
0.0
 11
-248.37486827
 21
-271.0
 31
0.0
  0
LINE
  5
10F
100
AcDbEntity
  8
D-STR
  6
CONTINUOUS
 62
       1
100
AcDbLine
 10
-246.98256342
 20
-276.19615242
 30
0.0
 11
-246.98256342
 21
-271.80384758
 31
0.0
  0
LINE
  5
110
100
AcDbEntity
  8
D-STR
  6
CONTINUOUS
 62
       1
100
AcDbLine
 10
-267.76717311
 20
-276.19615242
 30
0.0
 11
-267.76717311
 21
-271.80384758
 31
0.0
  0
LINE
  5
111
100
AcDbEntity
  8
D-STR
  6
CONTINUOUS
 62
       1
100
AcDbLine
 10
-266.37486827
 20
-271.0
 30
0.0
 11
-267.76717311
 21
-271.80384758
 31
0.0
  0
LINE
  5
112
100
AcDbEntity
  8
D-STR
  6
CONTINUOUS
 62
       1
100
AcDbLine
 10
-248.37486827
 20
-271.0
 30
0.0
 11
-246.98256342
 21
-271.80384758
 31
0.0
  0
ARC
  5
113
100
AcDbEntity
  8
D-STR
  6
CONTINUOUS
 62
       1
100
AcDbCircle
 10
-257.37486827
 20
-288.19615242
 30
0.0
 40
17.19615242
100
AcDbArc
 50
72.41204623
 51
107.58795377
  0
LINE
  5
114
100
AcDbEntity
  8
D-STR
  6
CONTINUOUS
 62
       1
100
AcDbLine
 10
-252.17871585
 20
-276.19615242
 30
0.0
 11
-252.17871585
 21
-271.80384758
 31
0.0
  0
LINE
  5
115
100
AcDbEntity
  8
D-STR
  6
CONTINUOUS
 62
       1
100
AcDbLine
 10
-262.57102069
 20
-276.19615242
 30
0.0
 11
-262.57102069
 21
-271.80384758
 31
0.0
  0
ARC
  5
116
100
AcDbEntity
  8
D-STR
  6
CONTINUOUS
 62
       1
100
AcDbCircle
 10
-265.1690969
 20
-275.60048095
 30
0.0
 40
4.60048095
100
AcDbArc
 50
55.61575253
 51
124.38424747
  0
ARC
  5
117
100
AcDbEntity
  8
D-STR
  6
CONTINUOUS
 62
       1
100
AcDbCircle
 10
-249.58063963
 20
-275.60048095
 30
0.0
 40
4.60048095
100
AcDbArc
 50
55.61575253
 51
124.38424747
  0
ARC
  5
118
100
AcDbEntity
  8
D-STR
  6
CONTINUOUS
 62
       1
100
AcDbCircle
 10
-257.37486827
 20
-259.80384758
 30
0.0
 40
17.19615242
100
AcDbArc
 50
252.41204623
 51
287.58795377
  0
ARC
  5
119
100
AcDbEntity
  8
D-STR
  6
CONTINUOUS
 62
       1
100
AcDbCircle
 10
-265.1690969
 20
-272.39951905
 30
0.0
 40
4.60048095
100
AcDbArc
 50
235.61575253
 51
304.38424747
  0
ARC
  5
11A
100
AcDbEntity
  8
D-STR
  6
CONTINUOUS
 62
       1
100
AcDbCircle
 10
-249.58063963
 20
-272.39951905
 30
0.0
 40
4.60048095
100
AcDbArc
 50
235.61575253
 51
304.38424747
  0
LINE
  5
11B
100
AcDbEntity
  8
D-STR
  6
CONTINUOUS
 62
       1
100
AcDbLine
 10
-266.37486827
 20
-277.0
 30
0.0
 11
-248.37486827
 21
-277.0
 31
0.0
  0
LINE
  5
11C
100
AcDbEntity
  8
D-STR
  6
CONTINUOUS
 62
       1
100
AcDbLine
 10
-266.37486827
 20
-277.0
 30
0.0
 11
-267.76717311
 21
-276.19615242
 31
0.0
  0
LINE
  5
11D
100
AcDbEntity
  8
D-STR
  6
CONTINUOUS
 62
       1
100
AcDbLine
 10
-248.37486827
 20
-277.0
 30
0.0
 11
-246.98256342
 21
-276.19615242
 31
0.0
  0
LINE
  5
11E
100
AcDbEntity
  8
D-BMK
  6
CENTER
 62
       2
100
AcDbLine
 10
-257.37486827
 20
-271.0
 30
0.0
 11
-257.37486827
 21
-277.0
 31
0.0
  0
ENDBLK
  5
11F
100
AcDbEntity
  8
0
100
AcDbBlockEnd
  0
BLOCK
  5
120
100
AcDbEntity
  8
0
100
AcDbBlockBegin
  2
GROUP_11
 70
       0
 10
0.0
 20
0.0
 30
0.0
  3
GROUP_11
  1

  0
LINE
  5
121
100
AcDbEntity
  8
D-STR
  6
CONTINUOUS
 62
       1
100
AcDbLine
 10
-231.2697505
 20
-269.0
 30
0.0
 11
-207.2697505
 21
-269.0
 31
0.0
  0
LINE
  5
122
100
AcDbEntity
  8
D-STR
  6
CONTINUOUS
 62
       1
100
AcDbLine
 10
-205.41334404
 20
-275.92820323
 30
0.0
 11
-205.41334404
 21
-270.07179677
 31
0.0
  0
LINE
  5
123
100
AcDbEntity
  8
D-STR
  6
CONTINUOUS
 62
       1
100
AcDbLine
 10
-233.12615696
 20
-275.92820323
 30
0.0
 11
-233.12615696
 21
-270.07179677
 31
0.0
  0
LINE
  5
124
100
AcDbEntity
  8
D-STR
  6
CONTINUOUS
 62
       1
100
AcDbLine
 10
-231.2697505
 20
-269.0
 30
0.0
 11
-233.12615696
 21
-270.07179677
 31
0.0
  0
LINE
  5
125
100
AcDbEntity
  8
D-STR
  6
CONTINUOUS
 62
       1
100
AcDbLine
 10
-207.2697505
 20
-269.0
 30
0.0
 11
-205.41334404
 21
-270.07179677
 31
0.0
  0
ARC
  5
126
100
AcDbEntity
  8
D-STR
  6
CONTINUOUS
 62
       1
100
AcDbCircle
 10
-219.2697505
 20
-291.92820323
 30
0.0
 40
22.92820323
100
AcDbArc
 50
72.41204623
 51
107.58795377
  0
LINE
  5
127
100
AcDbEntity
  8
D-STR
  6
CONTINUOUS
 62
       1
100
AcDbLine
 10
-212.34154727
 20
-275.92820323
 30
0.0
 11
-212.34154727
 21
-270.07179677
 31
0.0
  0
LINE
  5
128
100
AcDbEntity
  8
D-STR
  6
CONTINUOUS
 62
       1
100
AcDbLine
 10
-226.19795373
 20
-275.92820323
 30
0.0
 11
-226.19795373
 21
-270.07179677
 31
0.0
  0
ARC
  5
129
100
AcDbEntity
  8
D-STR
  6
CONTINUOUS
 62
       1
100
AcDbCircle
 10
-229.66205535
 20
-275.1339746
 30
0.0
 40
6.1339746
100
AcDbArc
 50
55.61575253
 51
124.38424747
  0
ARC
  5
12A
100
AcDbEntity
  8
D-STR
  6
CONTINUOUS
 62
       1
100
AcDbCircle
 10
-208.87744566
 20
-275.1339746
 30
0.0
 40
6.1339746
100
AcDbArc
 50
55.61575253
 51
124.38424747
  0
ARC
  5
12B
100
AcDbEntity
  8
D-STR
  6
CONTINUOUS
 62
       1
100
AcDbCircle
 10
-229.66205535
 20
-270.8660254
 30
0.0
 40
6.1339746
100
AcDbArc
 50
235.61575253
 51
304.38424747
  0
ARC
  5
12C
100
AcDbEntity
  8
D-STR
  6
CONTINUOUS
 62
       1
100
AcDbCircle
 10
-219.2697505
 20
-254.07179677
 30
0.0
 40
22.92820323
100
AcDbArc
 50
252.41204623
 51
287.58795377
  0
ARC
  5
12D
100
AcDbEntity
  8
D-STR
  6
CONTINUOUS
 62
       1
100
AcDbCircle
 10
-208.87744566
 20
-270.8660254
 30
0.0
 40
6.1339746
100
AcDbArc
 50
235.61575253
 51
304.38424747
  0
LINE
  5
12E
100
AcDbEntity
  8
D-STR
  6
CONTINUOUS
 62
       1
100
AcDbLine
 10
-231.2697505
 20
-277.0
 30
0.0
 11
-207.2697505
 21
-277.0
 31
0.0
  0
LINE
  5
12F
100
AcDbEntity
  8
D-STR
  6
CONTINUOUS
 62
       1
100
AcDbLine
 10
-231.2697505
 20
-277.0
 30
0.0
 11
-233.12615696
 21
-275.92820323
 31
0.0
  0
LINE
  5
130
100
AcDbEntity
  8
D-STR
  6
CONTINUOUS
 62
       1
100
AcDbLine
 10
-207.2697505
 20
-277.0
 30
0.0
 11
-205.41334404
 21
-275.92820323
 31
0.0
  0
LINE
  5
131
100
AcDbEntity
  8
D-BMK
  6
CENTER
 62
       2
100
AcDbLine
 10
-219.2697505
 20
-269.0
 30
0.0
 11
-219.2697505
 21
-277.0
 31
0.0
  0
ENDBLK
  5
132
100
AcDbEntity
  8
0
100
AcDbBlockEnd
  0
BLOCK
  5
133
100
AcDbEntity
  8
0
100
AcDbBlockBegin
  2
GROUP_12
 70
       0
 10
0.0
 20
0.0
 30
0.0
  3
GROUP_12
  1

  0
LINE
  5
134
100
AcDbEntity
  8
D-STR
  6
CONTINUOUS
 62
       1
100
AcDbLine
 10
-185.77232789
 20
-267.0
 30
0.0
 11
-155.77232789
 21
-267.0
 31
0.0
  0
LINE
  5
135
100
AcDbEntity
  8
D-STR
  6
CONTINUOUS
 62
       1
100
AcDbLine
 10
-153.45181981
 20
-275.66025404
 30
0.0
 11
-153.45181981
 21
-268.33974596
 31
0.0
  0
LINE
  5
136
100
AcDbEntity
  8
D-STR
  6
CONTINUOUS
 62
       1
100
AcDbLine
 10
-188.09283597
 20
-275.66025404
 30
0.0
 11
-188.09283597
 21
-268.33974596
 31
0.0
  0
LINE
  5
137
100
AcDbEntity
  8
D-STR
  6
CONTINUOUS
 62
       1
100
AcDbLine
 10
-185.77232789
 20
-267.0
 30
0.0
 11
-188.09283597
 21
-268.33974596
 31
0.0
  0
LINE
  5
138
100
AcDbEntity
  8
D-STR
  6
CONTINUOUS
 62
       1
100
AcDbLine
 10
-155.77232789
 20
-267.0
 30
0.0
 11
-153.45181981
 21
-268.33974596
 31
0.0
  0
ARC
  5
139
100
AcDbEntity
  8
D-STR
  6
CONTINUOUS
 62
       1
100
AcDbCircle
 10
-170.77232789
 20
-295.66025404
 30
0.0
 40
28.66025404
100
AcDbArc
 50
72.41204623
 51
107.58795377
  0
LINE
  5
13A
100
AcDbEntity
  8
D-STR
  6
CONTINUOUS
 62
       1
100
AcDbLine
 10
-162.11207385
 20
-275.66025404
 30
0.0
 11
-162.11207385
 21
-268.33974596
 31
0.0
  0
LINE
  5
13B
100
AcDbEntity
  8
D-STR
  6
CONTINUOUS
 62
       1
100
AcDbLine
 10
-179.43258193
 20
-275.66025404
 30
0.0
 11
-179.43258193
 21
-268.33974596
 31
0.0
  0
ARC
  5
13C
100
AcDbEntity
  8
D-STR
  6
CONTINUOUS
 62
       1
100
AcDbCircle
 10
-183.76270895
 20
-274.66746825
 30
0.0
 40
7.66746825
100
AcDbArc
 50
55.61575253
 51
124.38424747
  0
ARC
  5
13D
100
AcDbEntity
  8
D-STR
  6
CONTINUOUS
 62
       1
100
AcDbCircle
 10
-157.78194683
 20
-274.66746825
 30
0.0
 40
7.66746825
100
AcDbArc
 50
55.61575253
 51
124.38424747
  0
ARC
  5
13E
100
AcDbEntity
  8
D-STR
  6
CONTINUOUS
 62
       1
100
AcDbCircle
 10
-170.77232789
 20
-248.33974596
 30
0.0
 40
28.66025404
100
AcDbArc
 50
252.41204623
 51
287.58795377
  0
ARC
  5
13F
100
AcDbEntity
  8
D-STR
  6
CONTINUOUS
 62
       1
100
AcDbCircle
 10
-183.76270895
 20
-269.33253175
 30
0.0
 40
7.66746825
100
AcDbArc
 50
235.61575253
 51
304.38424747
  0
ARC
  5
140
100
AcDbEntity
  8
D-STR
  6
CONTINUOUS
 62
       1
100
AcDbCircle
 10
-157.78194683
 20
-269.33253175
 30
0.0
 40
7.66746825
100
AcDbArc
 50
235.61575253
 51
304.38424747
  0
LINE
  5
141
100
AcDbEntity
  8
D-STR
  6
CONTINUOUS
 62
       1
100
AcDbLine
 10
-185.77232789
 20
-277.0
 30
0.0
 11
-155.77232789
 21
-277.0
 31
0.0
  0
LINE
  5
142
100
AcDbEntity
  8
D-STR
  6
CONTINUOUS
 62
       1
100
AcDbLine
 10
-185.77232789
 20
-277.0
 30
0.0
 11
-188.09283597
 21
-275.66025404
 31
0.0
  0
LINE
  5
143
100
AcDbEntity
  8
D-STR
  6
CONTINUOUS
 62
       1
100
AcDbLine
 10
-155.77232789
 20
-277.0
 30
0.0
 11
-153.45181981
 21
-275.66025404
 31
0.0
  0
LINE
  5
144
100
AcDbEntity
  8
D-BMK
  6
CENTER
 62
       2
100
AcDbLine
 10
-170.77232789
 20
-267.0
 30
0.0
 11
-170.77232789
 21
-277.0
 31
0.0
  0
ENDBLK
  5
145
100
AcDbEntity
  8
0
100
AcDbBlockEnd
  0
BLOCK
  5
146
100
AcDbEntity
  8
0
100
AcDbBlockBegin
  2
GROUP_13
 70
       0
 10
0.0
 20
0.0
 30
0.0
  3
GROUP_13
  1

  0
LINE
  5
147
100
AcDbEntity
  8
D-STR
  6
CONTINUOUS
 62
       1
100
AcDbLine
 10
-367.47799968
 20
67.0
 30
0.0
 11
-331.47799968
 21
67.0
 31
0.0
  0
LINE
  5
148
100
AcDbEntity
  8
D-STR
  6
CONTINUOUS
 62
       1
100
AcDbLine
 10
-328.69338999
 20
56.60769515
 30
0.0
 11
-328.69338999
 21
65.39230485
 31
0.0
  0
LINE
  5
149
100
AcDbEntity
  8
D-STR
  6
CONTINUOUS
 62
       1
100
AcDbLine
 10
-370.26260937
 20
56.60769515
 30
0.0
 11
-370.26260937
 21
65.39230485
 31
0.0
  0
LINE
  5
14A
100
AcDbEntity
  8
D-STR
  6
CONTINUOUS
 62
       1
100
AcDbLine
 10
-367.47799968
 20
67.0
 30
0.0
 11
-370.26260937
 21
65.39230485
 31
0.0
  0
LINE
  5
14B
100
AcDbEntity
  8
D-STR
  6
CONTINUOUS
 62
       1
100
AcDbLine
 10
-331.47799968
 20
67.0
 30
0.0
 11
-328.69338999
 21
65.39230485
 31
0.0
  0
ARC
  5
14C
100
AcDbEntity
  8
D-STR
  6
CONTINUOUS
 62
       1
100
AcDbCircle
 10
-349.47799968
 20
32.60769515
 30
0.0
 40
34.39230485
100
AcDbArc
 50
72.41204623
 51
107.58795377
  0
LINE
  5
14D
100
AcDbEntity
  8
D-STR
  6
CONTINUOUS
 62
       1
100
AcDbLine
 10
-339.08569483
 20
56.60769515
 30
0.0
 11
-339.08569483
 21
65.39230485
 31
0.0
  0
LINE
  5
14E
100
AcDbEntity
  8
D-STR
  6
CONTINUOUS
 62
       1
100
AcDbLine
 10
-359.87030452
 20
56.60769515
 30
0.0
 11
-359.87030452
 21
65.39230485
 31
0.0
  0
ARC
  5
14F
100
AcDbEntity
  8
D-STR
  6
CONTINUOUS
 62
       1
100
AcDbCircle
 10
-365.06645695
 20
57.79903811
 30
0.0
 40
9.20096189
100
AcDbArc
 50
55.61575253
 51
124.38424747
  0
ARC
  5
150
100
AcDbEntity
  8
D-STR
  6
CONTINUOUS
 62
       1
100
AcDbCircle
 10
-333.88954241
 20
57.79903811
 30
0.0
 40
9.20096189
100
AcDbArc
 50
55.61575253
 51
124.38424747
  0
ARC
  5
151
100
AcDbEntity
  8
D-STR
  6
CONTINUOUS
 62
       1
100
AcDbCircle
 10
-349.47799968
 20
89.39230485
 30
0.0
 40
34.39230485
100
AcDbArc
 50
252.41204623
 51
287.58795377
  0
ARC
  5
152
100
AcDbEntity
  8
D-STR
  6
CONTINUOUS
 62
       1
100
AcDbCircle
 10
-365.06645695
 20
64.20096189
 30
0.0
 40
9.20096189
100
AcDbArc
 50
235.61575253
 51
304.38424747
  0
ARC
  5
153
100
AcDbEntity
  8
D-STR
  6
CONTINUOUS
 62
       1
100
AcDbCircle
 10
-333.88954241
 20
64.20096189
 30
0.0
 40
9.20096189
100
AcDbArc
 50
235.61575253
 51
304.38424747
  0
LINE
  5
154
100
AcDbEntity
  8
D-STR
  6
CONTINUOUS
 62
       1
100
AcDbLine
 10
-367.47799968
 20
55.0
 30
0.0
 11
-331.47799968
 21
55.0
 31
0.0
  0
LINE
  5
155
100
AcDbEntity
  8
D-STR
  6
CONTINUOUS
 62
       1
100
AcDbLine
 10
-367.47799968
 20
55.0
 30
0.0
 11
-370.26260937
 21
56.60769515
 31
0.0
  0
LINE
  5
156
100
AcDbEntity
  8
D-STR
  6
CONTINUOUS
 62
       1
100
AcDbLine
 10
-331.47799968
 20
55.0
 30
0.0
 11
-328.69338999
 21
56.60769515
 31
0.0
  0
LINE
  5
157
100
AcDbEntity
  8
D-BMK
  6
CENTER
 62
       2
100
AcDbLine
 10
-349.47799968
 20
67.0
 30
0.0
 11
-349.47799968
 21
55.0
 31
0.0
  0
ENDBLK
  5
158
100
AcDbEntity
  8
0
100
AcDbBlockEnd
  0
BLOCK
  5
159
100
AcDbEntity
  8
0
100
AcDbBlockBegin
  2
GROUP_14
 70
       0
 10
0.0
 20
0.0
 30
0.0
  3
GROUP_14
  1

  0
LINE
  5
15A
100
AcDbEntity
  8
D-STR
  6
CONTINUOUS
 62
       1
100
AcDbLine
 10
-298.57716522
 20
70.0
 30
0.0
 11
-252.57716522
 21
70.0
 31
0.0
  0
LINE
  5
15B
100
AcDbEntity
  8
D-STR
  6
CONTINUOUS
 62
       1
100
AcDbLine
 10
-249.01905284
 20
57.05427714
 30
0.0
 11
-249.01905284
 21
67.94572286
 31
0.0
  0
LINE
  5
15C
100
AcDbEntity
  8
D-STR
  6
CONTINUOUS
 62
       1
100
AcDbLine
 10
-302.1352776
 20
57.05427714
 30
0.0
 11
-302.1352776
 21
67.94572286
 31
0.0
  0
LINE
  5
15D
100
AcDbEntity
  8
D-STR
  6
CONTINUOUS
 62
       1
100
AcDbLine
 10
-298.57716522
 20
70.0
 30
0.0
 11
-302.1352776
 21
67.94572286
 31
0.0
  0
LINE
  5
15E
100
AcDbEntity
  8
D-STR
  6
CONTINUOUS
 62
       1
100
AcDbLine
 10
-252.57716522
 20
70.0
 30
0.0
 11
-249.01905284
 21
67.94572286
 31
0.0
  0
ARC
  5
15F
100
AcDbEntity
  8
D-STR
  6
CONTINUOUS
 62
       1
100
AcDbCircle
 10
-275.57716522
 20
26.05427714
 30
0.0
 40
43.94572286
100
AcDbArc
 50
72.41204623
 51
107.58795377
  0
LINE
  5
160
100
AcDbEntity
  8
D-STR
  6
CONTINUOUS
 62
       1
100
AcDbLine
 10
-262.29810903
 20
57.05427714
 30
0.0
 11
-262.29810903
 21
67.94572286
 31
0.0
  0
LINE
  5
161
100
AcDbEntity
  8
D-STR
  6
CONTINUOUS
 62
       1
100
AcDbLine
 10
-288.85622141
 20
57.05427714
 30
0.0
 11
-288.85622141
 21
67.94572286
 31
0.0
  0
ARC
  5
162
100
AcDbEntity
  8
D-STR
  6
CONTINUOUS
 62
       1
100
AcDbCircle
 10
-295.49574951
 20
58.24321536
 30
0.0
 40
11.75678464
100
AcDbArc
 50
55.61575253
 51
124.38424747
  0
ARC
  5
163
100
AcDbEntity
  8
D-STR
  6
CONTINUOUS
 62
       1
100
AcDbCircle
 10
-255.65858093
 20
58.24321536
 30
0.0
 40
11.75678464
100
AcDbArc
 50
55.61575253
 51
124.38424747
  0
ARC
  5
164
100
AcDbEntity
  8
D-STR
  6
CONTINUOUS
 62
       1
100
AcDbCircle
 10
-275.57716522
 20
98.94572286
 30
0.0
 40
43.94572286
100
AcDbArc
 50
252.41204623
 51
287.58795377
  0
ARC
  5
165
100
AcDbEntity
  8
D-STR
  6
CONTINUOUS
 62
       1
100
AcDbCircle
 10
-295.49574951
 20
66.75678464
 30
0.0
 40
11.75678464
100
AcDbArc
 50
235.61575253
 51
304.38424747
  0
ARC
  5
166
100
AcDbEntity
  8
D-STR
  6
CONTINUOUS
 62
       1
100
AcDbCircle
 10
-255.65858093
 20
66.75678464
 30
0.0
 40
11.75678464
100
AcDbArc
 50
235.61575253
 51
304.38424747
  0
LINE
  5
167
100
AcDbEntity
  8
D-STR
  6
CONTINUOUS
 62
       1
100
AcDbLine
 10
-298.57716522
 20
55.0
 30
0.0
 11
-252.57716522
 21
55.0
 31
0.0
  0
LINE
  5
168
100
AcDbEntity
  8
D-STR
  6
CONTINUOUS
 62
       1
100
AcDbLine
 10
-298.57716522
 20
55.0
 30
0.0
 11
-302.1352776
 21
57.05427714
 31
0.0
  0
LINE
  5
169
100
AcDbEntity
  8
D-STR
  6
CONTINUOUS
 62
       1
100
AcDbLine
 10
-252.57716522
 20
55.0
 30
0.0
 11
-249.01905284
 21
57.05427714
 31
0.0
  0
LINE
  5
16A
100
AcDbEntity
  8
D-BMK
  6
CENTER
 62
       2
100
AcDbLine
 10
-275.57716522
 20
70.0
 30
0.0
 11
-275.57716522
 21
55.0
 31
0.0
  0
ENDBLK
  5
16B
100
AcDbEntity
  8
0
100
AcDbBlockEnd
  0
BLOCK
  5
16C
100
AcDbEntity
  8
0
100
AcDbBlockBegin
  2
GROUP_15
 70
       0
 10
0.0
 20
0.0
 30
0.0
  3
GROUP_15
  1

  0
LINE
  5
16D
100
AcDbEntity
  8
D-STR
  6
CONTINUOUS
 62
       1
100
AcDbLine
 10
-213.01052323
 20
73.0
 30
0.0
 11
-158.01052323
 21
73.0
 31
0.0
  0
LINE
  5
16E
100
AcDbEntity
  8
D-STR
  6
CONTINUOUS
 62
       1
100
AcDbLine
 10
-153.75625842
 20
57.45620093
 30
0.0
 11
-153.75625842
 21
70.54379907
 31
0.0
  0
LINE
  5
16F
100
AcDbEntity
  8
D-STR
  6
CONTINUOUS
 62
       1
100
AcDbLine
 10
-217.26478803
 20
57.45620093
 30
0.0
 11
-217.26478803
 21
70.54379907
 31
0.0
  0
LINE
  5
170
100
AcDbEntity
  8
D-STR
  6
CONTINUOUS
 62
       1
100
AcDbLine
 10
-213.01052323
 20
73.0
 30
0.0
 11
-217.26478803
 21
70.54379907
 31
0.0
  0
LINE
  5
171
100
AcDbEntity
  8
D-STR
  6
CONTINUOUS
 62
       1
100
AcDbLine
 10
-158.01052323
 20
73.0
 30
0.0
 11
-153.75625842
 21
70.54379907
 31
0.0
  0
ARC
  5
172
100
AcDbEntity
  8
D-STR
  6
CONTINUOUS
 62
       1
100
AcDbCircle
 10
-185.51052323
 20
20.45620093
 30
0.0
 40
52.54379907
100
AcDbArc
 50
72.41204623
 51
107.58795377
  0
LINE
  5
173
100
AcDbEntity
  8
D-STR
  6
CONTINUOUS
 62
       1
100
AcDbLine
 10
-169.63339082
 20
57.45620093
 30
0.0
 11
-169.63339082
 21
70.54379907
 31
0.0
  0
LINE
  5
174
100
AcDbEntity
  8
D-STR
  6
CONTINUOUS
 62
       1
100
AcDbLine
 10
-201.38765563
 20
57.45620093
 30
0.0
 11
-201.38765563
 21
70.54379907
 31
0.0
  0
ARC
  5
175
100
AcDbEntity
  8
D-STR
  6
CONTINUOUS
 62
       1
100
AcDbCircle
 10
-209.32622183
 20
58.94297488
 30
0.0
 40
14.05702512
100
AcDbArc
 50
55.61575253
 51
124.38424747
  0
ARC
  5
176
100
AcDbEntity
  8
D-STR
  6
CONTINUOUS
 62
       1
100
AcDbCircle
 10
-161.69482462
 20
58.94297488
 30
0.0
 40
14.05702512
100
AcDbArc
 50
55.61575253
 51
124.38424747
  0
ARC
  5
177
100
AcDbEntity
  8
D-STR
  6
CONTINUOUS
 62
       1
100
AcDbCircle
 10
-185.51052323
 20
107.54379907
 30
0.0
 40
52.54379907
100
AcDbArc
 50
252.41204623
 51
287.58795377
  0
ARC
  5
178
100
AcDbEntity
  8
D-STR
  6
CONTINUOUS
 62
       1
100
AcDbCircle
 10
-209.32622183
 20
69.05702512
 30
0.0
 40
14.05702512
100
AcDbArc
 50
235.61575253
 51
304.38424747
  0
ARC
  5
179
100
AcDbEntity
  8
D-STR
  6
CONTINUOUS
 62
       1
100
AcDbCircle
 10
-161.69482462
 20
69.05702512
 30
0.0
 40
14.05702512
100
AcDbArc
 50
235.61575253
 51
304.38424747
  0
LINE
  5
17A
100
AcDbEntity
  8
D-STR
  6
CONTINUOUS
 62
       1
100
AcDbLine
 10
-213.01052323
 20
55.0
 30
0.0
 11
-158.01052323
 21
55.0
 31
0.0
  0
LINE
  5
17B
100
AcDbEntity
  8
D-STR
  6
CONTINUOUS
 62
       1
100
AcDbLine
 10
-213.01052323
 20
55.0
 30
0.0
 11
-217.26478803
 21
57.45620093
 31
0.0
  0
LINE
  5
17C
100
AcDbEntity
  8
D-STR
  6
CONTINUOUS
 62
       1
100
AcDbLine
 10
-158.01052323
 20
55.0
 30
0.0
 11
-153.75625842
 21
57.45620093
 31
0.0
  0
LINE
  5
17D
100
AcDbEntity
  8
D-BMK
  6
CENTER
 62
       2
100
AcDbLine
 10
-185.51052323
 20
73.0
 30
0.0
 11
-185.51052323
 21
55.0
 31
0.0
  0
ENDBLK
  5
17E
100
AcDbEntity
  8
0
100
AcDbBlockEnd
  0
BLOCK
  5
17F
100
AcDbEntity
  8
0
100
AcDbBlockBegin
  2
GROUP_16
 70
       0
 10
0.0
 20
0.0
 30
0.0
  3
GROUP_16
  1

  0
LINE
  5
180
100
AcDbEntity
  8
D-STR
  6
CONTINUOUS
 62
       1
100
AcDbLine
 10
-111.20072343
 20
76.0
 30
0.0
 11
-46.20072343
 21
76.0
 31
0.0
  0
LINE
  5
181
100
AcDbEntity
  8
D-STR
  6
CONTINUOUS
 62
       1
100
AcDbLine
 10
-41.17295593
 20
57.90278292
 30
0.0
 11
-41.17295593
 21
73.09721708
 31
0.0
  0
LINE
  5
182
100
AcDbEntity
  8
D-STR
  6
CONTINUOUS
 62
       1
100
AcDbLine
 10
-116.22849092
 20
57.90278292
 30
0.0
 11
-116.22849092
 21
73.09721708
 31
0.0
  0
LINE
  5
183
100
AcDbEntity
  8
D-STR
  6
CONTINUOUS
 62
       1
100
AcDbLine
 10
-111.20072343
 20
76.0
 30
0.0
 11
-116.22849092
 21
73.09721708
 31
0.0
  0
LINE
  5
184
100
AcDbEntity
  8
D-STR
  6
CONTINUOUS
 62
       1
100
AcDbLine
 10
-46.20072343
 20
76.0
 30
0.0
 11
-41.17295593
 21
73.09721708
 31
0.0
  0
ARC
  5
185
100
AcDbEntity
  8
D-STR
  6
CONTINUOUS
 62
       1
100
AcDbCircle
 10
-78.70072343
 20
13.90278292
 30
0.0
 40
62.09721708
100
AcDbArc
 50
72.41204623
 51
107.58795377
  0
LINE
  5
186
100
AcDbEntity
  8
D-STR
  6
CONTINUOUS
 62
       1
100
AcDbLine
 10
-59.93683968
 20
57.90278292
 30
0.0
 11
-59.93683968
 21
73.09721708
 31
0.0
  0
LINE
  5
187
100
AcDbEntity
  8
D-STR
  6
CONTINUOUS
 62
       1
100
AcDbLine
 10
-97.46460718
 20
57.90278292
 30
0.0
 11
-97.46460718
 21
73.09721708
 31
0.0
  0
ARC
  5
188
100
AcDbEntity
  8
D-STR
  6
CONTINUOUS
 62
       1
100
AcDbCircle
 10
-106.84654905
 20
59.38715214
 30
0.0
 40
16.61284786
100
AcDbArc
 50
55.61575253
 51
124.38424747
  0
ARC
  5
189
100
AcDbEntity
  8
D-STR
  6
CONTINUOUS
 62
       1
100
AcDbCircle
 10
-50.5548978
 20
59.38715214
 30
0.0
 40
16.61284786
100
AcDbArc
 50
55.61575253
 51
124.38424747
  0
ARC
  5
18A
100
AcDbEntity
  8
D-STR
  6
CONTINUOUS
 62
       1
100
AcDbCircle
 10
-78.70072343
 20
117.09721708
 30
0.0
 40
62.09721708
100
AcDbArc
 50
252.41204623
 51
287.58795377
  0
ARC
  5
18B
100
AcDbEntity
  8
D-STR
  6
CONTINUOUS
 62
       1
100
AcDbCircle
 10
-106.84654905
 20
71.61284786
 30
0.0
 40
16.61284786
100
AcDbArc
 50
235.61575253
 51
304.38424747
  0
ARC
  5
18C
100
AcDbEntity
  8
D-STR
  6
CONTINUOUS
 62
       1
100
AcDbCircle
 10
-50.5548978
 20
71.61284786
 30
0.0
 40
16.61284786
100
AcDbArc
 50
235.61575253
 51
304.38424747
  0
LINE
  5
18D
100
AcDbEntity
  8
D-STR
  6
CONTINUOUS
 62
       1
100
AcDbLine
 10
-111.20072343
 20
55.0
 30
0.0
 11
-46.20072343
 21
55.0
 31
0.0
  0
LINE
  5
18E
100
AcDbEntity
  8
D-STR
  6
CONTINUOUS
 62
       1
100
AcDbLine
 10
-111.20072343
 20
55.0
 30
0.0
 11
-116.22849092
 21
57.90278292
 31
0.0
  0
LINE
  5
18F
100
AcDbEntity
  8
D-STR
  6
CONTINUOUS
 62
       1
100
AcDbLine
 10
-46.20072343
 20
55.0
 30
0.0
 11
-41.17295593
 21
57.90278292
 31
0.0
  0
LINE
  5
190
100
AcDbEntity
  8
D-BMK
  6
CENTER
 62
       2
100
AcDbLine
 10
-78.70072343
 20
76.0
 30
0.0
 11
-78.70072343
 21
55.0
 31
0.0
  0
ENDBLK
  5
191
100
AcDbEntity
  8
0
100
AcDbBlockEnd
  0
BLOCK
  5
192
100
AcDbEntity
  8
0
100
AcDbBlockBegin
  2
GROUP_17
 70
       0
 10
0.0
 20
0.0
 30
0.0
  3
GROUP_17
  1

  0
LINE
  5
193
100
AcDbEntity
  8
D-STR
  6
CONTINUOUS
 62
       1
100
AcDbLine
 10
7.92958445
 20
79.0
 30
0.0
 11
82.92958445
 21
79.0
 31
0.0
  0
LINE
  5
194
100
AcDbEntity
  8
D-STR
  6
CONTINUOUS
 62
       1
100
AcDbLine
 10
88.73085464
 20
58.34936491
 30
0.0
 11
88.73085464
 21
75.65063509
 31
0.0
  0
LINE
  5
195
100
AcDbEntity
  8
D-STR
  6
CONTINUOUS
 62
       1
100
AcDbLine
 10
2.12831426
 20
58.34936491
 30
0.0
 11
2.12831426
 21
75.65063509
 31
0.0
  0
LINE
  5
196
100
AcDbEntity
  8
D-STR
  6
CONTINUOUS
 62
       1
100
AcDbLine
 10
7.92958445
 20
79.0
 30
0.0
 11
2.12831426
 21
75.65063509
 31
0.0
  0
LINE
  5
197
100
AcDbEntity
  8
D-STR
  6
CONTINUOUS
 62
       1
100
AcDbLine
 10
82.92958445
 20
79.0
 30
0.0
 11
88.73085464
 21
75.65063509
 31
0.0
  0
ARC
  5
198
100
AcDbEntity
  8
D-STR
  6
CONTINUOUS
 62
       1
100
AcDbCircle
 10
45.42958445
 20
7.34936491
 30
0.0
 40
71.65063509
100
AcDbArc
 50
72.41204623
 51
107.58795377
  0
LINE
  5
199
100
AcDbEntity
  8
D-STR
  6
CONTINUOUS
 62
       1
100
AcDbLine
 10
67.08021954
 20
58.34936491
 30
0.0
 11
67.08021954
 21
75.65063509
 31
0.0
  0
LINE
  5
19A
100
AcDbEntity
  8
D-STR
  6
CONTINUOUS
 62
       1
100
AcDbLine
 10
23.77894935
 20
58.34936491
 30
0.0
 11
23.77894935
 21
75.65063509
 31
0.0
  0
ARC
  5
19B
100
AcDbEntity
  8
D-STR
  6
CONTINUOUS
 62
       1
100
AcDbCircle
 10
12.95363181
 20
59.83132939
 30
0.0
 40
19.16867061
100
AcDbArc
 50
55.61575253
 51
124.38424747
  0
ARC
  5
19C
100
AcDbEntity
  8
D-STR
  6
CONTINUOUS
 62
       1
100
AcDbCircle
 10
77.90553709
 20
59.83132939
 30
0.0
 40
19.16867061
100
AcDbArc
 50
55.61575253
 51
124.38424747
  0
ARC
  5
19D
100
AcDbEntity
  8
D-STR
  6
CONTINUOUS
 62
       1
100
AcDbCircle
 10
45.42958445
 20
126.65063509
 30
0.0
 40
71.65063509
100
AcDbArc
 50
252.41204623
 51
287.58795377
  0
ARC
  5
19E
100
AcDbEntity
  8
D-STR
  6
CONTINUOUS
 62
       1
100
AcDbCircle
 10
12.95363181
 20
74.16867061
 30
0.0
 40
19.16867061
100
AcDbArc
 50
235.61575253
 51
304.38424747
  0
ARC
  5
19F
100
AcDbEntity
  8
D-STR
  6
CONTINUOUS
 62
       1
100
AcDbCircle
 10
77.90553709
 20
74.16867061
 30
0.0
 40
19.16867061
100
AcDbArc
 50
235.61575253
 51
304.38424747
  0
LINE
  5
1A0
100
AcDbEntity
  8
D-STR
  6
CONTINUOUS
 62
       1
100
AcDbLine
 10
7.92958445
 20
55.0
 30
0.0
 11
82.92958445
 21
55.0
 31
0.0
  0
LINE
  5
1A1
100
AcDbEntity
  8
D-STR
  6
CONTINUOUS
 62
       1
100
AcDbLine
 10
82.92958445
 20
55.0
 30
0.0
 11
88.73085464
 21
58.34936491
 31
0.0
  0
LINE
  5
1A2
100
AcDbEntity
  8
D-STR
  6
CONTINUOUS
 62
       1
100
AcDbLine
 10
7.92958445
 20
55.0
 30
0.0
 11
2.12831426
 21
58.34936491
 31
0.0
  0
LINE
  5
1A3
100
AcDbEntity
  8
D-BMK
  6
CENTER
 62
       2
100
AcDbLine
 10
45.42958445
 20
79.0
 30
0.0
 11
45.42958445
 21
55.0
 31
0.0
  0
ENDBLK
  5
1A4
100
AcDbEntity
  8
0
100
AcDbBlockEnd
  0
BLOCK
  5
1A5
100
AcDbEntity
  8
0
100
AcDbBlockBegin
  2
GROUP_18
 70
       0
 10
0.0
 20
0.0
 30
0.0
  3
GROUP_18
  1

  0
LINE
  5
1A6
100
AcDbEntity
  8
D-STR
  6
CONTINUOUS
 62
       1
100
AcDbLine
 10
144.3804004
 20
83.0
 30
0.0
 11
229.3804004
 21
83.0
 31
0.0
  0
LINE
  5
1A7
100
AcDbEntity
  8
D-STR
  6
CONTINUOUS
 62
       1
100
AcDbLine
 10
235.95517328
 20
58.79594689
 30
0.0
 11
235.95517328
 21
79.20405311
 31
0.0
  0
LINE
  5
1A8
100
AcDbEntity
  8
D-STR
  6
CONTINUOUS
 62
       1
100
AcDbLine
 10
137.80562752
 20
58.79594689
 30
0.0
 11
137.80562752
 21
79.20405311
 31
0.0
  0
LINE
  5
1A9
100
AcDbEntity
  8
D-STR
  6
CONTINUOUS
 62
       1
100
AcDbLine
 10
144.3804004
 20
83.0
 30
0.0
 11
137.80562752
 21
79.20405311
 31
0.0
  0
LINE
  5
1AA
100
AcDbEntity
  8
D-STR
  6
CONTINUOUS
 62
       1
100
AcDbLine
 10
229.3804004
 20
83.0
 30
0.0
 11
235.95517328
 21
79.20405311
 31
0.0
  0
ARC
  5
1AB
100
AcDbEntity
  8
D-STR
  6
CONTINUOUS
 62
       1
100
AcDbCircle
 10
186.8804004
 20
1.79594689
 30
0.0
 40
81.20405311
100
AcDbArc
 50
72.41204623
 51
107.58795377
  0
LINE
  5
1AC
100
AcDbEntity
  8
D-STR
  6
CONTINUOUS
 62
       1
100
AcDbLine
 10
211.41778684
 20
58.79594689
 30
0.0
 11
211.41778684
 21
79.20405311
 31
0.0
  0
LINE
  5
1AD
100
AcDbEntity
  8
D-STR
  6
CONTINUOUS
 62
       1
100
AcDbLine
 10
162.34301396
 20
58.79594689
 30
0.0
 11
162.34301396
 21
79.20405311
 31
0.0
  0
ARC
  5
1AE
100
AcDbEntity
  8
D-STR
  6
CONTINUOUS
 62
       1
100
AcDbCircle
 10
150.07432074
 20
61.27550664
 30
0.0
 40
21.72449336
100
AcDbArc
 50
55.61575253
 51
124.38424747
  0
ARC
  5
1AF
100
AcDbEntity
  8
D-STR
  6
CONTINUOUS
 62
       1
100
AcDbCircle
 10
223.68648006
 20
61.27550664
 30
0.0
 40
21.72449336
100
AcDbArc
 50
55.61575253
 51
124.38424747
  0
ARC
  5
1B0
100
AcDbEntity
  8
D-STR
  6
CONTINUOUS
 62
       1
100
AcDbCircle
 10
186.8804004
 20
136.20405311
 30
0.0
 40
81.20405311
100
AcDbArc
 50
252.41204623
 51
287.58795377
  0
ARC
  5
1B1
100
AcDbEntity
  8
D-STR
  6
CONTINUOUS
 62
       1
100
AcDbCircle
 10
150.07432074
 20
76.72449336
 30
0.0
 40
21.72449336
100
AcDbArc
 50
235.61575253
 51
304.38424747
  0
ARC
  5
1B2
100
AcDbEntity
  8
D-STR
  6
CONTINUOUS
 62
       1
100
AcDbCircle
 10
223.68648006
 20
76.72449336
 30
0.0
 40
21.72449336
100
AcDbArc
 50
235.61575253
 51
304.38424747
  0
LINE
  5
1B3
100
AcDbEntity
  8
D-STR
  6
CONTINUOUS
 62
       1
100
AcDbLine
 10
144.3804004
 20
55.0
 30
0.0
 11
229.3804004
 21
55.0
 31
0.0
  0
LINE
  5
1B4
100
AcDbEntity
  8
D-STR
  6
CONTINUOUS
 62
       1
100
AcDbLine
 10
144.3804004
 20
55.0
 30
0.0
 11
137.80562752
 21
58.79594689
 31
0.0
  0
LINE
  5
1B5
100
AcDbEntity
  8
D-STR
  6
CONTINUOUS
 62
       1
100
AcDbLine
 10
229.3804004
 20
55.0
 30
0.0
 11
235.95517328
 21
58.79594689
 31
0.0
  0
LINE
  5
1B6
100
AcDbEntity
  8
D-BMK
  6
CENTER
 62
       2
100
AcDbLine
 10
186.8804004
 20
83.0
 30
0.0
 11
186.8804004
 21
55.0
 31
0.0
  0
ENDBLK
  5
1B7
100
AcDbEntity
  8
0
100
AcDbBlockEnd
  0
BLOCK
  5
1B8
100
AcDbEntity
  8
0
100
AcDbBlockBegin
  2
GROUP_19
 70
       0
 10
0.0
 20
0.0
 30
0.0
  3
GROUP_19
  1

  0
LINE
  5
1B9
100
AcDbEntity
  8
D-STR
  6
CONTINUOUS
 62
       1
100
AcDbLine
 10
298.15172443
 20
87.0
 30
0.0
 11
393.15172443
 21
87.0
 31
0.0
  0
LINE
  5
1BA
100
AcDbEntity
  8
D-STR
  6
CONTINUOUS
 62
       1
100
AcDbLine
 10
400.5
 20
59.24252888
 30
0.0
 11
400.5
 21
82.75747112
 31
0.0
  0
LINE
  5
1BB
100
AcDbEntity
  8
D-STR
  6
CONTINUOUS
 62
       1
100
AcDbLine
 10
393.15172443
 20
87.0
 30
0.0
 11
400.5
 21
82.75747112
 31
0.0
  0
ARC
  5
1BC
100
AcDbEntity
  8
D-STR
  6
CONTINUOUS
 62
       1
100
AcDbCircle
 10
345.65172443
 20
-3.75747112
 30
0.0
 40
90.75747112
100
AcDbArc
 50
72.41204623
 51
107.58795377
  0
LINE
  5
1BD
100
AcDbEntity
  8
D-STR
  6
CONTINUOUS
 62
       1
100
AcDbLine
 10
373.07586221
 20
59.24252888
 30
0.0
 11
373.07586221
 21
82.75747112
 31
0.0
  0
LINE
  5
1BE
100
AcDbEntity
  8
D-STR
  6
CONTINUOUS
 62
       1
100
AcDbLine
 10
318.22758664
 20
59.24252888
 30
0.0
 11
318.22758664
 21
82.75747112
 31
0.0
  0
ARC
  5
1BF
100
AcDbEntity
  8
D-STR
  6
CONTINUOUS
 62
       1
100
AcDbCircle
 10
386.78793111
 20
62.71968389
 30
0.0
 40
24.28031611
100
AcDbArc
 50
55.61575253
 51
124.38424747
  0
ARC
  5
1C0
100
AcDbEntity
  8
D-STR
  6
CONTINUOUS
 62
       1
100
AcDbCircle
 10
345.65172443
 20
145.75747112
 30
0.0
 40
90.75747112
100
AcDbArc
 50
252.41204623
 51
287.58795377
  0
ARC
  5
1C1
100
AcDbEntity
  8
D-STR
  6
CONTINUOUS
 62
       1
100
AcDbCircle
 10
386.78793111
 20
79.28031611
 30
0.0
 40
24.28031611
100
AcDbArc
 50
235.61575253
 51
304.38424747
  0
LINE
  5
1C2
100
AcDbEntity
  8
D-STR
  6
CONTINUOUS
 62
       1
100
AcDbLine
 10
298.15172443
 20
55.0
 30
0.0
 11
393.15172443
 21
55.0
 31
0.0
  0
LINE
  5
1C3
100
AcDbEntity
  8
D-STR
  6
CONTINUOUS
 62
       1
100
AcDbLine
 10
393.15172443
 20
55.0
 30
0.0
 11
400.5
 21
59.24252888
 31
0.0
  0
LINE
  5
1C4
100
AcDbEntity
  8
D-STR
  6
CONTINUOUS
 62
       1
100
AcDbLine
 10
290.80344885
 20
59.24252888
 30
0.0
 11
290.80344885
 21
82.75747112
 31
0.0
  0
LINE
  5
1C5
100
AcDbEntity
  8
D-STR
  6
CONTINUOUS
 62
       1
100
AcDbLine
 10
298.15172443
 20
87.0
 30
0.0
 11
290.80344885
 21
82.75747112
 31
0.0
  0
ARC
  5
1C6
100
AcDbEntity
  8
D-STR
  6
CONTINUOUS
 62
       1
100
AcDbCircle
 10
304.51551775
 20
62.71968389
 30
0.0
 40
24.28031611
100
AcDbArc
 50
55.61575253
 51
124.38424747
  0
ARC
  5
1C7
100
AcDbEntity
  8
D-STR
  6
CONTINUOUS
 62
       1
100
AcDbCircle
 10
304.51551775
 20
79.28031611
 30
0.0
 40
24.28031611
100
AcDbArc
 50
235.61575253
 51
304.38424747
  0
LINE
  5
1C8
100
AcDbEntity
  8
D-STR
  6
CONTINUOUS
 62
       1
100
AcDbLine
 10
298.15172443
 20
55.0
 30
0.0
 11
290.80344885
 21
59.24252888
 31
0.0
  0
LINE
  5
1C9
100
AcDbEntity
  8
D-BMK
  6
CENTER
 62
       2
100
AcDbLine
 10
345.65172443
 20
87.0
 30
0.0
 11
345.65172443
 21
55.0
 31
0.0
  0
ENDBLK
  5
1CA
100
AcDbEntity
  8
0
100
AcDbBlockEnd
  0
BLOCK
  5
1CB
100
AcDbEntity
  8
0
100
AcDbBlockBegin
  2
GROUP_20
 70
       0
 10
0.0
 20
0.0
 30
0.0
  3
GROUP_20
  1

  0
CIRCLE
  5
1CC
100
AcDbEntity
  8
D-STR
  6
CONTINUOUS
 62
       1
100
AcDbCircle
 10
-398.65247914
 20
-271.2
 30
0.0
 40
0.6105
  0
CIRCLE
  5
1CD
100
AcDbEntity
  8
D-STR
  6
CONTINUOUS
 62
       1
100
AcDbCircle
 10
-398.65247914
 20
-271.2
 30
0.0
 40
1.6
  0
LINE
  5
1CE
100
AcDbEntity
  8
D-STR
  6
CONTINUOUS
 62
       1
100
AcDbLine
 10
-399.57623957
 20
-269.6
 30
0.0
 11
-397.72871871
 21
-269.6
 31
0.0
  0
LINE
  5
1CF
100
AcDbEntity
  8
D-STR
  6
CONTINUOUS
 62
       1
100
AcDbLine
 10
-400.5
 20
-271.2
 30
0.0
 11
-399.57623957
 21
-269.6
 31
0.0
  0
LINE
  5
1D0
100
AcDbEntity
  8
D-STR
  6
CONTINUOUS
 62
       1
100
AcDbLine
 10
-399.57623957
 20
-272.8
 30
0.0
 11
-400.5
 21
-271.2
 31
0.0
  0
LINE
  5
1D1
100
AcDbEntity
  8
D-STR
  6
CONTINUOUS
 62
       1
100
AcDbLine
 10
-397.72871871
 20
-272.8
 30
0.0
 11
-399.57623957
 21
-272.8
 31
0.0
  0
LINE
  5
1D2
100
AcDbEntity
  8
D-STR
  6
CONTINUOUS
 62
       1
100
AcDbLine
 10
-396.80495828
 20
-271.2
 30
0.0
 11
-397.72871871
 21
-272.8
 31
0.0
  0
LINE
  5
1D3
100
AcDbEntity
  8
D-STR
  6
CONTINUOUS
 62
       1
100
AcDbLine
 10
-397.72871871
 20
-269.6
 30
0.0
 11
-396.80495828
 21
-271.2
 31
0.0
  0
CIRCLE
  5
1D4
100
AcDbEntity
  8
D-STR
  6
CONTINUOUS
 62
       7
100
AcDbCircle
 10
-398.65247914
 20
-271.2
 30
0.0
 40
0.8
  0
LINE
  5
1D5
100
AcDbEntity
  8
D-BMK
  6
CENTER
 62
       2
100
AcDbLine
 10
-400.5
 20
-271.2
 30
0.0
 11
-396.80495828
 21
-271.2
 31
0.0
  0
LINE
  5
1D6
100
AcDbEntity
  8
D-BMK
  6
CENTER
 62
       2
100
AcDbLine
 10
-398.65247914
 20
-272.8
 30
0.0
 11
-398.65247914
 21
-269.6
 31
0.0
  0
ENDBLK
  5
1D7
100
AcDbEntity
  8
0
100
AcDbBlockEnd
  0
BLOCK
  5
1D8
100
AcDbEntity
  8
0
100
AcDbBlockBegin
  2
GROUP_21
 70
       0
 10
0.0
 20
0.0
 30
0.0
  3
GROUP_21
  1

  0
CIRCLE
  5
1D9
100
AcDbEntity
  8
D-STR
  6
CONTINUOUS
 62
       1
100
AcDbCircle
 10
-185.51052323
 20
155.5
 30
0.0
 40
15.835
  0
CIRCLE
  5
1DA
100
AcDbEntity
  8
D-STR
  6
CONTINUOUS
 62
       1
100
AcDbCircle
 10
-185.51052323
 20
155.5
 30
0.0
 40
27.5
  0
LINE
  5
1DB
100
AcDbEntity
  8
D-STR
  6
CONTINUOUS
 62
       1
100
AcDbLine
 10
-201.38765563
 20
183.0
 30
0.0
 11
-169.63339082
 21
183.0
 31
0.0
  0
LINE
  5
1DC
100
AcDbEntity
  8
D-STR
  6
CONTINUOUS
 62
       1
100
AcDbLine
 10
-217.26478803
 20
155.5
 30
0.0
 11
-201.38765563
 21
183.0
 31
0.0
  0
LINE
  5
1DD
100
AcDbEntity
  8
D-STR
  6
CONTINUOUS
 62
       1
100
AcDbLine
 10
-201.38765563
 20
128.0
 30
0.0
 11
-217.26478803
 21
155.5
 31
0.0
  0
LINE
  5
1DE
100
AcDbEntity
  8
D-STR
  6
CONTINUOUS
 62
       1
100
AcDbLine
 10
-169.63339082
 20
128.0
 30
0.0
 11
-201.38765563
 21
128.0
 31
0.0
  0
LINE
  5
1DF
100
AcDbEntity
  8
D-STR
  6
CONTINUOUS
 62
       1
100
AcDbLine
 10
-153.75625842
 20
155.5
 30
0.0
 11
-169.63339082
 21
128.0
 31
0.0
  0
LINE
  5
1E0
100
AcDbEntity
  8
D-STR
  6
CONTINUOUS
 62
       1
100
AcDbLine
 10
-169.63339082
 20
183.0
 30
0.0
 11
-153.75625842
 21
155.5
 31
0.0
  0
CIRCLE
  5
1E1
100
AcDbEntity
  8
D-STR
  6
CONTINUOUS
 62
       7
100
AcDbCircle
 10
-185.51052323
 20
155.5
 30
0.0
 40
18.0
  0
LINE
  5
1E2
100
AcDbEntity
  8
D-BMK
  6
CENTER
 62
       2
100
AcDbLine
 10
-217.26478803
 20
155.5
 30
0.0
 11
-153.75625842
 21
155.5
 31
0.0
  0
LINE
  5
1E3
100
AcDbEntity
  8
D-BMK
  6
CENTER
 62
       2
100
AcDbLine
 10
-185.51052323
 20
128.0
 30
0.0
 11
-185.51052323
 21
183.0
 31
0.0
  0
ENDBLK
  5
1E4
100
AcDbEntity
  8
0
100
AcDbBlockEnd
  0
BLOCK
  5
1E5
100
AcDbEntity
  8
0
100
AcDbBlockBegin
  2
GROUP_22
 70
       0
 10
0.0
 20
0.0
 30
0.0
  3
GROUP_22
  1

  0
CIRCLE
  5
1E6
100
AcDbEntity
  8
D-STR
  6
CONTINUOUS
 62
       1
100
AcDbCircle
 10
-392.18615612
 20
-269.8
 30
0.0
 40
0.7835
  0
CIRCLE
  5
1E7
100
AcDbEntity
  8
D-STR
  6
CONTINUOUS
 62
       1
100
AcDbCircle
 10
-392.18615612
 20
-269.8
 30
0.0
 40
2.0
  0
LINE
  5
1E8
100
AcDbEntity
  8
D-STR
  6
CONTINUOUS
 62
       1
100
AcDbLine
 10
-393.34085666
 20
-267.8
 30
0.0
 11
-391.03145559
 21
-267.8
 31
0.0
  0
LINE
  5
1E9
100
AcDbEntity
  8
D-STR
  6
CONTINUOUS
 62
       1
100
AcDbLine
 10
-394.4955572
 20
-269.8
 30
0.0
 11
-393.34085666
 21
-267.8
 31
0.0
  0
LINE
  5
1EA
100
AcDbEntity
  8
D-STR
  6
CONTINUOUS
 62
       1
100
AcDbLine
 10
-393.34085666
 20
-271.8
 30
0.0
 11
-394.4955572
 21
-269.8
 31
0.0
  0
LINE
  5
1EB
100
AcDbEntity
  8
D-STR
  6
CONTINUOUS
 62
       1
100
AcDbLine
 10
-391.03145559
 20
-271.8
 30
0.0
 11
-393.34085666
 21
-271.8
 31
0.0
  0
LINE
  5
1EC
100
AcDbEntity
  8
D-STR
  6
CONTINUOUS
 62
       1
100
AcDbLine
 10
-389.87675505
 20
-269.8
 30
0.0
 11
-391.03145559
 21
-271.8
 31
0.0
  0
LINE
  5
1ED
100
AcDbEntity
  8
D-STR
  6
CONTINUOUS
 62
       1
100
AcDbLine
 10
-391.03145559
 20
-267.8
 30
0.0
 11
-389.87675505
 21
-269.8
 31
0.0
  0
CIRCLE
  5
1EE
100
AcDbEntity
  8
D-STR
  6
CONTINUOUS
 62
       7
100
AcDbCircle
 10
-392.18615612
 20
-269.8
 30
0.0
 40
1.0
  0
LINE
  5
1EF
100
AcDbEntity
  8
D-BMK
  6
CENTER
 62
       2
100
AcDbLine
 10
-394.4955572
 20
-269.8
 30
0.0
 11
-389.87675505
 21
-269.8
 31
0.0
  0
LINE
  5
1F0
100
AcDbEntity
  8
D-BMK
  6
CENTER
 62
       2
100
AcDbLine
 10
-392.18615612
 20
-271.8
 30
0.0
 11
-392.18615612
 21
-267.8
 31
0.0
  0
ENDBLK
  5
1F1
100
AcDbEntity
  8
0
100
AcDbBlockEnd
  0
BLOCK
  5
1F2
100
AcDbEntity
  8
0
100
AcDbBlockBegin
  2
GROUP_23
 70
       0
 10
0.0
 20
0.0
 30
0.0
  3
GROUP_23
  1

  0
CIRCLE
  5
1F3
100
AcDbEntity
  8
D-STR
  6
CONTINUOUS
 62
       1
100
AcDbCircle
 10
-384.10325236
 20
-267.9
 30
0.0
 40
1.0065
  0
CIRCLE
  5
1F4
100
AcDbEntity
  8
D-STR
  6
CONTINUOUS
 62
       1
100
AcDbCircle
 10
-384.10325236
 20
-267.9
 30
0.0
 40
2.5
  0
LINE
  5
1F5
100
AcDbEntity
  8
D-STR
  6
CONTINUOUS
 62
       1
100
AcDbLine
 10
-385.54662803
 20
-265.4
 30
0.0
 11
-382.65987668
 21
-265.4
 31
0.0
  0
LINE
  5
1F6
100
AcDbEntity
  8
D-STR
  6
CONTINUOUS
 62
       1
100
AcDbLine
 10
-386.9900037
 20
-267.9
 30
0.0
 11
-385.54662803
 21
-265.4
 31
0.0
  0
LINE
  5
1F7
100
AcDbEntity
  8
D-STR
  6
CONTINUOUS
 62
       1
100
AcDbLine
 10
-385.54662803
 20
-270.4
 30
0.0
 11
-386.9900037
 21
-267.9
 31
0.0
  0
LINE
  5
1F8
100
AcDbEntity
  8
D-STR
  6
CONTINUOUS
 62
       1
100
AcDbLine
 10
-382.65987668
 20
-270.4
 30
0.0
 11
-385.54662803
 21
-270.4
 31
0.0
  0
LINE
  5
1F9
100
AcDbEntity
  8
D-STR
  6
CONTINUOUS
 62
       1
100
AcDbLine
 10
-381.21650101
 20
-267.9
 30
0.0
 11
-382.65987668
 21
-270.4
 31
0.0
  0
LINE
  5
1FA
100
AcDbEntity
  8
D-STR
  6
CONTINUOUS
 62
       1
100
AcDbLine
 10
-382.65987668
 20
-265.4
 30
0.0
 11
-381.21650101
 21
-267.9
 31
0.0
  0
CIRCLE
  5
1FB
100
AcDbEntity
  8
D-STR
  6
CONTINUOUS
 62
       7
100
AcDbCircle
 10
-384.10325236
 20
-267.9
 30
0.0
 40
1.25
  0
LINE
  5
1FC
100
AcDbEntity
  8
D-BMK
  6
CENTER
 62
       2
100
AcDbLine
 10
-386.9900037
 20
-267.9
 30
0.0
 11
-381.21650101
 21
-267.9
 31
0.0
  0
LINE
  5
1FD
100
AcDbEntity
  8
D-BMK
  6
CENTER
 62
       2
100
AcDbLine
 10
-384.10325236
 20
-270.4
 30
0.0
 11
-384.10325236
 21
-265.4
 31
0.0
  0
ENDBLK
  5
1FE
100
AcDbEntity
  8
0
100
AcDbBlockEnd
  0
BLOCK
  5
1FF
100
AcDbEntity
  8
0
100
AcDbBlockBegin
  2
GROUP_24
 70
       0
 10
0.0
 20
0.0
 30
0.0
  3
GROUP_24
  1

  0
CIRCLE
  5
200
100
AcDbEntity
  8
D-STR
  6
CONTINUOUS
 62
       1
100
AcDbCircle
 10
-374.86564805
 20
-266.95
 30
0.0
 40
1.2295
  0
CIRCLE
  5
201
100
AcDbEntity
  8
D-STR
  6
CONTINUOUS
 62
       1
100
AcDbCircle
 10
-374.86564805
 20
-266.95
 30
0.0
 40
2.75
  0
LINE
  5
202
100
AcDbEntity
  8
D-STR
  6
CONTINUOUS
 62
       1
100
AcDbLine
 10
-376.45336129
 20
-264.2
 30
0.0
 11
-373.27793481
 21
-264.2
 31
0.0
  0
LINE
  5
203
100
AcDbEntity
  8
D-STR
  6
CONTINUOUS
 62
       1
100
AcDbLine
 10
-378.04107453
 20
-266.95
 30
0.0
 11
-376.45336129
 21
-264.2
 31
0.0
  0
LINE
  5
204
100
AcDbEntity
  8
D-STR
  6
CONTINUOUS
 62
       1
100
AcDbLine
 10
-376.45336129
 20
-269.7
 30
0.0
 11
-378.04107453
 21
-266.95
 31
0.0
  0
LINE
  5
205
100
AcDbEntity
  8
D-STR
  6
CONTINUOUS
 62
       1
100
AcDbLine
 10
-373.27793481
 20
-269.7
 30
0.0
 11
-376.45336129
 21
-269.7
 31
0.0
  0
LINE
  5
206
100
AcDbEntity
  8
D-STR
  6
CONTINUOUS
 62
       1
100
AcDbLine
 10
-371.69022157
 20
-266.95
 30
0.0
 11
-373.27793481
 21
-269.7
 31
0.0
  0
LINE
  5
207
100
AcDbEntity
  8
D-STR
  6
CONTINUOUS
 62
       1
100
AcDbLine
 10
-373.27793481
 20
-264.2
 30
0.0
 11
-371.69022157
 21
-266.95
 31
0.0
  0
CIRCLE
  5
208
100
AcDbEntity
  8
D-STR
  6
CONTINUOUS
 62
       7
100
AcDbCircle
 10
-374.86564805
 20
-266.95
 30
0.0
 40
1.5
  0
LINE
  5
209
100
AcDbEntity
  8
D-BMK
  6
CENTER
 62
       2
100
AcDbLine
 10
-374.86564805
 20
-269.7
 30
0.0
 11
-374.86564805
 21
-264.2
 31
0.0
  0
LINE
  5
20A
100
AcDbEntity
  8
D-BMK
  6
CENTER
 62
       2
100
AcDbLine
 10
-378.04107453
 20
-266.95
 30
0.0
 11
-371.69022157
 21
-266.95
 31
0.0
  0
ENDBLK
  5
20B
100
AcDbEntity
  8
0
100
AcDbBlockEnd
  0
BLOCK
  5
20C
100
AcDbEntity
  8
0
100
AcDbBlockBegin
  2
GROUP_25
 70
       0
 10
0.0
 20
0.0
 30
0.0
  3
GROUP_25
  1

  0
CIRCLE
  5
20D
100
AcDbEntity
  8
D-STR
  6
CONTINUOUS
 62
       1
100
AcDbCircle
 10
-350.32826161
 20
-262.3
 30
0.0
 40
2.067
  0
CIRCLE
  5
20E
100
AcDbEntity
  8
D-STR
  6
CONTINUOUS
 62
       1
100
AcDbCircle
 10
-350.32826161
 20
-262.3
 30
0.0
 40
4.0
  0
LINE
  5
20F
100
AcDbEntity
  8
D-STR
  6
CONTINUOUS
 62
       1
100
AcDbLine
 10
-352.63766268
 20
-258.3
 30
0.0
 11
-348.01886053
 21
-258.3
 31
0.0
  0
LINE
  5
210
100
AcDbEntity
  8
D-STR
  6
CONTINUOUS
 62
       1
100
AcDbLine
 10
-354.94706376
 20
-262.3
 30
0.0
 11
-352.63766268
 21
-258.3
 31
0.0
  0
LINE
  5
211
100
AcDbEntity
  8
D-STR
  6
CONTINUOUS
 62
       1
100
AcDbLine
 10
-352.63766268
 20
-266.3
 30
0.0
 11
-354.94706376
 21
-262.3
 31
0.0
  0
LINE
  5
212
100
AcDbEntity
  8
D-STR
  6
CONTINUOUS
 62
       1
100
AcDbLine
 10
-348.01886053
 20
-266.3
 30
0.0
 11
-352.63766268
 21
-266.3
 31
0.0
  0
LINE
  5
213
100
AcDbEntity
  8
D-STR
  6
CONTINUOUS
 62
       1
100
AcDbLine
 10
-345.70945945
 20
-262.3
 30
0.0
 11
-348.01886053
 21
-266.3
 31
0.0
  0
LINE
  5
214
100
AcDbEntity
  8
D-STR
  6
CONTINUOUS
 62
       1
100
AcDbLine
 10
-348.01886053
 20
-258.3
 30
0.0
 11
-345.70945945
 21
-262.3
 31
0.0
  0
CIRCLE
  5
215
100
AcDbEntity
  8
D-STR
  6
CONTINUOUS
 62
       7
100
AcDbCircle
 10
-350.32826161
 20
-262.3
 30
0.0
 40
2.5
  0
LINE
  5
216
100
AcDbEntity
  8
D-BMK
  6
CENTER
 62
       2
100
AcDbLine
 10
-354.94706376
 20
-262.3
 30
0.0
 11
-345.70945945
 21
-262.3
 31
0.0
  0
LINE
  5
217
100
AcDbEntity
  8
D-BMK
  6
CENTER
 62
       2
100
AcDbLine
 10
-350.32826161
 20
-266.3
 30
0.0
 11
-350.32826161
 21
-258.3
 31
0.0
  0
ENDBLK
  5
218
100
AcDbEntity
  8
0
100
AcDbBlockEnd
  0
BLOCK
  5
219
100
AcDbEntity
  8
0
100
AcDbBlockBegin
  2
GROUP_26
 70
       0
 10
0.0
 20
0.0
 30
0.0
  3
GROUP_26
  1

  0
CIRCLE
  5
21A
100
AcDbEntity
  8
D-STR
  6
CONTINUOUS
 62
       1
100
AcDbCircle
 10
-334.16245407
 20
-258.8
 30
0.0
 40
2.4585
  0
CIRCLE
  5
21B
100
AcDbEntity
  8
D-STR
  6
CONTINUOUS
 62
       1
100
AcDbCircle
 10
-334.16245407
 20
-258.8
 30
0.0
 40
5.0
  0
LINE
  5
21C
100
AcDbEntity
  8
D-STR
  6
CONTINUOUS
 62
       1
100
AcDbLine
 10
-337.04920542
 20
-253.8
 30
0.0
 11
-331.27570272
 21
-253.8
 31
0.0
  0
LINE
  5
21D
100
AcDbEntity
  8
D-STR
  6
CONTINUOUS
 62
       1
100
AcDbLine
 10
-339.93595676
 20
-258.8
 30
0.0
 11
-337.04920542
 21
-253.8
 31
0.0
  0
LINE
  5
21E
100
AcDbEntity
  8
D-STR
  6
CONTINUOUS
 62
       1
100
AcDbLine
 10
-337.04920542
 20
-263.8
 30
0.0
 11
-339.93595676
 21
-258.8
 31
0.0
  0
LINE
  5
21F
100
AcDbEntity
  8
D-STR
  6
CONTINUOUS
 62
       1
100
AcDbLine
 10
-331.27570272
 20
-263.8
 30
0.0
 11
-337.04920542
 21
-263.8
 31
0.0
  0
LINE
  5
220
100
AcDbEntity
  8
D-STR
  6
CONTINUOUS
 62
       1
100
AcDbLine
 10
-328.38895138
 20
-258.8
 30
0.0
 11
-331.27570272
 21
-263.8
 31
0.0
  0
LINE
  5
221
100
AcDbEntity
  8
D-STR
  6
CONTINUOUS
 62
       1
100
AcDbLine
 10
-331.27570272
 20
-253.8
 30
0.0
 11
-328.38895138
 21
-258.8
 31
0.0
  0
CIRCLE
  5
222
100
AcDbEntity
  8
D-STR
  6
CONTINUOUS
 62
       7
100
AcDbCircle
 10
-334.16245407
 20
-258.8
 30
0.0
 40
3.0
  0
LINE
  5
223
100
AcDbEntity
  8
D-BMK
  6
CENTER
 62
       2
100
AcDbLine
 10
-339.93595676
 20
-258.8
 30
0.0
 11
-328.38895138
 21
-258.8
 31
0.0
  0
LINE
  5
224
100
AcDbEntity
  8
D-BMK
  6
CENTER
 62
       2
100
AcDbLine
 10
-334.16245407
 20
-263.8
 30
0.0
 11
-334.16245407
 21
-253.8
 31
0.0
  0
ENDBLK
  5
225
100
AcDbEntity
  8
0
100
AcDbBlockEnd
  0
BLOCK
  5
226
100
AcDbEntity
  8
0
100
AcDbBlockBegin
  2
GROUP_27
 70
       0
 10
0.0
 20
0.0
 30
0.0
  3
GROUP_27
  1

  0
CIRCLE
  5
227
100
AcDbEntity
  8
D-STR
  6
CONTINUOUS
 62
       1
100
AcDbCircle
 10
-363.6073178
 20
-264.3
 30
0.0
 40
1.621
  0
CIRCLE
  5
228
100
AcDbEntity
  8
D-STR
  6
CONTINUOUS
 62
       1
100
AcDbCircle
 10
-363.6073178
 20
-264.3
 30
0.0
 40
3.5
  0
LINE
  5
229
100
AcDbEntity
  8
D-STR
  6
CONTINUOUS
 62
       1
100
AcDbLine
 10
-365.62804374
 20
-260.8
 30
0.0
 11
-361.58659186
 21
-260.8
 31
0.0
  0
LINE
  5
22A
100
AcDbEntity
  8
D-STR
  6
CONTINUOUS
 62
       1
100
AcDbLine
 10
-367.64876968
 20
-264.3
 30
0.0
 11
-365.62804374
 21
-260.8
 31
0.0
  0
LINE
  5
22B
100
AcDbEntity
  8
D-STR
  6
CONTINUOUS
 62
       1
100
AcDbLine
 10
-365.62804374
 20
-267.8
 30
0.0
 11
-367.64876968
 21
-264.3
 31
0.0
  0
LINE
  5
22C
100
AcDbEntity
  8
D-STR
  6
CONTINUOUS
 62
       1
100
AcDbLine
 10
-361.58659186
 20
-267.8
 30
0.0
 11
-365.62804374
 21
-267.8
 31
0.0
  0
LINE
  5
22D
100
AcDbEntity
  8
D-STR
  6
CONTINUOUS
 62
       1
100
AcDbLine
 10
-359.56586591
 20
-264.3
 30
0.0
 11
-361.58659186
 21
-267.8
 31
0.0
  0
LINE
  5
22E
100
AcDbEntity
  8
D-STR
  6
CONTINUOUS
 62
       1
100
AcDbLine
 10
-361.58659186
 20
-260.8
 30
0.0
 11
-359.56586591
 21
-264.3
 31
0.0
  0
CIRCLE
  5
22F
100
AcDbEntity
  8
D-STR
  6
CONTINUOUS
 62
       7
100
AcDbCircle
 10
-363.6073178
 20
-264.3
 30
0.0
 40
2.0
  0
LINE
  5
230
100
AcDbEntity
  8
D-BMK
  6
CENTER
 62
       2
100
AcDbLine
 10
-363.6073178
 20
-267.8
 30
0.0
 11
-363.6073178
 21
-260.8
 31
0.0
  0
LINE
  5
231
100
AcDbEntity
  8
D-BMK
  6
CENTER
 62
       2
100
AcDbLine
 10
-367.64876968
 20
-264.3
 30
0.0
 11
-359.56586591
 21
-264.3
 31
0.0
  0
ENDBLK
  5
232
100
AcDbEntity
  8
0
100
AcDbBlockEnd
  0
BLOCK
  5
233
100
AcDbEntity
  8
0
100
AcDbBlockBegin
  2
GROUP_28
 70
       0
 10
0.0
 20
0.0
 30
0.0
  3
GROUP_28
  1

  0
CIRCLE
  5
234
100
AcDbEntity
  8
D-STR
  6
CONTINUOUS
 62
       1
100
AcDbCircle
 10
-313.37784438
 20
-253.5
 30
0.0
 40
3.3235
  0
CIRCLE
  5
235
100
AcDbEntity
  8
D-STR
  6
CONTINUOUS
 62
       1
100
AcDbCircle
 10
-313.37784438
 20
-253.5
 30
0.0
 40
6.5
  0
LINE
  5
236
100
AcDbEntity
  8
D-STR
  6
CONTINUOUS
 62
       1
100
AcDbLine
 10
-317.13062113
 20
-247.0
 30
0.0
 11
-309.62506763
 21
-247.0
 31
0.0
  0
LINE
  5
237
100
AcDbEntity
  8
D-STR
  6
CONTINUOUS
 62
       1
100
AcDbLine
 10
-320.88339788
 20
-253.5
 30
0.0
 11
-317.13062113
 21
-247.0
 31
0.0
  0
LINE
  5
238
100
AcDbEntity
  8
D-STR
  6
CONTINUOUS
 62
       1
100
AcDbLine
 10
-317.13062113
 20
-260.0
 30
0.0
 11
-320.88339788
 21
-253.5
 31
0.0
  0
LINE
  5
239
100
AcDbEntity
  8
D-STR
  6
CONTINUOUS
 62
       1
100
AcDbLine
 10
-309.62506763
 20
-260.0
 30
0.0
 11
-317.13062113
 21
-260.0
 31
0.0
  0
LINE
  5
23A
100
AcDbEntity
  8
D-STR
  6
CONTINUOUS
 62
       1
100
AcDbLine
 10
-305.87229088
 20
-253.5
 30
0.0
 11
-309.62506763
 21
-260.0
 31
0.0
  0
LINE
  5
23B
100
AcDbEntity
  8
D-STR
  6
CONTINUOUS
 62
       1
100
AcDbLine
 10
-309.62506763
 20
-247.0
 30
0.0
 11
-305.87229088
 21
-253.5
 31
0.0
  0
CIRCLE
  5
23C
100
AcDbEntity
  8
D-STR
  6
CONTINUOUS
 62
       7
100
AcDbCircle
 10
-313.37784438
 20
-253.5
 30
0.0
 40
4.0
  0
LINE
  5
23D
100
AcDbEntity
  8
D-BMK
  6
CENTER
 62
       2
100
AcDbLine
 10
-320.88339788
 20
-253.5
 30
0.0
 11
-305.87229088
 21
-253.5
 31
0.0
  0
LINE
  5
23E
100
AcDbEntity
  8
D-BMK
  6
CENTER
 62
       2
100
AcDbLine
 10
-313.37784438
 20
-260.0
 30
0.0
 11
-313.37784438
 21
-247.0
 31
0.0
  0
ENDBLK
  5
23F
100
AcDbEntity
  8
0
100
AcDbBlockEnd
  0
BLOCK
  5
240
100
AcDbEntity
  8
0
100
AcDbBlockBegin
  2
GROUP_29
 70
       0
 10
0.0
 20
0.0
 30
0.0
  3
GROUP_29
  1

  0
CIRCLE
  5
241
100
AcDbEntity
  8
D-STR
  6
CONTINUOUS
 62
       1
100
AcDbCircle
 10
-287.39708227
 20
-248.0
 30
0.0
 40
4.1875
  0
CIRCLE
  5
242
100
AcDbEntity
  8
D-STR
  6
CONTINUOUS
 62
       1
100
AcDbCircle
 10
-287.39708227
 20
-248.0
 30
0.0
 40
8.0
  0
LINE
  5
243
100
AcDbEntity
  8
D-STR
  6
CONTINUOUS
 62
       1
100
AcDbLine
 10
-292.01588442
 20
-240.0
 30
0.0
 11
-282.77828011
 21
-240.0
 31
0.0
  0
LINE
  5
244
100
AcDbEntity
  8
D-STR
  6
CONTINUOUS
 62
       1
100
AcDbLine
 10
-296.63468657
 20
-248.0
 30
0.0
 11
-292.01588442
 21
-240.0
 31
0.0
  0
LINE
  5
245
100
AcDbEntity
  8
D-STR
  6
CONTINUOUS
 62
       1
100
AcDbLine
 10
-292.01588442
 20
-256.0
 30
0.0
 11
-296.63468657
 21
-248.0
 31
0.0
  0
LINE
  5
246
100
AcDbEntity
  8
D-STR
  6
CONTINUOUS
 62
       1
100
AcDbLine
 10
-282.77828011
 20
-256.0
 30
0.0
 11
-292.01588442
 21
-256.0
 31
0.0
  0
LINE
  5
247
100
AcDbEntity
  8
D-STR
  6
CONTINUOUS
 62
       1
100
AcDbLine
 10
-278.15947796
 20
-248.0
 30
0.0
 11
-282.77828011
 21
-256.0
 31
0.0
  0
LINE
  5
248
100
AcDbEntity
  8
D-STR
  6
CONTINUOUS
 62
       1
100
AcDbLine
 10
-282.77828011
 20
-240.0
 30
0.0
 11
-278.15947796
 21
-248.0
 31
0.0
  0
CIRCLE
  5
249
100
AcDbEntity
  8
D-STR
  6
CONTINUOUS
 62
       7
100
AcDbCircle
 10
-287.39708227
 20
-248.0
 30
0.0
 40
5.0
  0
LINE
  5
24A
100
AcDbEntity
  8
D-BMK
  6
CENTER
 62
       2
100
AcDbLine
 10
-296.63468657
 20
-248.0
 30
0.0
 11
-278.15947796
 21
-248.0
 31
0.0
  0
LINE
  5
24B
100
AcDbEntity
  8
D-BMK
  6
CENTER
 62
       2
100
AcDbLine
 10
-287.39708227
 20
-256.0
 30
0.0
 11
-287.39708227
 21
-240.0
 31
0.0
  0
ENDBLK
  5
24C
100
AcDbEntity
  8
0
100
AcDbBlockEnd
  0
BLOCK
  5
24D
100
AcDbEntity
  8
0
100
AcDbBlockBegin
  2
GROUP_30
 70
       0
 10
0.0
 20
0.0
 30
0.0
  3
GROUP_30
  1

  0
CIRCLE
  5
24E
100
AcDbEntity
  8
D-STR
  6
CONTINUOUS
 62
       1
100
AcDbCircle
 10
-257.37486827
 20
-244.0
 30
0.0
 40
5.053
  0
CIRCLE
  5
24F
100
AcDbEntity
  8
D-STR
  6
CONTINUOUS
 62
       1
100
AcDbCircle
 10
-257.37486827
 20
-244.0
 30
0.0
 40
9.0
  0
LINE
  5
250
100
AcDbEntity
  8
D-STR
  6
CONTINUOUS
 62
       1
100
AcDbLine
 10
-262.57102069
 20
-235.0
 30
0.0
 11
-252.17871585
 21
-235.0
 31
0.0
  0
LINE
  5
251
100
AcDbEntity
  8
D-STR
  6
CONTINUOUS
 62
       1
100
AcDbLine
 10
-267.76717311
 20
-244.0
 30
0.0
 11
-262.57102069
 21
-235.0
 31
0.0
  0
LINE
  5
252
100
AcDbEntity
  8
D-STR
  6
CONTINUOUS
 62
       1
100
AcDbLine
 10
-262.57102069
 20
-253.0
 30
0.0
 11
-267.76717311
 21
-244.0
 31
0.0
  0
LINE
  5
253
100
AcDbEntity
  8
D-STR
  6
CONTINUOUS
 62
       1
100
AcDbLine
 10
-252.17871585
 20
-253.0
 30
0.0
 11
-262.57102069
 21
-253.0
 31
0.0
  0
LINE
  5
254
100
AcDbEntity
  8
D-STR
  6
CONTINUOUS
 62
       1
100
AcDbLine
 10
-246.98256342
 20
-244.0
 30
0.0
 11
-252.17871585
 21
-253.0
 31
0.0
  0
LINE
  5
255
100
AcDbEntity
  8
D-STR
  6
CONTINUOUS
 62
       1
100
AcDbLine
 10
-252.17871585
 20
-235.0
 30
0.0
 11
-246.98256342
 21
-244.0
 31
0.0
  0
CIRCLE
  5
256
100
AcDbEntity
  8
D-STR
  6
CONTINUOUS
 62
       7
100
AcDbCircle
 10
-257.37486827
 20
-244.0
 30
0.0
 40
6.0
  0
LINE
  5
257
100
AcDbEntity
  8
D-BMK
  6
CENTER
 62
       2
100
AcDbLine
 10
-267.76717311
 20
-244.0
 30
0.0
 11
-246.98256342
 21
-244.0
 31
0.0
  0
LINE
  5
258
100
AcDbEntity
  8
D-BMK
  6
CENTER
 62
       2
100
AcDbLine
 10
-257.37486827
 20
-253.0
 30
0.0
 11
-257.37486827
 21
-235.0
 31
0.0
  0
ENDBLK
  5
259
100
AcDbEntity
  8
0
100
AcDbBlockEnd
  0
BLOCK
  5
25A
100
AcDbEntity
  8
0
100
AcDbBlockBegin
  2
GROUP_31
 70
       0
 10
0.0
 20
0.0
 30
0.0
  3
GROUP_31
  1

  0
CIRCLE
  5
25B
100
AcDbEntity
  8
D-STR
  6
CONTINUOUS
 62
       1
100
AcDbCircle
 10
-219.2697505
 20
-233.0
 30
0.0
 40
6.9175
  0
CIRCLE
  5
25C
100
AcDbEntity
  8
D-STR
  6
CONTINUOUS
 62
       1
100
AcDbCircle
 10
-219.2697505
 20
-233.0
 30
0.0
 40
12.0
  0
LINE
  5
25D
100
AcDbEntity
  8
D-STR
  6
CONTINUOUS
 62
       1
100
AcDbLine
 10
-226.19795373
 20
-221.0
 30
0.0
 11
-212.34154727
 21
-221.0
 31
0.0
  0
LINE
  5
25E
100
AcDbEntity
  8
D-STR
  6
CONTINUOUS
 62
       1
100
AcDbLine
 10
-233.12615696
 20
-233.0
 30
0.0
 11
-226.19795373
 21
-221.0
 31
0.0
  0
LINE
  5
25F
100
AcDbEntity
  8
D-STR
  6
CONTINUOUS
 62
       1
100
AcDbLine
 10
-226.19795373
 20
-245.0
 30
0.0
 11
-233.12615696
 21
-233.0
 31
0.0
  0
LINE
  5
260
100
AcDbEntity
  8
D-STR
  6
CONTINUOUS
 62
       1
100
AcDbLine
 10
-212.34154727
 20
-245.0
 30
0.0
 11
-226.19795373
 21
-245.0
 31
0.0
  0
LINE
  5
261
100
AcDbEntity
  8
D-STR
  6
CONTINUOUS
 62
       1
100
AcDbLine
 10
-205.41334404
 20
-233.0
 30
0.0
 11
-212.34154727
 21
-245.0
 31
0.0
  0
LINE
  5
262
100
AcDbEntity
  8
D-STR
  6
CONTINUOUS
 62
       1
100
AcDbLine
 10
-212.34154727
 20
-221.0
 30
0.0
 11
-205.41334404
 21
-233.0
 31
0.0
  0
CIRCLE
  5
263
100
AcDbEntity
  8
D-STR
  6
CONTINUOUS
 62
       7
100
AcDbCircle
 10
-219.2697505
 20
-233.0
 30
0.0
 40
8.0
  0
LINE
  5
264
100
AcDbEntity
  8
D-BMK
  6
CENTER
 62
       2
100
AcDbLine
 10
-233.12615696
 20
-233.0
 30
0.0
 11
-205.41334404
 21
-233.0
 31
0.0
  0
LINE
  5
265
100
AcDbEntity
  8
D-BMK
  6
CENTER
 62
       2
100
AcDbLine
 10
-219.2697505
 20
-245.0
 30
0.0
 11
-219.2697505
 21
-221.0
 31
0.0
  0
ENDBLK
  5
266
100
AcDbEntity
  8
0
100
AcDbBlockEnd
  0
BLOCK
  5
267
100
AcDbEntity
  8
0
100
AcDbBlockBegin
  2
GROUP_32
 70
       0
 10
0.0
 20
0.0
 30
0.0
  3
GROUP_32
  1

  0
CIRCLE
  5
268
100
AcDbEntity
  8
D-STR
  6
CONTINUOUS
 62
       1
100
AcDbCircle
 10
-170.77232789
 20
-222.0
 30
0.0
 40
8.647
  0
CIRCLE
  5
269
100
AcDbEntity
  8
D-STR
  6
CONTINUOUS
 62
       1
100
AcDbCircle
 10
-170.77232789
 20
-222.0
 30
0.0
 40
15.0
  0
LINE
  5
26A
100
AcDbEntity
  8
D-STR
  6
CONTINUOUS
 62
       1
100
AcDbLine
 10
-179.43258193
 20
-207.0
 30
0.0
 11
-162.11207385
 21
-207.0
 31
0.0
  0
LINE
  5
26B
100
AcDbEntity
  8
D-STR
  6
CONTINUOUS
 62
       1
100
AcDbLine
 10
-188.09283597
 20
-222.0
 30
0.0
 11
-179.43258193
 21
-207.0
 31
0.0
  0
LINE
  5
26C
100
AcDbEntity
  8
D-STR
  6
CONTINUOUS
 62
       1
100
AcDbLine
 10
-179.43258193
 20
-237.0
 30
0.0
 11
-188.09283597
 21
-222.0
 31
0.0
  0
LINE
  5
26D
100
AcDbEntity
  8
D-STR
  6
CONTINUOUS
 62
       1
100
AcDbLine
 10
-162.11207385
 20
-237.0
 30
0.0
 11
-179.43258193
 21
-237.0
 31
0.0
  0
LINE
  5
26E
100
AcDbEntity
  8
D-STR
  6
CONTINUOUS
 62
       1
100
AcDbLine
 10
-153.45181981
 20
-222.0
 30
0.0
 11
-162.11207385
 21
-237.0
 31
0.0
  0
LINE
  5
26F
100
AcDbEntity
  8
D-STR
  6
CONTINUOUS
 62
       1
100
AcDbLine
 10
-162.11207385
 20
-207.0
 30
0.0
 11
-153.45181981
 21
-222.0
 31
0.0
  0
CIRCLE
  5
270
100
AcDbEntity
  8
D-STR
  6
CONTINUOUS
 62
       7
100
AcDbCircle
 10
-170.77232789
 20
-222.0
 30
0.0
 40
10.0
  0
LINE
  5
271
100
AcDbEntity
  8
D-BMK
  6
CENTER
 62
       2
100
AcDbLine
 10
-188.09283597
 20
-222.0
 30
0.0
 11
-153.45181981
 21
-222.0
 31
0.0
  0
LINE
  5
272
100
AcDbEntity
  8
D-BMK
  6
CENTER
 62
       2
100
AcDbLine
 10
-170.77232789
 20
-237.0
 30
0.0
 11
-170.77232789
 21
-207.0
 31
0.0
  0
ENDBLK
  5
273
100
AcDbEntity
  8
0
100
AcDbBlockEnd
  0
BLOCK
  5
274
100
AcDbEntity
  8
0
100
AcDbBlockBegin
  2
GROUP_33
 70
       0
 10
0.0
 20
0.0
 30
0.0
  3
GROUP_33
  1

  0
CIRCLE
  5
275
100
AcDbEntity
  8
D-STR
  6
CONTINUOUS
 62
       1
100
AcDbCircle
 10
-349.47799968
 20
121.0
 30
0.0
 40
10.376
  0
CIRCLE
  5
276
100
AcDbEntity
  8
D-STR
  6
CONTINUOUS
 62
       1
100
AcDbCircle
 10
-349.47799968
 20
121.0
 30
0.0
 40
18.0
  0
LINE
  5
277
100
AcDbEntity
  8
D-STR
  6
CONTINUOUS
 62
       1
100
AcDbLine
 10
-359.87030452
 20
139.0
 30
0.0
 11
-339.08569483
 21
139.0
 31
0.0
  0
LINE
  5
278
100
AcDbEntity
  8
D-STR
  6
CONTINUOUS
 62
       1
100
AcDbLine
 10
-370.26260937
 20
121.0
 30
0.0
 11
-359.87030452
 21
139.0
 31
0.0
  0
LINE
  5
279
100
AcDbEntity
  8
D-STR
  6
CONTINUOUS
 62
       1
100
AcDbLine
 10
-359.87030452
 20
103.0
 30
0.0
 11
-370.26260937
 21
121.0
 31
0.0
  0
LINE
  5
27A
100
AcDbEntity
  8
D-STR
  6
CONTINUOUS
 62
       1
100
AcDbLine
 10
-339.08569483
 20
103.0
 30
0.0
 11
-359.87030452
 21
103.0
 31
0.0
  0
LINE
  5
27B
100
AcDbEntity
  8
D-STR
  6
CONTINUOUS
 62
       1
100
AcDbLine
 10
-328.69338999
 20
121.0
 30
0.0
 11
-339.08569483
 21
103.0
 31
0.0
  0
LINE
  5
27C
100
AcDbEntity
  8
D-STR
  6
CONTINUOUS
 62
       1
100
AcDbLine
 10
-339.08569483
 20
139.0
 30
0.0
 11
-328.69338999
 21
121.0
 31
0.0
  0
CIRCLE
  5
27D
100
AcDbEntity
  8
D-STR
  6
CONTINUOUS
 62
       7
100
AcDbCircle
 10
-349.47799968
 20
121.0
 30
0.0
 40
12.0
  0
LINE
  5
27E
100
AcDbEntity
  8
D-BMK
  6
CENTER
 62
       2
100
AcDbLine
 10
-370.26260937
 20
121.0
 30
0.0
 11
-328.69338999
 21
121.0
 31
0.0
  0
LINE
  5
27F
100
AcDbEntity
  8
D-BMK
  6
CENTER
 62
       2
100
AcDbLine
 10
-349.47799968
 20
103.0
 30
0.0
 11
-349.47799968
 21
139.0
 31
0.0
  0
ENDBLK
  5
280
100
AcDbEntity
  8
0
100
AcDbBlockEnd
  0
BLOCK
  5
281
100
AcDbEntity
  8
0
100
AcDbBlockBegin
  2
GROUP_34
 70
       0
 10
0.0
 20
0.0
 30
0.0
  3
GROUP_34
  1

  0
CIRCLE
  5
282
100
AcDbEntity
  8
D-STR
  6
CONTINUOUS
 62
       1
100
AcDbCircle
 10
-275.57716522
 20
139.0
 30
0.0
 40
13.1055
  0
CIRCLE
  5
283
100
AcDbEntity
  8
D-STR
  6
CONTINUOUS
 62
       1
100
AcDbCircle
 10
-275.57716522
 20
139.0
 30
0.0
 40
23.0
  0
LINE
  5
284
100
AcDbEntity
  8
D-STR
  6
CONTINUOUS
 62
       1
100
AcDbLine
 10
-288.85622141
 20
162.0
 30
0.0
 11
-262.29810903
 21
162.0
 31
0.0
  0
LINE
  5
285
100
AcDbEntity
  8
D-STR
  6
CONTINUOUS
 62
       1
100
AcDbLine
 10
-302.1352776
 20
139.0
 30
0.0
 11
-288.85622141
 21
162.0
 31
0.0
  0
LINE
  5
286
100
AcDbEntity
  8
D-STR
  6
CONTINUOUS
 62
       1
100
AcDbLine
 10
-288.85622141
 20
116.0
 30
0.0
 11
-302.1352776
 21
139.0
 31
0.0
  0
LINE
  5
287
100
AcDbEntity
  8
D-STR
  6
CONTINUOUS
 62
       1
100
AcDbLine
 10
-262.29810903
 20
116.0
 30
0.0
 11
-288.85622141
 21
116.0
 31
0.0
  0
LINE
  5
288
100
AcDbEntity
  8
D-STR
  6
CONTINUOUS
 62
       1
100
AcDbLine
 10
-249.01905284
 20
139.0
 30
0.0
 11
-262.29810903
 21
116.0
 31
0.0
  0
LINE
  5
289
100
AcDbEntity
  8
D-STR
  6
CONTINUOUS
 62
       1
100
AcDbLine
 10
-262.29810903
 20
162.0
 30
0.0
 11
-249.01905284
 21
139.0
 31
0.0
  0
CIRCLE
  5
28A
100
AcDbEntity
  8
D-STR
  6
CONTINUOUS
 62
       7
100
AcDbCircle
 10
-275.57716522
 20
139.0
 30
0.0
 40
15.0
  0
LINE
  5
28B
100
AcDbEntity
  8
D-BMK
  6
CENTER
 62
       2
100
AcDbLine
 10
-302.1352776
 20
139.0
 30
0.0
 11
-249.01905284
 21
139.0
 31
0.0
  0
LINE
  5
28C
100
AcDbEntity
  8
D-BMK
  6
CENTER
 62
       2
100
AcDbLine
 10
-275.57716522
 20
116.0
 30
0.0
 11
-275.57716522
 21
162.0
 31
0.0
  0
ENDBLK
  5
28D
100
AcDbEntity
  8
0
100
AcDbBlockEnd
  0
BLOCK
  5
28E
100
AcDbEntity
  8
0
100
AcDbBlockBegin
  2
GROUP_35
 70
       0
 10
0.0
 20
0.0
 30
0.0
  3
GROUP_35
  1

  0
CIRCLE
  5
28F
100
AcDbEntity
  8
D-STR
  6
CONTINUOUS
 62
       1
100
AcDbCircle
 10
-78.70072343
 20
173.5
 30
0.0
 40
18.5645
  0
CIRCLE
  5
290
100
AcDbEntity
  8
D-STR
  6
CONTINUOUS
 62
       1
100
AcDbCircle
 10
-78.70072343
 20
173.5
 30
0.0
 40
32.5
  0
LINE
  5
291
100
AcDbEntity
  8
D-STR
  6
CONTINUOUS
 62
       1
100
AcDbLine
 10
-97.46460718
 20
206.0
 30
0.0
 11
-59.93683968
 21
206.0
 31
0.0
  0
LINE
  5
292
100
AcDbEntity
  8
D-STR
  6
CONTINUOUS
 62
       1
100
AcDbLine
 10
-116.22849092
 20
173.5
 30
0.0
 11
-97.46460718
 21
206.0
 31
0.0
  0
LINE
  5
293
100
AcDbEntity
  8
D-STR
  6
CONTINUOUS
 62
       1
100
AcDbLine
 10
-97.46460718
 20
141.0
 30
0.0
 11
-116.22849092
 21
173.5
 31
0.0
  0
LINE
  5
294
100
AcDbEntity
  8
D-STR
  6
CONTINUOUS
 62
       1
100
AcDbLine
 10
-59.93683968
 20
141.0
 30
0.0
 11
-97.46460718
 21
141.0
 31
0.0
  0
LINE
  5
295
100
AcDbEntity
  8
D-STR
  6
CONTINUOUS
 62
       1
100
AcDbLine
 10
-41.17295593
 20
173.5
 30
0.0
 11
-59.93683968
 21
141.0
 31
0.0
  0
LINE
  5
296
100
AcDbEntity
  8
D-STR
  6
CONTINUOUS
 62
       1
100
AcDbLine
 10
-59.93683968
 20
206.0
 30
0.0
 11
-41.17295593
 21
173.5
 31
0.0
  0
CIRCLE
  5
297
100
AcDbEntity
  8
D-STR
  6
CONTINUOUS
 62
       7
100
AcDbCircle
 10
-78.70072343
 20
173.5
 30
0.0
 40
21.0
  0
LINE
  5
298
100
AcDbEntity
  8
D-BMK
  6
CENTER
 62
       2
100
AcDbLine
 10
-116.22849092
 20
173.5
 30
0.0
 11
-41.17295593
 21
173.5
 31
0.0
  0
LINE
  5
299
100
AcDbEntity
  8
D-BMK
  6
CENTER
 62
       2
100
AcDbLine
 10
-78.70072343
 20
141.0
 30
0.0
 11
-78.70072343
 21
206.0
 31
0.0
  0
ENDBLK
  5
29A
100
AcDbEntity
  8
0
100
AcDbBlockEnd
  0
BLOCK
  5
29B
100
AcDbEntity
  8
0
100
AcDbBlockBegin
  2
GROUP_36
 70
       0
 10
0.0
 20
0.0
 30
0.0
  3
GROUP_36
  1

  0
CIRCLE
  5
29C
100
AcDbEntity
  8
D-STR
  6
CONTINUOUS
 62
       1
100
AcDbCircle
 10
45.42958445
 20
191.5
 30
0.0
 40
21.2935
  0
CIRCLE
  5
29D
100
AcDbEntity
  8
D-STR
  6
CONTINUOUS
 62
       1
100
AcDbCircle
 10
45.42958445
 20
191.5
 30
0.0
 40
37.5
  0
LINE
  5
29E
100
AcDbEntity
  8
D-STR
  6
CONTINUOUS
 62
       1
100
AcDbLine
 10
23.77894935
 20
229.0
 30
0.0
 11
67.08021954
 21
229.0
 31
0.0
  0
LINE
  5
29F
100
AcDbEntity
  8
D-STR
  6
CONTINUOUS
 62
       1
100
AcDbLine
 10
2.12831426
 20
191.5
 30
0.0
 11
23.77894935
 21
229.0
 31
0.0
  0
LINE
  5
2A0
100
AcDbEntity
  8
D-STR
  6
CONTINUOUS
 62
       1
100
AcDbLine
 10
23.77894935
 20
154.0
 30
0.0
 11
2.12831426
 21
191.5
 31
0.0
  0
LINE
  5
2A1
100
AcDbEntity
  8
D-STR
  6
CONTINUOUS
 62
       1
100
AcDbLine
 10
67.08021954
 20
154.0
 30
0.0
 11
23.77894935
 21
154.0
 31
0.0
  0
LINE
  5
2A2
100
AcDbEntity
  8
D-STR
  6
CONTINUOUS
 62
       1
100
AcDbLine
 10
88.73085464
 20
191.5
 30
0.0
 11
67.08021954
 21
154.0
 31
0.0
  0
LINE
  5
2A3
100
AcDbEntity
  8
D-STR
  6
CONTINUOUS
 62
       1
100
AcDbLine
 10
67.08021954
 20
229.0
 30
0.0
 11
88.73085464
 21
191.5
 31
0.0
  0
CIRCLE
  5
2A4
100
AcDbEntity
  8
D-STR
  6
CONTINUOUS
 62
       7
100
AcDbCircle
 10
45.42958445
 20
191.5
 30
0.0
 40
24.0
  0
LINE
  5
2A5
100
AcDbEntity
  8
D-BMK
  6
CENTER
 62
       2
100
AcDbLine
 10
2.12831426
 20
191.5
 30
0.0
 11
88.73085464
 21
191.5
 31
0.0
  0
LINE
  5
2A6
100
AcDbEntity
  8
D-BMK
  6
CENTER
 62
       2
100
AcDbLine
 10
45.42958445
 20
154.0
 30
0.0
 11
45.42958445
 21
229.0
 31
0.0
  0
ENDBLK
  5
2A7
100
AcDbEntity
  8
0
100
AcDbBlockEnd
  0
BLOCK
  5
2A8
100
AcDbEntity
  8
0
100
AcDbBlockBegin
  2
GROUP_37
 70
       0
 10
0.0
 20
0.0
 30
0.0
  3
GROUP_37
  1

  0
CIRCLE
  5
2A9
100
AcDbEntity
  8
D-STR
  6
CONTINUOUS
 62
       1
100
AcDbCircle
 10
186.8804004
 20
210.5
 30
0.0
 40
25.023
  0
CIRCLE
  5
2AA
100
AcDbEntity
  8
D-STR
  6
CONTINUOUS
 62
       1
100
AcDbCircle
 10
186.8804004
 20
210.5
 30
0.0
 40
42.5
  0
LINE
  5
2AB
100
AcDbEntity
  8
D-STR
  6
CONTINUOUS
 62
       1
100
AcDbLine
 10
162.34301396
 20
253.0
 30
0.0
 11
211.41778684
 21
253.0
 31
0.0
  0
LINE
  5
2AC
100
AcDbEntity
  8
D-STR
  6
CONTINUOUS
 62
       1
100
AcDbLine
 10
137.80562752
 20
210.5
 30
0.0
 11
162.34301396
 21
253.0
 31
0.0
  0
LINE
  5
2AD
100
AcDbEntity
  8
D-STR
  6
CONTINUOUS
 62
       1
100
AcDbLine
 10
162.34301396
 20
168.0
 30
0.0
 11
137.80562752
 21
210.5
 31
0.0
  0
LINE
  5
2AE
100
AcDbEntity
  8
D-STR
  6
CONTINUOUS
 62
       1
100
AcDbLine
 10
211.41778684
 20
168.0
 30
0.0
 11
162.34301396
 21
168.0
 31
0.0
  0
LINE
  5
2AF
100
AcDbEntity
  8
D-STR
  6
CONTINUOUS
 62
       1
100
AcDbLine
 10
235.95517328
 20
210.5
 30
0.0
 11
211.41778684
 21
168.0
 31
0.0
  0
LINE
  5
2B0
100
AcDbEntity
  8
D-STR
  6
CONTINUOUS
 62
       1
100
AcDbLine
 10
211.41778684
 20
253.0
 30
0.0
 11
235.95517328
 21
210.5
 31
0.0
  0
CIRCLE
  5
2B1
100
AcDbEntity
  8
D-STR
  6
CONTINUOUS
 62
       7
100
AcDbCircle
 10
186.8804004
 20
210.5
 30
0.0
 40
28.0
  0
LINE
  5
2B2
100
AcDbEntity
  8
D-BMK
  6
CENTER
 62
       2
100
AcDbLine
 10
186.8804004
 20
168.0
 30
0.0
 11
186.8804004
 21
253.0
 31
0.0
  0
LINE
  5
2B3
100
AcDbEntity
  8
D-BMK
  6
CENTER
 62
       2
100
AcDbLine
 10
137.80562752
 20
210.5
 30
0.0
 11
235.95517328
 21
210.5
 31
0.0
  0
ENDBLK
  5
2B4
100
AcDbEntity
  8
0
100
AcDbBlockEnd
  0
BLOCK
  5
2B5
100
AcDbEntity
  8
0
100
AcDbBlockBegin
  2
GROUP_38
 70
       0
 10
0.0
 20
0.0
 30
0.0
  3
GROUP_38
  1

  0
CIRCLE
  5
2B6
100
AcDbEntity
  8
D-STR
  6
CONTINUOUS
 62
       1
100
AcDbCircle
 10
345.65172443
 20
229.5
 30
0.0
 40
28.7525
  0
CIRCLE
  5
2B7
100
AcDbEntity
  8
D-STR
  6
CONTINUOUS
 62
       1
100
AcDbCircle
 10
345.65172443
 20
229.5
 30
0.0
 40
47.5
  0
LINE
  5
2B8
100
AcDbEntity
  8
D-STR
  6
CONTINUOUS
 62
       1
100
AcDbLine
 10
318.22758664
 20
277.0
 30
0.0
 11
373.07586221
 21
277.0
 31
0.0
  0
LINE
  5
2B9
100
AcDbEntity
  8
D-STR
  6
CONTINUOUS
 62
       1
100
AcDbLine
 10
290.80344885
 20
229.5
 30
0.0
 11
318.22758664
 21
277.0
 31
0.0
  0
LINE
  5
2BA
100
AcDbEntity
  8
D-STR
  6
CONTINUOUS
 62
       1
100
AcDbLine
 10
318.22758664
 20
182.0
 30
0.0
 11
290.80344885
 21
229.5
 31
0.0
  0
LINE
  5
2BB
100
AcDbEntity
  8
D-STR
  6
CONTINUOUS
 62
       1
100
AcDbLine
 10
373.07586221
 20
182.0
 30
0.0
 11
318.22758664
 21
182.0
 31
0.0
  0
LINE
  5
2BC
100
AcDbEntity
  8
D-STR
  6
CONTINUOUS
 62
       1
100
AcDbLine
 10
400.5
 20
229.5
 30
0.0
 11
373.07586221
 21
182.0
 31
0.0
  0
LINE
  5
2BD
100
AcDbEntity
  8
D-STR
  6
CONTINUOUS
 62
       1
100
AcDbLine
 10
373.07586221
 20
277.0
 30
0.0
 11
400.5
 21
229.5
 31
0.0
  0
CIRCLE
  5
2BE
100
AcDbEntity
  8
D-STR
  6
CONTINUOUS
 62
       7
100
AcDbCircle
 10
345.65172443
 20
229.5
 30
0.0
 40
32.0
  0
LINE
  5
2BF
100
AcDbEntity
  8
D-BMK
  6
CENTER
 62
       2
100
AcDbLine
 10
290.80344885
 20
229.5
 30
0.0
 11
400.5
 21
229.5
 31
0.0
  0
LINE
  5
2C0
100
AcDbEntity
  8
D-BMK
  6
CENTER
 62
       2
100
AcDbLine
 10
345.65172443
 20
182.0
 30
0.0
 11
345.65172443
 21
277.0
 31
0.0
  0
ENDBLK
  5
2C1
100
AcDbEntity
  8
0
100
AcDbBlockEnd
  0
ENDSEC
  0
SECTION
  2
ENTITIES
  0
INSERT
  5
2C2
100
AcDbEntity
  8
0
  6
CONTINUOUS
100
AcDbBlockReference
  2
GROUP_1
 10
0.0
 20
0.0
 30
0.0
  0
INSERT
  5
2C3
100
AcDbEntity
  8
0
  6
CONTINUOUS
100
AcDbBlockReference
  2
GROUP_2
 10
0.0
 20
0.0
 30
0.0
  0
INSERT
  5
2C4
100
AcDbEntity
  8
0
  6
CONTINUOUS
100
AcDbBlockReference
  2
GROUP_3
 10
0.0
 20
0.0
 30
0.0
  0
INSERT
  5
2C5
100
AcDbEntity
  8
0
  6
CONTINUOUS
100
AcDbBlockReference
  2
GROUP_4
 10
0.0
 20
0.0
 30
0.0
  0
INSERT
  5
2C6
100
AcDbEntity
  8
0
  6
CONTINUOUS
100
AcDbBlockReference
  2
GROUP_5
 10
0.0
 20
0.0
 30
0.0
  0
INSERT
  5
2C7
100
AcDbEntity
  8
0
  6
CONTINUOUS
100
AcDbBlockReference
  2
GROUP_6
 10
0.0
 20
0.0
 30
0.0
  0
INSERT
  5
2C8
100
AcDbEntity
  8
0
  6
CONTINUOUS
100
AcDbBlockReference
  2
GROUP_7
 10
0.0
 20
0.0
 30
0.0
  0
INSERT
  5
2C9
100
AcDbEntity
  8
0
  6
CONTINUOUS
100
AcDbBlockReference
  2
GROUP_8
 10
0.0
 20
0.0
 30
0.0
  0
INSERT
  5
2CA
100
AcDbEntity
  8
0
  6
CONTINUOUS
100
AcDbBlockReference
  2
GROUP_9
 10
0.0
 20
0.0
 30
0.0
  0
INSERT
  5
2CB
100
AcDbEntity
  8
0
  6
CONTINUOUS
100
AcDbBlockReference
  2
GROUP_10
 10
0.0
 20
0.0
 30
0.0
  0
INSERT
  5
2CC
100
AcDbEntity
  8
0
  6
CONTINUOUS
100
AcDbBlockReference
  2
GROUP_11
 10
0.0
 20
0.0
 30
0.0
  0
INSERT
  5
2CD
100
AcDbEntity
  8
0
  6
CONTINUOUS
100
AcDbBlockReference
  2
GROUP_12
 10
0.0
 20
0.0
 30
0.0
  0
INSERT
  5
2CE
100
AcDbEntity
  8
0
  6
CONTINUOUS
100
AcDbBlockReference
  2
GROUP_13
 10
0.0
 20
0.0
 30
0.0
  0
INSERT
  5
2CF
100
AcDbEntity
  8
0
  6
CONTINUOUS
100
AcDbBlockReference
  2
GROUP_14
 10
0.0
 20
0.0
 30
0.0
  0
INSERT
  5
2D0
100
AcDbEntity
  8
0
  6
CONTINUOUS
100
AcDbBlockReference
  2
GROUP_15
 10
0.0
 20
0.0
 30
0.0
  0
INSERT
  5
2D1
100
AcDbEntity
  8
0
  6
CONTINUOUS
100
AcDbBlockReference
  2
GROUP_16
 10
0.0
 20
0.0
 30
0.0
  0
INSERT
  5
2D2
100
AcDbEntity
  8
0
  6
CONTINUOUS
100
AcDbBlockReference
  2
GROUP_17
 10
0.0
 20
0.0
 30
0.0
  0
INSERT
  5
2D3
100
AcDbEntity
  8
0
  6
CONTINUOUS
100
AcDbBlockReference
  2
GROUP_18
 10
0.0
 20
0.0
 30
0.0
  0
INSERT
  5
2D4
100
AcDbEntity
  8
0
  6
CONTINUOUS
100
AcDbBlockReference
  2
GROUP_19
 10
0.0
 20
0.0
 30
0.0
  0
INSERT
  5
2D5
100
AcDbEntity
  8
0
  6
CONTINUOUS
100
AcDbBlockReference
  2
GROUP_20
 10
0.0
 20
0.0
 30
0.0
  0
INSERT
  5
2D6
100
AcDbEntity
  8
0
  6
CONTINUOUS
100
AcDbBlockReference
  2
GROUP_21
 10
0.0
 20
0.0
 30
0.0
  0
INSERT
  5
2D7
100
AcDbEntity
  8
0
  6
CONTINUOUS
100
AcDbBlockReference
  2
GROUP_22
 10
0.0
 20
0.0
 30
0.0
  0
INSERT
  5
2D8
100
AcDbEntity
  8
0
  6
CONTINUOUS
100
AcDbBlockReference
  2
GROUP_23
 10
0.0
 20
0.0
 30
0.0
  0
INSERT
  5
2D9
100
AcDbEntity
  8
0
  6
CONTINUOUS
100
AcDbBlockReference
  2
GROUP_24
 10
0.0
 20
0.0
 30
0.0
  0
INSERT
  5
2DA
100
AcDbEntity
  8
0
  6
CONTINUOUS
100
AcDbBlockReference
  2
GROUP_25
 10
0.0
 20
0.0
 30
0.0
  0
INSERT
  5
2DB
100
AcDbEntity
  8
0
  6
CONTINUOUS
100
AcDbBlockReference
  2
GROUP_26
 10
0.0
 20
0.0
 30
0.0
  0
INSERT
  5
2DC
100
AcDbEntity
  8
0
  6
CONTINUOUS
100
AcDbBlockReference
  2
GROUP_27
 10
0.0
 20
0.0
 30
0.0
  0
INSERT
  5
2DD
100
AcDbEntity
  8
0
  6
CONTINUOUS
100
AcDbBlockReference
  2
GROUP_28
 10
0.0
 20
0.0
 30
0.0
  0
INSERT
  5
2DE
100
AcDbEntity
  8
0
  6
CONTINUOUS
100
AcDbBlockReference
  2
GROUP_29
 10
0.0
 20
0.0
 30
0.0
  0
INSERT
  5
2DF
100
AcDbEntity
  8
0
  6
CONTINUOUS
100
AcDbBlockReference
  2
GROUP_30
 10
0.0
 20
0.0
 30
0.0
  0
INSERT
  5
2E0
100
AcDbEntity
  8
0
  6
CONTINUOUS
100
AcDbBlockReference
  2
GROUP_31
 10
0.0
 20
0.0
 30
0.0
  0
INSERT
  5
2E1
100
AcDbEntity
  8
0
  6
CONTINUOUS
100
AcDbBlockReference
  2
GROUP_32
 10
0.0
 20
0.0
 30
0.0
  0
INSERT
  5
2E2
100
AcDbEntity
  8
0
  6
CONTINUOUS
100
AcDbBlockReference
  2
GROUP_33
 10
0.0
 20
0.0
 30
0.0
  0
INSERT
  5
2E3
100
AcDbEntity
  8
0
  6
CONTINUOUS
100
AcDbBlockReference
  2
GROUP_34
 10
0.0
 20
0.0
 30
0.0
  0
INSERT
  5
2E4
100
AcDbEntity
  8
0
  6
CONTINUOUS
100
AcDbBlockReference
  2
GROUP_35
 10
0.0
 20
0.0
 30
0.0
  0
INSERT
  5
2E5
100
AcDbEntity
  8
0
  6
CONTINUOUS
100
AcDbBlockReference
  2
GROUP_36
 10
0.0
 20
0.0
 30
0.0
  0
INSERT
  5
2E6
100
AcDbEntity
  8
0
  6
CONTINUOUS
100
AcDbBlockReference
  2
GROUP_37
 10
0.0
 20
0.0
 30
0.0
  0
INSERT
  5
2E7
100
AcDbEntity
  8
0
  6
CONTINUOUS
100
AcDbBlockReference
  2
GROUP_38
 10
0.0
 20
0.0
 30
0.0
  0
TEXT
  5
2E8
100
AcDbEntity
  8
D-STR-TXT
 62
       7
100
AcDbText
 10
-400.5
 20
273.5
 30
0.0
 40
3.5
  1
六角低ナット並目第1選択
 41
1.2
 72
       5
 11
-352.2
 21
273.5
 31
0.0
100
AcDbText
  0
TEXT
  5
2E9
100
AcDbEntity
  8
D-STR-TXT
 62
       7
100
AcDbText
 10
-400.5
 20
269.0
 30
0.0
 40
3.5
  1
M1.6,M2,M2.5,M3,M4,M5,M6,M8,M10,M12,M16,M20,M24,M30,M36,M42,M48,M56,M64
 41
1.2
 72
       5
 11
-251.4
 21
269.0
 31
0.0
100
AcDbText
  0
ENDSEC
  0
SECTION
  2
OBJECTS
  0
DICTIONARY
  5
19
100
AcDbDictionary
  3
ACAD_GROUP
350
1A
  3
ACAD_MLINESTYLE
350
1B
  0
DICTIONARY
  5
1A
102
{ACAD_REACTORS
330
19
102
}
100
AcDbDictionary
  0
DICTIONARY
  5
1B
102
{ACAD_REACTORS
330
19
102
}
100
AcDbDictionary
  3
STANDARD
350
1C
  0
MLINESTYLE
  5
1C
102
{ACAD_REACTORS
330
1B
102
}
100
AcDbMlineStyle
  2
STANDARD
 70
       0
  3

 62
       0
 51
90.0
 52
90.0
 71
       2
 49
0.5
 62
     256
  6
BYLAYER
 49
-0.5
 62
     256
  6
BYLAYER
  0
ENDSEC
  0
EOF
