  0
SECTION
  2
HEADER
  9
$ACADVER
  1
AC1014
  9
$ACADMAINTVER
 70
       0
  9
$DWGCODEPAGE
  3
ANSI_932
  9
$INSBASE
 10
0.0
 20
0.0
 30
0.0
  9
$EXTMIN
 10
-416.52
 20
-288.08
 30
0.0
  9
$EXTMAX
 10
416.52
 20
288.08
 30
0.0
  9
$LIMMIN
 10
-442.5525
 20
-306.085
  9
$LIMMAX
 10
442.5525
 20
306.085
  9
$ORTHOMODE
 70
       0
  9
$REGENMODE
 70
       1
  9
$FILLMODE
 70
       1
  9
$QTEXTMODE
 70
       0
  9
$MIRRTEXT
 70
       1
  9
$DRAGMODE
 70
       2
  9
$LTSCALE
 40
1.0
  9
$OSMODE
 70
       0
  9
$ATTMODE
 70
       1
  9
$TEXTSIZE
 40
0.2
  9
$TRACEWID
 40
0.05
  9
$TEXTSTYLE
  7
STANDARD
  9
$CLAYER
  8
0
  9
$CELTYPE
  6
CONTINUOUS
  9
$CECOLOR
 62
     256
  9
$CELTSCALE
 40
1.0
  9
$DELOBJ
 70
       1
  9
$DISPSILH
 70
       0
  9
$DIMSCALE
 40
1.0
  9
$DIMASZ
 40
0.18
  9
$DIMEXO
 40
0.0625
  9
$DIMDLI
 40
0.38
  9
$DIMRND
 40
0.0
  9
$DIMDLE
 40
0.0
  9
$DIMEXE
 40
0.18
  9
$DIMTP
 40
0.0
  9
$DIMTM
 40
0.0
  9
$DIMTXT
 40
0.18
  9
$DIMCEN
 40
0.09
  9
$DIMTSZ
 40
0.0
  9
$DIMTOL
 70
       0
  9
$DIMLIM
 70
       0
  9
$DIMTIH
 70
       1
  9
$DIMTOH
 70
       1
  9
$DIMSE1
 70
       0
  9
$DIMSE2
 70
       0
  9
$DIMTAD
 70
       0
  9
$DIMZIN
 70
       0
  9
$DIMBLK
  1

  9
$DIMASO
 70
       1
  9
$DIMSHO
 70
       1
  9
$DIMPOST
  1

  9
$DIMAPOST
  1

  9
$DIMALT
 70
       0
  9
$DIMALTD
 70
       2
  9
$DIMALTF
 40
25.4
  9
$DIMLFAC
 40
1.0
  9
$DIMTOFL
 70
       0
  9
$DIMTVP
 40
0.0
  9
$DIMTIX
 70
       0
  9
$DIMSOXD
 70
       0
  9
$DIMSAH
 70
       0
  9
$DIMBLK1
  1

  9
$DIMBLK2
  1

  9
$DIMSTYLE
  2
STANDARD
  9
$DIMCLRD
 70
       0
  9
$DIMCLRE
 70
       0
  9
$DIMCLRT
 70
       0
  9
$DIMTFAC
 40
1.0
  9
$DIMGAP
 40
0.09
  9
$DIMJUST
 70
       0
  9
$DIMSD1
 70
       0
  9
$DIMSD2
 70
       0
  9
$DIMTOLJ
 70
       1
  9
$DIMTZIN
 70
       0
  9
$DIMALTZ
 70
       0
  9
$DIMALTTZ
 70
       0
  9
$DIMFIT
 70
       3
  9
$DIMUPT
 70
       0
  9
$DIMUNIT
 70
       2
  9
$DIMDEC
 70
       4
  9
$DIMTDEC
 70
       4
  9
$DIMALTU
 70
       2
  9
$DIMALTTD
 70
       2
  9
$DIMTXSTY
  7
STANDARD
  9
$DIMAUNIT
 70
       0
  9
$LUNITS
 70
       2
  9
$LUPREC
 70
       4
  9
$SKETCHINC
 40
0.1
  9
$FILLETRAD
 40
0.0
  9
$AUNITS
 70
       0
  9
$AUPREC
 70
       0
  9
$MENU
  1
acad
  9
$ELEVATION
 40
0.0
  9
$PELEVATION
 40
0.0
  9
$THICKNESS
 40
0.0
  9
$LIMCHECK
 70
       0
  9
$BLIPMODE
 70
       1
  9
$CHAMFERA
 40
0.0
  9
$CHAMFERB
 40
0.0
  9
$CHAMFERC
 40
0.0
  9
$CHAMFERD
 40
0.0
  9
$SKPOLY
 70
       0
  9
$TDCREATE
 40
0.000000000
  9
$TDUPDATE
 40
0.000000000
  9
$TDINDWG
 40
0.0000000000
  9
$TDUSRTIMER
 40
0.0000000000
  9
$USRTIMER
 70
       1
  9
$ANGBASE
 50
0.0
  9
$ANGDIR
 70
       0
  9
$PDMODE
 70
       0
  9
$PDSIZE
 40
1.0
  9
$PLINEWID
 40
0.0
  9
$COORDS
 70
       1
  9
$SPLFRAME
 70
       0
  9
$SPLINETYPE
 70
       6
  9
$SPLINESEGS
 70
       8
  9
$ATTDIA
 70
       0
  9
$ATTREQ
 70
       1
  9
$HANDLING
 70
       1
  9
$HANDSEED
  5
1A6
  9
$SURFTAB1
 70
       6
  9
$SURFTAB2
 70
       6
  9
$SURFTYPE
 70
       6
  9
$SURFU
 70
       6
  9
$SURFV
 70
       6
  9
$UCSNAME
  2

  9
$UCSORG
 10
0.0
 20
0.0
 30
0.0
  9
$UCSXDIR
 10
1.0
 20
0.0
 30
0.0
  9
$UCSYDIR
 10
0.0
 20
1.0
 30
0.0
  9
$PUCSNAME
  2

  9
$PUCSORG
 10
0.0
 20
0.0
 30
0.0
  9
$PUCSXDIR
 10
1.0
 20
0.0
 30
0.0
  9
$PUCSYDIR
 10
0.0
 20
1.0
 30
0.0
  9
$USERI1
 70
       0
  9
$USERI2
 70
       0
  9
$USERI3
 70
       0
  9
$USERI4
 70
       0
  9
$USERI5
 70
       0
  9
$USERR1
 40
0.0
  9
$USERR2
 40
0.0
  9
$USERR3
 40
0.0
  9
$USERR4
 40
0.0
  9
$USERR5
 40
0.0
  9
$WORLDVIEW
 70
       1
  9
$SHADEDGE
 70
       3
  9
$SHADEDIF
 70
      70
  9
$TILEMODE
 70
       1
  9
$MAXACTVP
 70
      16
  9
$PINSBASE
 10
0.0
 20
0.0
 30
0.0
  9
$PLIMCHECK
 70
       0
  9
$PEXTMIN
 10
1.00000000E+20
 20
1.00000000E+20
 30
1.00000000E+20
  9
$PEXTMAX
 10
-1.00000000E+20
 20
-1.00000000E+20
 30
-1.00000000E+20
  9
$PLIMMIN
 10
0.0
 20
0.0
  9
$PLIMMAX
 10
12.0
 20
9.0
  9
$UNITMODE
 70
       0
  9
$VISRETAIN
 70
       0
  9
$PLINEGEN
 70
       1
  9
$PSLTSCALE
 70
       0
  9
$TREEDEPTH
 70
    3020
  9
$PICKSTYLE
 70
       1
  9
$CMLSTYLE
  2
STANDARD
  9
$CMLJUST
 70
       0
  9
$CMLSCALE
 40
1.0
  9
$PROXYGRAPHICS
 70
       0
  9
$MEASUREMENT
 70
       0
  0
ENDSEC
  0
SECTION
  2
CLASSES
  0
CLASS
  1
LWPOLYLINE
  2
AcDbPolyline
  3
"AutoCAD"
 90
        0
280
       0
281
       1
  0
CLASS
  1
IMAGE
  2
AcDbRasterImage
  3
ISM
 90
      127
280
       0
281
       1
  0
CLASS
  1
OLE2FRAME
  2
AcDbOle2Frame
  3
""
 90
        0
280
       0
281
       1
  0
CLASS
  1
HATCH
  2
AcDbHatch
  3
"ACAD_SEDONA"
 90
        0
280
       0
281
       1
  0
CLASS
  1
DICTIONARYVAR
  2
AcDbDictionaryVar
  3
"AutoCAD"
 90
        0
280
       0
281
       0
  0
CLASS
  1
RASTERVARIABLES
  2
AcDbRasterVariables
  3
ISM
 90
        0
280
       0
281
       0
  0
CLASS
  1
IMAGEDEF
  2
AcDbRasterImageDef
  3
ISM
 90
        0
280
       0
281
       0
  0
CLASS
  1
IMAGEDEF_REACTOR
  2
AcDbRasterImageDefReactor
  3
ISM
 90
        1
280
       0
281
       0
  0
CLASS
  1
IDBUFFER
  2
AcDbIdBuffer
  3
"Acad"
 90
        0
280
       0
281
       0
  0
CLASS
  1
SPATIAL_FILTER
  2
AcDbSpatialFilter
  3
"Acad"
 90
        0
280
       0
281
       0
  0
CLASS
  1
XRECORD
  2
AcDbXrecord
  3
"<Built In>"
 90
        0
280
       0
281
       0
  0
CLASS
  1
SORTENTSTABLE
  2
AcDbSortentsTable
  3
"AutoCAD"
 90
        0
280
       0
281
       0
  0
CLASS
  1
LAYER_INDEX
  2
AcDbLayerIndex
  3
"Acad"
 90
        0
280
       0
281
       0
  0
CLASS
  1
SPATIAL_INDEX
  2
AcDbSpatialIndex
  3
"Acad"
 90
        0
280
       0
281
       0
  0
CLASS
  1
OBJECT_PTR
  2
CAseDLPNTableRecord
  3
"ASE-LPNTableRecord"
 90
        1
280
       0
281
       0
  0
CLASS
  1
LAYOUT
  2
AcDbLayout
  3
"AutoCAD 2000"
 90
        1
280
       0
281
       0
  0
CLASS
  1
PLOTSETTINGS
  2
AcDbPlotSettings
  3
"AutoCAD 2000"
 90
        1
280
       0
281
       0
  0
CLASS
  1
ACDBDICTIONARYWDFLT
  2
AcDbDictionaryWithDefault
  3
"AutoCAD 2000"
 90
        1
280
       0
281
       0
  0
CLASS
  1
ACDBPLACEHOLDER
  2
AcDbPlaceHolder
  3
"AutoCAD 2000"
 90
        1
280
       0
281
       0
  0
CLASS
  1
VBA_PROJECT
  2
AcDbVbaProject
  3
"acadvba"
 90
        1
280
       0
281
       0
  0
CLASS
  1
WIPEOUT
  2
AcDbWipeout
  3
WipeOut|AutoCAD Express Tool|expresstools@autodesk.com
 90
      127
280
       0
281
       1
  0
CLASS
  1
WIPEOUTVARIABLES
  2
AcDbWipeoutVariables
  3
WipeOut|AutoCAD Express Tool|expresstools@autodesk.com
 90
        0
280
       0
281
       0
  0
CLASS
  1
RTEXT
  2
RText
  3
RText|AutoCAD Express Tool|expresstools@autodesk.com
 90
        0
280
       0
281
       1
  0
CLASS
  1
ARCALIGNEDTEXT
  2
AcDbArcAlignedText
  3
ATEXT|AutoCAD Express Tool|expresstools@autodesk.com
 90
        0
280
       0
281
       1
  0
ENDSEC
  0
SECTION
  2
TABLES
  0
TABLE
  2
VPORT
  5
7
100
AcDbSymbolTable
 70
       1
  0
VPORT
  5
15
100
AcDbSymbolTableRecord
100
AcDbViewportTableRecord
  2
*ACTIVE
 70
       0
 10
0.0
 20
0.0
 11
1.0
 21
1.0
 12
0.0
 22
0.0
 13
0.0
 23
0.0
 14
1.0
 24
1.0
 15
0.0
 25
0.0
 16
0.0
 26
0.0
 36
1.0
 17
0.0
 27
0.0
 37
0.0
 40
612.17
 41
1.44584838
 42
50.0
 43
0.0
 44
0.0
 50
0.0
 51
0.0
 71
       0
 72
     100
 73
       1
 74
       1
 75
       0
 76
       0
 77
       0
 78
       0
  0
ENDTAB
  0
TABLE
  2
LTYPE
  5
4
100
AcDbSymbolTable
 70
      30
  0
LTYPE
  5
11
100
AcDbSymbolTableRecord
100
AcDbLinetypeTableRecord
  2
BYBLOCK
 70
      64
  3

 72
      65
 73
       0
 40
0.0
  0
LTYPE
  5
12
100
AcDbSymbolTableRecord
100
AcDbLinetypeTableRecord
  2
BYLAYER
 70
      64
  3

 72
      65
 73
       0
 40
0.0
  0
LTYPE
  5
13
100
AcDbSymbolTableRecord
100
AcDbLinetypeTableRecord
  2
CONTINUOUS
 70
      64
  3
Solid line
 72
      65
 73
       0
 40
0.0
  0
LTYPE
  5
1D
100
AcDbSymbolTableRecord
100
AcDbLinetypeTableRecord
  2
HIDDENX2
 70
      64
  3
CADPAC LINETYPE
 72
      65
 73
       2
 40
33.64
 49
25.23
 74
       0
 49
-8.41
 74
       0
  0
LTYPE
  5
1E
100
AcDbSymbolTableRecord
100
AcDbLinetypeTableRecord
  2
HIDDEN
 70
      64
  3
CADPAC LINETYPE
 72
      65
 73
       2
 40
25.23
 49
16.82
 74
       0
 49
-8.41
 74
       0
  0
LTYPE
  5
1F
100
AcDbSymbolTableRecord
100
AcDbLinetypeTableRecord
  2
HIDDEN2
 70
      64
  3
CADPAC LINETYPE
 72
      65
 73
       2
 40
21.025
 49
12.615
 74
       0
 49
-8.41
 74
       0
  0
LTYPE
  5
20
100
AcDbSymbolTableRecord
100
AcDbLinetypeTableRecord
  2
DASHED
 70
      64
  3
CADPAC LINETYPE
 72
      65
 73
       2
 40
25.23
 49
16.82
 74
       0
 49
-8.41
 74
       0
  0
LTYPE
  5
21
100
AcDbSymbolTableRecord
100
AcDbLinetypeTableRecord
  2
DASHED2
 70
      64
  3
CADPAC LINETYPE
 72
      65
 73
       2
 40
18.9225
 49
12.615
 74
       0
 49
-6.3075
 74
       0
  0
LTYPE
  5
22
100
AcDbSymbolTableRecord
100
AcDbLinetypeTableRecord
  2
DASHEDX2
 70
      64
  3
CADPAC LINETYPE
 72
      65
 73
       2
 40
37.845
 49
25.23
 74
       0
 49
-12.615
 74
       0
  0
LTYPE
  5
23
100
AcDbSymbolTableRecord
100
AcDbLinetypeTableRecord
  2
DOTX2
 70
      64
  3
CADPAC LINETYPE
 72
      65
 73
       2
 40
10.5125
 49
0.0
 74
       0
 49
-10.5125
 74
       0
  0
LTYPE
  5
24
100
AcDbSymbolTableRecord
100
AcDbLinetypeTableRecord
  2
DOT
 70
      64
  3
CADPAC LINETYPE
 72
      65
 73
       2
 40
8.41
 49
0.0
 74
       0
 49
-8.41
 74
       0
  0
LTYPE
  5
25
100
AcDbSymbolTableRecord
100
AcDbLinetypeTableRecord
  2
DOT2
 70
      64
  3
CADPAC LINETYPE
 72
      65
 73
       2
 40
6.3075
 49
0.0
 74
       0
 49
-6.3075
 74
       0
  0
LTYPE
  5
26
100
AcDbSymbolTableRecord
100
AcDbLinetypeTableRecord
  2
CENTERX2
 70
      64
  3
CADPAC LINETYPE
 72
      65
 73
       4
 40
50.46
 49
21.025
 74
       0
 49
-10.5125
 74
       0
 49
8.41
 74
       0
 49
-10.5125
 74
       0
  0
LTYPE
  5
27
100
AcDbSymbolTableRecord
100
AcDbLinetypeTableRecord
  2
CENTER
 70
      64
  3
CADPAC LINETYPE
 72
      65
 73
       4
 40
38.686
 49
16.82
 74
       0
 49
-8.41
 74
       0
 49
5.046
 74
       0
 49
-8.41
 74
       0
  0
LTYPE
  5
28
100
AcDbSymbolTableRecord
100
AcDbLinetypeTableRecord
  2
CENTER2
 70
      64
  3
CADPAC LINETYPE
 72
      65
 73
       4
 40
26.912
 49
12.615
 74
       0
 49
-6.3075
 74
       0
 49
1.682
 74
       0
 49
-6.3075
 74
       0
  0
LTYPE
  5
29
100
AcDbSymbolTableRecord
100
AcDbLinetypeTableRecord
  2
DASHDOTX2
 70
      64
  3
CADPAC LINETYPE
 72
      65
 73
       4
 40
42.05
 49
21.025
 74
       0
 49
-10.5125
 74
       0
 49
0.0
 74
       0
 49
-10.5125
 74
       0
  0
LTYPE
  5
2A
100
AcDbSymbolTableRecord
100
AcDbLinetypeTableRecord
  2
DASHDOT
 70
      64
  3
CADPAC LINETYPE
 72
      65
 73
       4
 40
33.64
 49
16.82
 74
       0
 49
-8.41
 74
       0
 49
0.0
 74
       0
 49
-8.41
 74
       0
  0
LTYPE
  5
2B
100
AcDbSymbolTableRecord
100
AcDbLinetypeTableRecord
  2
DASHDOT2
 70
      64
  3
CADPAC LINETYPE
 72
      65
 73
       4
 40
25.23
 49
12.615
 74
       0
 49
-6.3075
 74
       0
 49
0.0
 74
       0
 49
-6.3075
 74
       0
  0
LTYPE
  5
2C
100
AcDbSymbolTableRecord
100
AcDbLinetypeTableRecord
  2
DIVIDEX2
 70
      64
  3
CADPAC LINETYPE
 72
      65
 73
       6
 40
52.5625
 49
21.025
 74
       0
 49
-10.5125
 74
       0
 49
0.0
 74
       0
 49
-10.5125
 74
       0
 49
0.0
 74
       0
 49
-10.5125
 74
       0
  0
LTYPE
  5
2D
100
AcDbSymbolTableRecord
100
AcDbLinetypeTableRecord
  2
DIVIDE
 70
      64
  3
CADPAC LINETYPE
 72
      65
 73
       6
 40
42.05
 49
16.82
 74
       0
 49
-8.41
 74
       0
 49
0.0
 74
       0
 49
-8.41
 74
       0
 49
0.0
 74
       0
 49
-8.41
 74
       0
  0
LTYPE
  5
2E
100
AcDbSymbolTableRecord
100
AcDbLinetypeTableRecord
  2
DIVIDE2
 70
      64
  3
CADPAC LINETYPE
 72
      65
 73
       6
 40
31.5375
 49
12.615
 74
       0
 49
-6.3075
 74
       0
 49
0.0
 74
       0
 49
-6.3075
 74
       0
 49
0.0
 74
       0
 49
-6.3075
 74
       0
  0
LTYPE
  5
2F
100
AcDbSymbolTableRecord
100
AcDbLinetypeTableRecord
  2
BORDERX2
 70
      64
  3
CADPAC LINETYPE
 72
      65
 73
       6
 40
73.5875
 49
21.025
 74
       0
 49
-10.5125
 74
       0
 49
21.025
 74
       0
 49
-10.5125
 74
       0
 49
0.0
 74
       0
 49
-10.5125
 74
       0
  0
LTYPE
  5
30
100
AcDbSymbolTableRecord
100
AcDbLinetypeTableRecord
  2
BORDER
 70
      64
  3
CADPAC LINETYPE
 72
      65
 73
       6
 40
58.87
 49
16.82
 74
       0
 49
-8.41
 74
       0
 49
16.82
 74
       0
 49
-8.41
 74
       0
 49
0.0
 74
       0
 49
-8.41
 74
       0
  0
LTYPE
  5
31
100
AcDbSymbolTableRecord
100
AcDbLinetypeTableRecord
  2
BORDER2
 70
      64
  3
CADPAC LINETYPE
 72
      65
 73
       6
 40
44.1525
 49
12.615
 74
       0
 49
-6.3075
 74
       0
 49
12.615
 74
       0
 49
-6.3075
 74
       0
 49
0.0
 74
       0
 49
-6.3075
 74
       0
  0
LTYPE
  5
32
100
AcDbSymbolTableRecord
100
AcDbLinetypeTableRecord
  2
PHANTOMX2
 70
      64
  3
CADPAC LINETYPE
 72
      65
 73
       6
 40
63.075
 49
21.025
 74
       0
 49
-8.41
 74
       0
 49
8.41
 74
       0
 49
-8.41
 74
       0
 49
8.41
 74
       0
 49
-8.41
 74
       0
  0
LTYPE
  5
33
100
AcDbSymbolTableRecord
100
AcDbLinetypeTableRecord
  2
PHANTOM
 70
      64
  3
CADPAC LINETYPE
 72
      65
 73
       6
 40
52.142
 49
16.82
 74
       0
 49
-8.41
 74
       0
 49
5.046
 74
       0
 49
-8.41
 74
       0
 49
5.046
 74
       0
 49
-8.41
 74
       0
  0
LTYPE
  5
34
100
AcDbSymbolTableRecord
100
AcDbLinetypeTableRecord
  2
PHANTOM2
 70
      64
  3
CADPAC LINETYPE
 72
      65
 73
       6
 40
44.573
 49
12.615
 74
       0
 49
-8.41
 74
       0
 49
3.364
 74
       0
 49
-8.41
 74
       0
 49
3.364
 74
       0
 49
-8.41
 74
       0
  0
LTYPE
  5
35
100
AcDbSymbolTableRecord
100
AcDbLinetypeTableRecord
  2
ACAD_ISO06W100
 70
      64
  3
CADPAC LINETYPE
 72
      65
 73
       8
 40
56.7675
 49
21.025
 74
       0
 49
-10.5125
 74
       0
 49
0.0
 74
       0
 49
-8.41
 74
       0
 49
0.0
 74
       0
 49
-8.41
 74
       0
 49
0.0
 74
       0
 49
-8.41
 74
       0
  0
LTYPE
  5
36
100
AcDbSymbolTableRecord
100
AcDbLinetypeTableRecord
  2
ACAD_ISO13W100
 70
      64
  3
CADPAC LINETYPE
 72
      65
 73
       8
 40
67.28
 49
16.82
 74
       0
 49
-8.41
 74
       0
 49
16.82
 74
       0
 49
-8.41
 74
       0
 49
0.0
 74
       0
 49
-8.41
 74
       0
 49
0.0
 74
       0
 49
-8.41
 74
       0
  0
LTYPE
  5
37
100
AcDbSymbolTableRecord
100
AcDbLinetypeTableRecord
  2
ACAD_ISO14W100
 70
      64
  3
CADPAC LINETYPE
 72
      65
 73
       8
 40
50.46
 49
16.82
 74
       0
 49
-8.41
 74
       0
 49
0.0
 74
       0
 49
-8.41
 74
       0
 49
0.0
 74
       0
 49
-8.41
 74
       0
 49
0.0
 74
       0
 49
-8.41
 74
       0
  0
ENDTAB
  0
TABLE
  2
LAYER
  5
2
100
AcDbSymbolTable
 70
       4
  0
LAYER
  5
14
100
AcDbSymbolTableRecord
100
AcDbLayerTableRecord
  2
0
 70
       0
 62
       7
  6
CONTINUOUS
  0
LAYER
  5
38
100
AcDbSymbolTableRecord
100
AcDbLayerTableRecord
  2
D-BMK
 70
       0
 62
       7
  6
CONTINUOUS
  0
LAYER
  5
39
100
AcDbSymbolTableRecord
100
AcDbLayerTableRecord
  2
D-STR
 70
       0
 62
       7
  6
CONTINUOUS
  0
LAYER
  5
3A
100
AcDbSymbolTableRecord
100
AcDbLayerTableRecord
  2
D-STR-TXT
 70
       0
 62
       7
  6
CONTINUOUS
  0
ENDTAB
  0
TABLE
  2
STYLE
  5
3
100
AcDbSymbolTable
 70
       1
  0
STYLE
  5
17
100
AcDbSymbolTableRecord
100
AcDbTextStyleTableRecord
  2
STANDARD
 70
       0
 40
0.0
 41
1.2
 50
0.0
 71
       0
 42
3.5
  3
MS Gothic.ttf
  4

1001
ACAD
1000
MS Gothic
1071
    32786
  0
ENDTAB
  0
TABLE
  2
VIEW
  5
5
100
AcDbSymbolTable
 70
       1
  0
VIEW
  5
3B
100
AcDbSymbolTableRecord
100
AcDbViewTableRecord
  2
QQQQ
 70
       0
 40
612.17
 10
0.0
 20
0.0
 41
885.105
 11
0.0
 21
0.0
 31
1.0
 12
100.0
 22
100.0
 32
0.0
 42
50.0
 43
0.0
 44
0.0
 50
0.0
 71
       0
  0
ENDTAB
  0
TABLE
  2
UCS
  5
6
100
AcDbSymbolTable
 70
       0
  0
ENDTAB
  0
TABLE
  2
APPID
  5
8
100
AcDbSymbolTable
 70
       1
  0
APPID
  5
16
100
AcDbSymbolTableRecord
100
AcDbRegAppTableRecord
  2
ACAD
 70
       0
  0
ENDTAB
  0
TABLE
  2
DIMSTYLE
  5
9
100
AcDbSymbolTable
 70
       1
  0
DIMSTYLE
105
18
100
AcDbSymbolTableRecord
100
AcDbDimStyleTableRecord
  2
STANDARD
 70
       0
  3

  4

  5

  6

  7

 40
1.0
 41
0.18
 42
0.0625
 43
0.38
 44
0.18
 45
0.0
 46
0.0
 47
0.0
 48
0.0
 71
       0
 72
       0
 73
       1
 74
       1
 75
       0
 76
       0
 77
       0
 78
       0
140
0.18
141
0.09
142
0.0
143
25.4
144
1.0
145
0.0
146
1.0
147
0.09
170
       0
171
       2
172
       0
173
       0
174
       0
175
       0
176
       0
177
       0
178
       0
270
       2
271
       4
272
       4
273
       2
274
       2
275
       0
280
       0
281
       0
282
       0
283
       1
284
       0
285
       0
286
       0
287
       0
288
       0
340
17
  0
ENDTAB
  0
TABLE
  2
BLOCK_RECORD
  5
1
100
AcDbSymbolTable
 70
      20
  0
BLOCK_RECORD
  5
A
100
AcDbSymbolTableRecord
100
AcDbBlockTableRecord
  2
*MODEL_SPACE
  0
BLOCK_RECORD
  5
B
100
AcDbSymbolTableRecord
100
AcDbBlockTableRecord
  2
*PAPER_SPACE
  0
BLOCK_RECORD
  5
3C
100
AcDbSymbolTableRecord
100
AcDbBlockTableRecord
  2
GROUP_1
  0
BLOCK_RECORD
  5
3D
100
AcDbSymbolTableRecord
100
AcDbBlockTableRecord
  2
GROUP_2
  0
BLOCK_RECORD
  5
3E
100
AcDbSymbolTableRecord
100
AcDbBlockTableRecord
  2
GROUP_3
  0
BLOCK_RECORD
  5
3F
100
AcDbSymbolTableRecord
100
AcDbBlockTableRecord
  2
GROUP_4
  0
BLOCK_RECORD
  5
40
100
AcDbSymbolTableRecord
100
AcDbBlockTableRecord
  2
GROUP_5
  0
BLOCK_RECORD
  5
41
100
AcDbSymbolTableRecord
100
AcDbBlockTableRecord
  2
GROUP_6
  0
BLOCK_RECORD
  5
42
100
AcDbSymbolTableRecord
100
AcDbBlockTableRecord
  2
GROUP_7
  0
BLOCK_RECORD
  5
43
100
AcDbSymbolTableRecord
100
AcDbBlockTableRecord
  2
GROUP_8
  0
BLOCK_RECORD
  5
44
100
AcDbSymbolTableRecord
100
AcDbBlockTableRecord
  2
GROUP_9
  0
BLOCK_RECORD
  5
45
100
AcDbSymbolTableRecord
100
AcDbBlockTableRecord
  2
GROUP_10
  0
BLOCK_RECORD
  5
46
100
AcDbSymbolTableRecord
100
AcDbBlockTableRecord
  2
GROUP_11
  0
BLOCK_RECORD
  5
47
100
AcDbSymbolTableRecord
100
AcDbBlockTableRecord
  2
GROUP_12
  0
BLOCK_RECORD
  5
48
100
AcDbSymbolTableRecord
100
AcDbBlockTableRecord
  2
GROUP_13
  0
BLOCK_RECORD
  5
49
100
AcDbSymbolTableRecord
100
AcDbBlockTableRecord
  2
GROUP_14
  0
BLOCK_RECORD
  5
4A
100
AcDbSymbolTableRecord
100
AcDbBlockTableRecord
  2
GROUP_15
  0
BLOCK_RECORD
  5
4B
100
AcDbSymbolTableRecord
100
AcDbBlockTableRecord
  2
GROUP_16
  0
BLOCK_RECORD
  5
4C
100
AcDbSymbolTableRecord
100
AcDbBlockTableRecord
  2
GROUP_17
  0
BLOCK_RECORD
  5
4D
100
AcDbSymbolTableRecord
100
AcDbBlockTableRecord
  2
GROUP_18
  0
BLOCK_RECORD
  5
4E
100
AcDbSymbolTableRecord
100
AcDbBlockTableRecord
  2
GROUP_19
  0
BLOCK_RECORD
  5
4F
100
AcDbSymbolTableRecord
100
AcDbBlockTableRecord
  2
GROUP_20
  0
ENDTAB
  0
ENDSEC
  0
SECTION
  2
BLOCKS
  0
BLOCK
  5
D
100
AcDbEntity
  8
0
100
AcDbBlockBegin
  2
*MODEL_SPACE
 70
       0
 10
0.0
 20
0.0
 30
0.0
  3
*MODEL_SPACE
  1

  0
ENDBLK
  5
E
100
AcDbEntity
  8
0
100
AcDbBlockEnd
  0
BLOCK
  5
F
100
AcDbEntity
 67
       1
  8
0
100
AcDbBlockBegin
  2
*PAPER_SPACE
 70
       0
 10
0.0
 20
0.0
 30
0.0
  3
*PAPER_SPACE
  1

  0
ENDBLK
  5
10
100
AcDbEntity
 67
       1
  8
0
100
AcDbBlockEnd
  0
BLOCK
  5
50
100
AcDbEntity
  8
0
100
AcDbBlockBegin
  2
GROUP_1
 70
       0
 10
0.0
 20
0.0
 30
0.0
  3
GROUP_1
  1

  0
LINE
  5
51
100
AcDbEntity
  8
D-STR
  6
CONTINUOUS
 62
       1
100
AcDbLine
 10
-400.5
 20
-276.73205081
 30
0.0
 11
-400.5
 21
-275.26794919
 31
0.0
  0
LINE
  5
52
100
AcDbEntity
  8
D-STR
  6
CONTINUOUS
 62
       1
100
AcDbLine
 10
-400.03589838
 20
-275.0
 30
0.0
 11
-400.5
 21
-275.26794919
 31
0.0
  0
LINE
  5
53
100
AcDbEntity
  8
D-STR
  6
CONTINUOUS
 62
       1
100
AcDbLine
 10
-398.76794919
 20
-276.73205081
 30
0.0
 11
-398.76794919
 21
-275.26794919
 31
0.0
  0
ARC
  5
54
100
AcDbEntity
  8
D-STR
  6
CONTINUOUS
 62
       1
100
AcDbCircle
 10
-399.6339746
 20
-276.53349365
 30
0.0
 40
1.53349365
100
AcDbArc
 50
55.61575253
 51
124.38424747
  0
ARC
  5
55
100
AcDbEntity
  8
D-STR
  6
CONTINUOUS
 62
       1
100
AcDbCircle
 10
-399.6339746
 20
-275.46650635
 30
0.0
 40
1.53349365
100
AcDbArc
 50
235.61575253
 51
304.38424747
  0
LINE
  5
56
100
AcDbEntity
  8
D-STR
  6
CONTINUOUS
 62
       1
100
AcDbLine
 10
-400.03589838
 20
-277.0
 30
0.0
 11
-400.5
 21
-276.73205081
 31
0.0
  0
LINE
  5
57
100
AcDbEntity
  8
D-STR
  6
CONTINUOUS
 62
       1
100
AcDbLine
 10
-393.57179677
 20
-276.73205081
 30
0.0
 11
-393.57179677
 21
-275.26794919
 31
0.0
  0
LINE
  5
58
100
AcDbEntity
  8
D-STR
  6
CONTINUOUS
 62
       1
100
AcDbLine
 10
-394.03589838
 20
-275.0
 30
0.0
 11
-393.57179677
 21
-275.26794919
 31
0.0
  0
LINE
  5
59
100
AcDbEntity
  8
D-STR
  6
CONTINUOUS
 62
       1
100
AcDbLine
 10
-395.30384758
 20
-276.73205081
 30
0.0
 11
-395.30384758
 21
-275.26794919
 31
0.0
  0
ARC
  5
5A
100
AcDbEntity
  8
D-STR
  6
CONTINUOUS
 62
       1
100
AcDbCircle
 10
-394.43782217
 20
-276.53349365
 30
0.0
 40
1.53349365
100
AcDbArc
 50
55.61575253
 51
124.38424747
  0
ARC
  5
5B
100
AcDbEntity
  8
D-STR
  6
CONTINUOUS
 62
       1
100
AcDbCircle
 10
-394.43782217
 20
-275.46650635
 30
0.0
 40
1.53349365
100
AcDbArc
 50
235.61575253
 51
304.38424747
  0
LINE
  5
5C
100
AcDbEntity
  8
D-STR
  6
CONTINUOUS
 62
       1
100
AcDbLine
 10
-394.03589838
 20
-277.0
 30
0.0
 11
-393.57179677
 21
-276.73205081
 31
0.0
  0
LINE
  5
5D
100
AcDbEntity
  8
D-STR
  6
CONTINUOUS
 62
       1
100
AcDbLine
 10
-400.03589838
 20
-275.0
 30
0.0
 11
-394.03589838
 21
-275.0
 31
0.0
  0
ARC
  5
5E
100
AcDbEntity
  8
D-STR
  6
CONTINUOUS
 62
       1
100
AcDbCircle
 10
-397.03589838
 20
-280.73205081
 30
0.0
 40
5.73205081
100
AcDbArc
 50
72.41204623
 51
107.58795377
  0
ARC
  5
5F
100
AcDbEntity
  8
D-STR
  6
CONTINUOUS
 62
       1
100
AcDbCircle
 10
-397.03589838
 20
-271.26794919
 30
0.0
 40
5.73205081
100
AcDbArc
 50
252.41204623
 51
287.58795377
  0
LINE
  5
60
100
AcDbEntity
  8
D-STR
  6
CONTINUOUS
 62
       1
100
AcDbLine
 10
-400.03589838
 20
-277.0
 30
0.0
 11
-394.03589838
 21
-277.0
 31
0.0
  0
LINE
  5
61
100
AcDbEntity
  8
D-BMK
  6
CENTER
 62
       2
100
AcDbLine
 10
-397.03589838
 20
-275.0
 30
0.0
 11
-397.03589838
 21
-277.0
 31
0.0
  0
ENDBLK
  5
62
100
AcDbEntity
  8
0
100
AcDbBlockEnd
  0
BLOCK
  5
63
100
AcDbEntity
  8
0
100
AcDbBlockBegin
  2
GROUP_2
 70
       0
 10
0.0
 20
0.0
 30
0.0
  3
GROUP_2
  1

  0
LINE
  5
64
100
AcDbEntity
  8
D-STR
  6
CONTINUOUS
 62
       1
100
AcDbLine
 10
-379.82308546
 20
-270.0
 30
0.0
 11
-358.82308546
 21
-270.0
 31
0.0
  0
LINE
  5
65
100
AcDbEntity
  8
D-STR
  6
CONTINUOUS
 62
       1
100
AcDbLine
 10
-357.19872981
 20
-276.06217783
 30
0.0
 11
-357.19872981
 21
-270.93782217
 31
0.0
  0
LINE
  5
66
100
AcDbEntity
  8
D-STR
  6
CONTINUOUS
 62
       1
100
AcDbLine
 10
-381.44744112
 20
-276.06217783
 30
0.0
 11
-381.44744112
 21
-270.93782217
 31
0.0
  0
LINE
  5
67
100
AcDbEntity
  8
D-STR
  6
CONTINUOUS
 62
       1
100
AcDbLine
 10
-379.82308546
 20
-270.0
 30
0.0
 11
-381.44744112
 21
-270.93782217
 31
0.0
  0
LINE
  5
68
100
AcDbEntity
  8
D-STR
  6
CONTINUOUS
 62
       1
100
AcDbLine
 10
-358.82308546
 20
-270.0
 30
0.0
 11
-357.19872981
 21
-270.93782217
 31
0.0
  0
ARC
  5
69
100
AcDbEntity
  8
D-STR
  6
CONTINUOUS
 62
       1
100
AcDbCircle
 10
-369.32308546
 20
-290.06217783
 30
0.0
 40
20.06217783
100
AcDbArc
 50
72.41204623
 51
107.58795377
  0
LINE
  5
6A
100
AcDbEntity
  8
D-STR
  6
CONTINUOUS
 62
       1
100
AcDbLine
 10
-363.26090764
 20
-276.06217783
 30
0.0
 11
-363.26090764
 21
-270.93782217
 31
0.0
  0
LINE
  5
6B
100
AcDbEntity
  8
D-STR
  6
CONTINUOUS
 62
       1
100
AcDbLine
 10
-375.38526329
 20
-276.06217783
 30
0.0
 11
-375.38526329
 21
-270.93782217
 31
0.0
  0
ARC
  5
6C
100
AcDbEntity
  8
D-STR
  6
CONTINUOUS
 62
       1
100
AcDbCircle
 10
-378.4163522
 20
-275.36722777
 30
0.0
 40
5.36722777
100
AcDbArc
 50
55.61575253
 51
124.38424747
  0
ARC
  5
6D
100
AcDbEntity
  8
D-STR
  6
CONTINUOUS
 62
       1
100
AcDbCircle
 10
-360.22981872
 20
-275.36722777
 30
0.0
 40
5.36722777
100
AcDbArc
 50
55.61575253
 51
124.38424747
  0
ARC
  5
6E
100
AcDbEntity
  8
D-STR
  6
CONTINUOUS
 62
       1
100
AcDbCircle
 10
-369.32308546
 20
-256.93782217
 30
0.0
 40
20.06217783
100
AcDbArc
 50
252.41204623
 51
287.58795377
  0
ARC
  5
6F
100
AcDbEntity
  8
D-STR
  6
CONTINUOUS
 62
       1
100
AcDbCircle
 10
-378.4163522
 20
-271.63277223
 30
0.0
 40
5.36722777
100
AcDbArc
 50
235.61575253
 51
304.38424747
  0
ARC
  5
70
100
AcDbEntity
  8
D-STR
  6
CONTINUOUS
 62
       1
100
AcDbCircle
 10
-360.22981872
 20
-271.63277223
 30
0.0
 40
5.36722777
100
AcDbArc
 50
235.61575253
 51
304.38424747
  0
LINE
  5
71
100
AcDbEntity
  8
D-STR
  6
CONTINUOUS
 62
       1
100
AcDbLine
 10
-379.82308546
 20
-277.0
 30
0.0
 11
-358.82308546
 21
-277.0
 31
0.0
  0
LINE
  5
72
100
AcDbEntity
  8
D-STR
  6
CONTINUOUS
 62
       1
100
AcDbLine
 10
-379.82308546
 20
-277.0
 30
0.0
 11
-381.44744112
 21
-276.06217783
 31
0.0
  0
LINE
  5
73
100
AcDbEntity
  8
D-STR
  6
CONTINUOUS
 62
       1
100
AcDbLine
 10
-358.82308546
 20
-277.0
 30
0.0
 11
-357.19872981
 21
-276.06217783
 31
0.0
  0
LINE
  5
74
100
AcDbEntity
  8
D-BMK
  6
CENTER
 62
       2
100
AcDbLine
 10
-369.32308546
 20
-270.0
 30
0.0
 11
-369.32308546
 21
-277.0
 31
0.0
  0
ENDBLK
  5
75
100
AcDbEntity
  8
0
100
AcDbBlockEnd
  0
BLOCK
  5
76
100
AcDbEntity
  8
0
100
AcDbBlockBegin
  2
GROUP_3
 70
       0
 10
0.0
 20
0.0
 30
0.0
  3
GROUP_3
  1

  0
LINE
  5
77
100
AcDbEntity
  8
D-STR
  6
CONTINUOUS
 62
       1
100
AcDbLine
 10
-339.52181527
 20
-268.0
 30
0.0
 11
-312.52181527
 21
-268.0
 31
0.0
  0
LINE
  5
78
100
AcDbEntity
  8
D-STR
  6
CONTINUOUS
 62
       1
100
AcDbLine
 10
-310.43335801
 20
-275.79422863
 30
0.0
 11
-310.43335801
 21
-269.20577137
 31
0.0
  0
LINE
  5
79
100
AcDbEntity
  8
D-STR
  6
CONTINUOUS
 62
       1
100
AcDbLine
 10
-341.61027254
 20
-275.79422863
 30
0.0
 11
-341.61027254
 21
-269.20577137
 31
0.0
  0
LINE
  5
7A
100
AcDbEntity
  8
D-STR
  6
CONTINUOUS
 62
       1
100
AcDbLine
 10
-339.52181527
 20
-268.0
 30
0.0
 11
-341.61027254
 21
-269.20577137
 31
0.0
  0
LINE
  5
7B
100
AcDbEntity
  8
D-STR
  6
CONTINUOUS
 62
       1
100
AcDbLine
 10
-312.52181527
 20
-268.0
 30
0.0
 11
-310.43335801
 21
-269.20577137
 31
0.0
  0
ARC
  5
7C
100
AcDbEntity
  8
D-STR
  6
CONTINUOUS
 62
       1
100
AcDbCircle
 10
-326.02181527
 20
-293.79422863
 30
0.0
 40
25.79422863
100
AcDbArc
 50
72.41204623
 51
107.58795377
  0
LINE
  5
7D
100
AcDbEntity
  8
D-STR
  6
CONTINUOUS
 62
       1
100
AcDbLine
 10
-318.22758664
 20
-275.79422863
 30
0.0
 11
-318.22758664
 21
-269.20577137
 31
0.0
  0
LINE
  5
7E
100
AcDbEntity
  8
D-STR
  6
CONTINUOUS
 62
       1
100
AcDbLine
 10
-333.81604391
 20
-275.79422863
 30
0.0
 11
-333.81604391
 21
-269.20577137
 31
0.0
  0
ARC
  5
7F
100
AcDbEntity
  8
D-STR
  6
CONTINUOUS
 62
       1
100
AcDbCircle
 10
-337.71315823
 20
-274.90072142
 30
0.0
 40
6.90072142
100
AcDbArc
 50
55.61575253
 51
124.38424747
  0
ARC
  5
80
100
AcDbEntity
  8
D-STR
  6
CONTINUOUS
 62
       1
100
AcDbCircle
 10
-314.33047232
 20
-274.90072142
 30
0.0
 40
6.90072142
100
AcDbArc
 50
55.61575253
 51
124.38424747
  0
ARC
  5
81
100
AcDbEntity
  8
D-STR
  6
CONTINUOUS
 62
       1
100
AcDbCircle
 10
-326.02181527
 20
-251.20577137
 30
0.0
 40
25.79422863
100
AcDbArc
 50
252.41204623
 51
287.58795377
  0
ARC
  5
82
100
AcDbEntity
  8
D-STR
  6
CONTINUOUS
 62
       1
100
AcDbCircle
 10
-337.71315823
 20
-270.09927858
 30
0.0
 40
6.90072142
100
AcDbArc
 50
235.61575253
 51
304.38424747
  0
ARC
  5
83
100
AcDbEntity
  8
D-STR
  6
CONTINUOUS
 62
       1
100
AcDbCircle
 10
-314.33047232
 20
-270.09927858
 30
0.0
 40
6.90072142
100
AcDbArc
 50
235.61575253
 51
304.38424747
  0
LINE
  5
84
100
AcDbEntity
  8
D-STR
  6
CONTINUOUS
 62
       1
100
AcDbLine
 10
-339.52181527
 20
-277.0
 30
0.0
 11
-312.52181527
 21
-277.0
 31
0.0
  0
LINE
  5
85
100
AcDbEntity
  8
D-STR
  6
CONTINUOUS
 62
       1
100
AcDbLine
 10
-339.52181527
 20
-277.0
 30
0.0
 11
-341.61027254
 21
-275.79422863
 31
0.0
  0
LINE
  5
86
100
AcDbEntity
  8
D-STR
  6
CONTINUOUS
 62
       1
100
AcDbLine
 10
-312.52181527
 20
-277.0
 30
0.0
 11
-310.43335801
 21
-275.79422863
 31
0.0
  0
LINE
  5
87
100
AcDbEntity
  8
D-BMK
  6
CENTER
 62
       2
100
AcDbLine
 10
-326.02181527
 20
-268.0
 30
0.0
 11
-326.02181527
 21
-277.0
 31
0.0
  0
ENDBLK
  5
88
100
AcDbEntity
  8
0
100
AcDbBlockEnd
  0
BLOCK
  5
89
100
AcDbEntity
  8
0
100
AcDbBlockBegin
  2
GROUP_4
 70
       0
 10
0.0
 20
0.0
 30
0.0
  3
GROUP_4
  1

  0
LINE
  5
8A
100
AcDbEntity
  8
D-STR
  6
CONTINUOUS
 62
       1
100
AcDbLine
 10
-288.1735397
 20
-266.0
 30
0.0
 11
-254.1735397
 21
-266.0
 31
0.0
  0
LINE
  5
8B
100
AcDbEntity
  8
D-STR
  6
CONTINUOUS
 62
       1
100
AcDbLine
 10
-251.54363055
 20
-275.48162124
 30
0.0
 11
-251.54363055
 21
-267.51837876
 31
0.0
  0
LINE
  5
8C
100
AcDbEntity
  8
D-STR
  6
CONTINUOUS
 62
       1
100
AcDbLine
 10
-290.80344885
 20
-275.48162124
 30
0.0
 11
-290.80344885
 21
-267.51837876
 31
0.0
  0
LINE
  5
8D
100
AcDbEntity
  8
D-STR
  6
CONTINUOUS
 62
       1
100
AcDbLine
 10
-288.1735397
 20
-266.0
 30
0.0
 11
-290.80344885
 21
-267.51837876
 31
0.0
  0
LINE
  5
8E
100
AcDbEntity
  8
D-STR
  6
CONTINUOUS
 62
       1
100
AcDbLine
 10
-254.1735397
 20
-266.0
 30
0.0
 11
-251.54363055
 21
-267.51837876
 31
0.0
  0
ARC
  5
8F
100
AcDbEntity
  8
D-STR
  6
CONTINUOUS
 62
       1
100
AcDbCircle
 10
-271.1735397
 20
-298.48162124
 30
0.0
 40
32.48162124
100
AcDbArc
 50
72.41204623
 51
107.58795377
  0
LINE
  5
90
100
AcDbEntity
  8
D-STR
  6
CONTINUOUS
 62
       1
100
AcDbLine
 10
-261.35858513
 20
-275.48162124
 30
0.0
 11
-261.35858513
 21
-267.51837876
 31
0.0
  0
LINE
  5
91
100
AcDbEntity
  8
D-STR
  6
CONTINUOUS
 62
       1
100
AcDbLine
 10
-280.98849428
 20
-275.48162124
 30
0.0
 11
-280.98849428
 21
-267.51837876
 31
0.0
  0
ARC
  5
92
100
AcDbEntity
  8
D-STR
  6
CONTINUOUS
 62
       1
100
AcDbCircle
 10
-285.89597157
 20
-274.68979734
 30
0.0
 40
8.68979734
100
AcDbArc
 50
55.61575253
 51
124.38424747
  0
ARC
  5
93
100
AcDbEntity
  8
D-STR
  6
CONTINUOUS
 62
       1
100
AcDbCircle
 10
-256.45110784
 20
-274.68979734
 30
0.0
 40
8.68979734
100
AcDbArc
 50
55.61575253
 51
124.38424747
  0
ARC
  5
94
100
AcDbEntity
  8
D-STR
  6
CONTINUOUS
 62
       1
100
AcDbCircle
 10
-271.1735397
 20
-244.51837876
 30
0.0
 40
32.48162124
100
AcDbArc
 50
252.41204623
 51
287.58795377
  0
ARC
  5
95
100
AcDbEntity
  8
D-STR
  6
CONTINUOUS
 62
       1
100
AcDbCircle
 10
-285.89597157
 20
-268.31020266
 30
0.0
 40
8.68979734
100
AcDbArc
 50
235.61575253
 51
304.38424747
  0
ARC
  5
96
100
AcDbEntity
  8
D-STR
  6
CONTINUOUS
 62
       1
100
AcDbCircle
 10
-256.45110784
 20
-268.31020266
 30
0.0
 40
8.68979734
100
AcDbArc
 50
235.61575253
 51
304.38424747
  0
LINE
  5
97
100
AcDbEntity
  8
D-STR
  6
CONTINUOUS
 62
       1
100
AcDbLine
 10
-288.1735397
 20
-277.0
 30
0.0
 11
-254.1735397
 21
-277.0
 31
0.0
  0
LINE
  5
98
100
AcDbEntity
  8
D-STR
  6
CONTINUOUS
 62
       1
100
AcDbLine
 10
-288.1735397
 20
-277.0
 30
0.0
 11
-290.80344885
 21
-275.48162124
 31
0.0
  0
LINE
  5
99
100
AcDbEntity
  8
D-STR
  6
CONTINUOUS
 62
       1
100
AcDbLine
 10
-254.1735397
 20
-277.0
 30
0.0
 11
-251.54363055
 21
-275.48162124
 31
0.0
  0
LINE
  5
9A
100
AcDbEntity
  8
D-BMK
  6
CENTER
 62
       2
100
AcDbLine
 10
-271.1735397
 20
-266.0
 30
0.0
 11
-271.1735397
 21
-277.0
 31
0.0
  0
ENDBLK
  5
9B
100
AcDbEntity
  8
0
100
AcDbBlockEnd
  0
BLOCK
  5
9C
100
AcDbEntity
  8
0
100
AcDbBlockBegin
  2
GROUP_5
 70
       0
 10
0.0
 20
0.0
 30
0.0
  3
GROUP_5
  1

  0
LINE
  5
9D
100
AcDbEntity
  8
D-STR
  6
CONTINUOUS
 62
       1
100
AcDbLine
 10
-250.75990957
 20
80.5
 30
0.0
 11
-209.75990957
 21
80.5
 31
0.0
  0
LINE
  5
9E
100
AcDbEntity
  8
D-STR
  6
CONTINUOUS
 62
       1
100
AcDbLine
 10
-206.58854854
 20
68.83098615
 30
0.0
 11
-206.58854854
 21
78.66901385
 31
0.0
  0
LINE
  5
9F
100
AcDbEntity
  8
D-STR
  6
CONTINUOUS
 62
       1
100
AcDbLine
 10
-253.93127061
 20
68.83098615
 30
0.0
 11
-253.93127061
 21
78.66901385
 31
0.0
  0
LINE
  5
A0
100
AcDbEntity
  8
D-STR
  6
CONTINUOUS
 62
       1
100
AcDbLine
 10
-250.75990957
 20
80.5
 30
0.0
 11
-253.93127061
 21
78.66901385
 31
0.0
  0
LINE
  5
A1
100
AcDbEntity
  8
D-STR
  6
CONTINUOUS
 62
       1
100
AcDbLine
 10
-209.75990957
 20
80.5
 30
0.0
 11
-206.58854854
 21
78.66901385
 31
0.0
  0
ARC
  5
A2
100
AcDbEntity
  8
D-STR
  6
CONTINUOUS
 62
       1
100
AcDbCircle
 10
-230.25990957
 20
41.33098615
 30
0.0
 40
39.16901385
100
AcDbArc
 50
72.41204623
 51
107.58795377
  0
LINE
  5
A3
100
AcDbEntity
  8
D-STR
  6
CONTINUOUS
 62
       1
100
AcDbLine
 10
-218.42422906
 20
68.83098615
 30
0.0
 11
-218.42422906
 21
78.66901385
 31
0.0
  0
LINE
  5
A4
100
AcDbEntity
  8
D-STR
  6
CONTINUOUS
 62
       1
100
AcDbLine
 10
-242.09559009
 20
68.83098615
 30
0.0
 11
-242.09559009
 21
78.66901385
 31
0.0
  0
ARC
  5
A5
100
AcDbEntity
  8
D-STR
  6
CONTINUOUS
 62
       1
100
AcDbCircle
 10
-248.01343035
 20
70.02112673
 30
0.0
 40
10.47887327
100
AcDbArc
 50
55.61575253
 51
124.38424747
  0
ARC
  5
A6
100
AcDbEntity
  8
D-STR
  6
CONTINUOUS
 62
       1
100
AcDbCircle
 10
-212.5063888
 20
70.02112673
 30
0.0
 40
10.47887327
100
AcDbArc
 50
55.61575253
 51
124.38424747
  0
ARC
  5
A7
100
AcDbEntity
  8
D-STR
  6
CONTINUOUS
 62
       1
100
AcDbCircle
 10
-230.25990957
 20
106.16901385
 30
0.0
 40
39.16901385
100
AcDbArc
 50
252.41204623
 51
287.58795377
  0
ARC
  5
A8
100
AcDbEntity
  8
D-STR
  6
CONTINUOUS
 62
       1
100
AcDbCircle
 10
-248.01343035
 20
77.47887327
 30
0.0
 40
10.47887327
100
AcDbArc
 50
235.61575253
 51
304.38424747
  0
ARC
  5
A9
100
AcDbEntity
  8
D-STR
  6
CONTINUOUS
 62
       1
100
AcDbCircle
 10
-212.5063888
 20
77.47887327
 30
0.0
 40
10.47887327
100
AcDbArc
 50
235.61575253
 51
304.38424747
  0
LINE
  5
AA
100
AcDbEntity
  8
D-STR
  6
CONTINUOUS
 62
       1
100
AcDbLine
 10
-250.75990957
 20
67.0
 30
0.0
 11
-209.75990957
 21
67.0
 31
0.0
  0
LINE
  5
AB
100
AcDbEntity
  8
D-STR
  6
CONTINUOUS
 62
       1
100
AcDbLine
 10
-250.75990957
 20
67.0
 30
0.0
 11
-253.93127061
 21
68.83098615
 31
0.0
  0
LINE
  5
AC
100
AcDbEntity
  8
D-STR
  6
CONTINUOUS
 62
       1
100
AcDbLine
 10
-209.75990957
 20
67.0
 30
0.0
 11
-206.58854854
 21
68.83098615
 31
0.0
  0
LINE
  5
AD
100
AcDbEntity
  8
D-BMK
  6
CENTER
 62
       2
100
AcDbLine
 10
-230.25990957
 20
80.5
 30
0.0
 11
-230.25990957
 21
67.0
 31
0.0
  0
ENDBLK
  5
AE
100
AcDbEntity
  8
0
100
AcDbBlockEnd
  0
BLOCK
  5
AF
100
AcDbEntity
  8
0
100
AcDbBlockBegin
  2
GROUP_6
 70
       0
 10
0.0
 20
0.0
 30
0.0
  3
GROUP_6
  1

  0
LINE
  5
B0
100
AcDbEntity
  8
D-STR
  6
CONTINUOUS
 62
       1
100
AcDbLine
 10
-173.85352162
 20
83.5
 30
0.0
 11
-123.85352162
 21
83.5
 31
0.0
  0
LINE
  5
B1
100
AcDbEntity
  8
D-STR
  6
CONTINUOUS
 62
       1
100
AcDbLine
 10
-119.98600816
 20
69.23290994
 30
0.0
 11
-119.98600816
 21
81.26709006
 31
0.0
  0
LINE
  5
B2
100
AcDbEntity
  8
D-STR
  6
CONTINUOUS
 62
       1
100
AcDbLine
 10
-177.72103508
 20
69.23290994
 30
0.0
 11
-177.72103508
 21
81.26709006
 31
0.0
  0
LINE
  5
B3
100
AcDbEntity
  8
D-STR
  6
CONTINUOUS
 62
       1
100
AcDbLine
 10
-173.85352162
 20
83.5
 30
0.0
 11
-177.72103508
 21
81.26709006
 31
0.0
  0
LINE
  5
B4
100
AcDbEntity
  8
D-STR
  6
CONTINUOUS
 62
       1
100
AcDbLine
 10
-123.85352162
 20
83.5
 30
0.0
 11
-119.98600816
 21
81.26709006
 31
0.0
  0
ARC
  5
B5
100
AcDbEntity
  8
D-STR
  6
CONTINUOUS
 62
       1
100
AcDbCircle
 10
-148.85352162
 20
35.73290994
 30
0.0
 40
47.76709006
100
AcDbArc
 50
72.41204623
 51
107.58795377
  0
LINE
  5
B6
100
AcDbEntity
  8
D-STR
  6
CONTINUOUS
 62
       1
100
AcDbLine
 10
-134.41976489
 20
69.23290994
 30
0.0
 11
-134.41976489
 21
81.26709006
 31
0.0
  0
LINE
  5
B7
100
AcDbEntity
  8
D-STR
  6
CONTINUOUS
 62
       1
100
AcDbLine
 10
-163.28727835
 20
69.23290994
 30
0.0
 11
-163.28727835
 21
81.26709006
 31
0.0
  0
ARC
  5
B8
100
AcDbEntity
  8
D-STR
  6
CONTINUOUS
 62
       1
100
AcDbCircle
 10
-170.50415671
 20
70.72088626
 30
0.0
 40
12.77911374
100
AcDbArc
 50
55.61575253
 51
124.38424747
  0
ARC
  5
B9
100
AcDbEntity
  8
D-STR
  6
CONTINUOUS
 62
       1
100
AcDbCircle
 10
-127.20288652
 20
70.72088626
 30
0.0
 40
12.77911374
100
AcDbArc
 50
55.61575253
 51
124.38424747
  0
ARC
  5
BA
100
AcDbEntity
  8
D-STR
  6
CONTINUOUS
 62
       1
100
AcDbCircle
 10
-148.85352162
 20
114.76709006
 30
0.0
 40
47.76709006
100
AcDbArc
 50
252.41204623
 51
287.58795377
  0
ARC
  5
BB
100
AcDbEntity
  8
D-STR
  6
CONTINUOUS
 62
       1
100
AcDbCircle
 10
-170.50415671
 20
79.77911374
 30
0.0
 40
12.77911374
100
AcDbArc
 50
235.61575253
 51
304.38424747
  0
ARC
  5
BC
100
AcDbEntity
  8
D-STR
  6
CONTINUOUS
 62
       1
100
AcDbCircle
 10
-127.20288652
 20
79.77911374
 30
0.0
 40
12.77911374
100
AcDbArc
 50
235.61575253
 51
304.38424747
  0
LINE
  5
BD
100
AcDbEntity
  8
D-STR
  6
CONTINUOUS
 62
       1
100
AcDbLine
 10
-173.85352162
 20
67.0
 30
0.0
 11
-123.85352162
 21
67.0
 31
0.0
  0
LINE
  5
BE
100
AcDbEntity
  8
D-STR
  6
CONTINUOUS
 62
       1
100
AcDbLine
 10
-173.85352162
 20
67.0
 30
0.0
 11
-177.72103508
 21
69.23290994
 31
0.0
  0
LINE
  5
BF
100
AcDbEntity
  8
D-STR
  6
CONTINUOUS
 62
       1
100
AcDbLine
 10
-123.85352162
 20
67.0
 30
0.0
 11
-119.98600816
 21
69.23290994
 31
0.0
  0
LINE
  5
C0
100
AcDbEntity
  8
D-BMK
  6
CENTER
 62
       2
100
AcDbLine
 10
-148.85352162
 20
83.5
 30
0.0
 11
-148.85352162
 21
67.0
 31
0.0
  0
ENDBLK
  5
C1
100
AcDbEntity
  8
0
100
AcDbBlockEnd
  0
BLOCK
  5
C2
100
AcDbEntity
  8
0
100
AcDbBlockBegin
  2
GROUP_7
 70
       0
 10
0.0
 20
0.0
 30
0.0
  3
GROUP_7
  1

  0
LINE
  5
C3
100
AcDbEntity
  8
D-STR
  6
CONTINUOUS
 62
       1
100
AcDbLine
 10
-80.70397586
 20
86.5
 30
0.0
 11
-20.70397586
 21
86.5
 31
0.0
  0
LINE
  5
C4
100
AcDbEntity
  8
D-STR
  6
CONTINUOUS
 62
       1
100
AcDbLine
 10
-16.06295971
 20
69.67949192
 30
0.0
 11
-16.06295971
 21
83.82050808
 31
0.0
  0
LINE
  5
C5
100
AcDbEntity
  8
D-STR
  6
CONTINUOUS
 62
       1
100
AcDbLine
 10
-85.34499201
 20
69.67949192
 30
0.0
 11
-85.34499201
 21
83.82050808
 31
0.0
  0
LINE
  5
C6
100
AcDbEntity
  8
D-STR
  6
CONTINUOUS
 62
       1
100
AcDbLine
 10
-80.70397586
 20
86.5
 30
0.0
 11
-85.34499201
 21
83.82050808
 31
0.0
  0
LINE
  5
C7
100
AcDbEntity
  8
D-STR
  6
CONTINUOUS
 62
       1
100
AcDbLine
 10
-20.70397586
 20
86.5
 30
0.0
 11
-16.06295971
 21
83.82050808
 31
0.0
  0
ARC
  5
C8
100
AcDbEntity
  8
D-STR
  6
CONTINUOUS
 62
       1
100
AcDbCircle
 10
-50.70397586
 20
29.17949192
 30
0.0
 40
57.32050808
100
AcDbArc
 50
72.41204623
 51
107.58795377
  0
LINE
  5
C9
100
AcDbEntity
  8
D-STR
  6
CONTINUOUS
 62
       1
100
AcDbLine
 10
-33.38346778
 20
69.67949192
 30
0.0
 11
-33.38346778
 21
83.82050808
 31
0.0
  0
LINE
  5
CA
100
AcDbEntity
  8
D-STR
  6
CONTINUOUS
 62
       1
100
AcDbLine
 10
-68.02448393
 20
69.67949192
 30
0.0
 11
-68.02448393
 21
83.82050808
 31
0.0
  0
ARC
  5
CB
100
AcDbEntity
  8
D-STR
  6
CONTINUOUS
 62
       1
100
AcDbCircle
 10
-76.68473797
 20
71.16506351
 30
0.0
 40
15.33493649
100
AcDbArc
 50
55.61575253
 51
124.38424747
  0
ARC
  5
CC
100
AcDbEntity
  8
D-STR
  6
CONTINUOUS
 62
       1
100
AcDbCircle
 10
-24.72321374
 20
71.16506351
 30
0.0
 40
15.33493649
100
AcDbArc
 50
55.61575253
 51
124.38424747
  0
ARC
  5
CD
100
AcDbEntity
  8
D-STR
  6
CONTINUOUS
 62
       1
100
AcDbCircle
 10
-50.70397586
 20
124.32050808
 30
0.0
 40
57.32050808
100
AcDbArc
 50
252.41204623
 51
287.58795377
  0
ARC
  5
CE
100
AcDbEntity
  8
D-STR
  6
CONTINUOUS
 62
       1
100
AcDbCircle
 10
-76.68473797
 20
82.33493649
 30
0.0
 40
15.33493649
100
AcDbArc
 50
235.61575253
 51
304.38424747
  0
ARC
  5
CF
100
AcDbEntity
  8
D-STR
  6
CONTINUOUS
 62
       1
100
AcDbCircle
 10
-24.72321374
 20
82.33493649
 30
0.0
 40
15.33493649
100
AcDbArc
 50
235.61575253
 51
304.38424747
  0
LINE
  5
D0
100
AcDbEntity
  8
D-STR
  6
CONTINUOUS
 62
       1
100
AcDbLine
 10
-80.70397586
 20
67.0
 30
0.0
 11
-20.70397586
 21
67.0
 31
0.0
  0
LINE
  5
D1
100
AcDbEntity
  8
D-STR
  6
CONTINUOUS
 62
       1
100
AcDbLine
 10
-80.70397586
 20
67.0
 30
0.0
 11
-85.34499201
 21
69.67949192
 31
0.0
  0
LINE
  5
D2
100
AcDbEntity
  8
D-STR
  6
CONTINUOUS
 62
       1
100
AcDbLine
 10
-20.70397586
 20
67.0
 30
0.0
 11
-16.06295971
 21
69.67949192
 31
0.0
  0
LINE
  5
D3
100
AcDbEntity
  8
D-BMK
  6
CENTER
 62
       2
100
AcDbLine
 10
-50.70397586
 20
86.5
 30
0.0
 11
-50.70397586
 21
67.0
 31
0.0
  0
ENDBLK
  5
D4
100
AcDbEntity
  8
0
100
AcDbBlockEnd
  0
BLOCK
  5
D5
100
AcDbEntity
  8
0
100
AcDbBlockBegin
  2
GROUP_8
 70
       0
 10
0.0
 20
0.0
 30
0.0
  3
GROUP_8
  1

  0
LINE
  5
D6
100
AcDbEntity
  8
D-STR
  6
CONTINUOUS
 62
       1
100
AcDbLine
 10
24.35155914
 20
70.12607391
 30
0.0
 11
24.35155914
 21
86.37392609
 31
0.0
  0
LINE
  5
D7
100
AcDbEntity
  8
D-STR
  6
CONTINUOUS
 62
       1
100
AcDbLine
 10
105.18059682
 20
70.12607391
 30
0.0
 11
105.18059682
 21
86.37392609
 31
0.0
  0
LINE
  5
D8
100
AcDbEntity
  8
D-STR
  6
CONTINUOUS
 62
       1
100
AcDbLine
 10
29.76607798
 20
89.5
 30
0.0
 11
99.76607798
 21
89.5
 31
0.0
  0
LINE
  5
D9
100
AcDbEntity
  8
D-STR
  6
CONTINUOUS
 62
       1
100
AcDbLine
 10
29.76607798
 20
89.5
 30
0.0
 11
24.35155914
 21
86.37392609
 31
0.0
  0
LINE
  5
DA
100
AcDbEntity
  8
D-STR
  6
CONTINUOUS
 62
       1
100
AcDbLine
 10
99.76607798
 20
89.5
 30
0.0
 11
105.18059682
 21
86.37392609
 31
0.0
  0
ARC
  5
DB
100
AcDbEntity
  8
D-STR
  6
CONTINUOUS
 62
       1
100
AcDbCircle
 10
64.76607798
 20
22.62607391
 30
0.0
 40
66.87392609
100
AcDbArc
 50
72.41204623
 51
107.58795377
  0
LINE
  5
DC
100
AcDbEntity
  8
D-STR
  6
CONTINUOUS
 62
       1
100
AcDbLine
 10
84.9733374
 20
70.12607391
 30
0.0
 11
84.9733374
 21
86.37392609
 31
0.0
  0
LINE
  5
DD
100
AcDbEntity
  8
D-STR
  6
CONTINUOUS
 62
       1
100
AcDbLine
 10
44.55881856
 20
70.12607391
 30
0.0
 11
44.55881856
 21
86.37392609
 31
0.0
  0
ARC
  5
DE
100
AcDbEntity
  8
D-STR
  6
CONTINUOUS
 62
       1
100
AcDbCircle
 10
34.45518885
 20
71.60924076
 30
0.0
 40
17.89075924
100
AcDbArc
 50
55.61575253
 51
124.38424747
  0
ARC
  5
DF
100
AcDbEntity
  8
D-STR
  6
CONTINUOUS
 62
       1
100
AcDbCircle
 10
95.07696711
 20
71.60924076
 30
0.0
 40
17.89075924
100
AcDbArc
 50
55.61575253
 51
124.38424747
  0
ARC
  5
E0
100
AcDbEntity
  8
D-STR
  6
CONTINUOUS
 62
       1
100
AcDbCircle
 10
64.76607798
 20
133.87392609
 30
0.0
 40
66.87392609
100
AcDbArc
 50
252.41204623
 51
287.58795377
  0
ARC
  5
E1
100
AcDbEntity
  8
D-STR
  6
CONTINUOUS
 62
       1
100
AcDbCircle
 10
34.45518885
 20
84.89075924
 30
0.0
 40
17.89075924
100
AcDbArc
 50
235.61575253
 51
304.38424747
  0
ARC
  5
E2
100
AcDbEntity
  8
D-STR
  6
CONTINUOUS
 62
       1
100
AcDbCircle
 10
95.07696711
 20
84.89075924
 30
0.0
 40
17.89075924
100
AcDbArc
 50
235.61575253
 51
304.38424747
  0
LINE
  5
E3
100
AcDbEntity
  8
D-STR
  6
CONTINUOUS
 62
       1
100
AcDbLine
 10
29.76607798
 20
67.0
 30
0.0
 11
99.76607798
 21
67.0
 31
0.0
  0
LINE
  5
E4
100
AcDbEntity
  8
D-STR
  6
CONTINUOUS
 62
       1
100
AcDbLine
 10
29.76607798
 20
67.0
 30
0.0
 11
24.35155914
 21
70.12607391
 31
0.0
  0
LINE
  5
E5
100
AcDbEntity
  8
D-STR
  6
CONTINUOUS
 62
       1
100
AcDbLine
 10
99.76607798
 20
67.0
 30
0.0
 11
105.18059682
 21
70.12607391
 31
0.0
  0
LINE
  5
E6
100
AcDbEntity
  8
D-BMK
  6
CENTER
 62
       2
100
AcDbLine
 10
64.76607798
 20
89.5
 30
0.0
 11
64.76607798
 21
67.0
 31
0.0
  0
ENDBLK
  5
E7
100
AcDbEntity
  8
0
100
AcDbBlockEnd
  0
BLOCK
  5
E8
100
AcDbEntity
  8
0
100
AcDbBlockBegin
  2
GROUP_9
 70
       0
 10
0.0
 20
0.0
 30
0.0
  3
GROUP_9
  1

  0
LINE
  5
E9
100
AcDbEntity
  8
D-STR
  6
CONTINUOUS
 62
       1
100
AcDbLine
 10
152.23938425
 20
70.5726559
 30
0.0
 11
152.23938425
 21
89.4273441
 31
0.0
  0
LINE
  5
EA
100
AcDbEntity
  8
D-STR
  6
CONTINUOUS
 62
       1
100
AcDbLine
 10
244.61542732
 20
70.5726559
 30
0.0
 11
244.61542732
 21
89.4273441
 31
0.0
  0
LINE
  5
EB
100
AcDbEntity
  8
D-STR
  6
CONTINUOUS
 62
       1
100
AcDbLine
 10
158.42740578
 20
93.0
 30
0.0
 11
238.42740578
 21
93.0
 31
0.0
  0
LINE
  5
EC
100
AcDbEntity
  8
D-STR
  6
CONTINUOUS
 62
       1
100
AcDbLine
 10
158.42740578
 20
93.0
 30
0.0
 11
152.23938425
 21
89.4273441
 31
0.0
  0
LINE
  5
ED
100
AcDbEntity
  8
D-STR
  6
CONTINUOUS
 62
       1
100
AcDbLine
 10
238.42740578
 20
93.0
 30
0.0
 11
244.61542732
 21
89.4273441
 31
0.0
  0
ARC
  5
EE
100
AcDbEntity
  8
D-STR
  6
CONTINUOUS
 62
       1
100
AcDbCircle
 10
198.42740578
 20
16.5726559
 30
0.0
 40
76.4273441
100
AcDbArc
 50
72.41204623
 51
107.58795377
  0
LINE
  5
EF
100
AcDbEntity
  8
D-STR
  6
CONTINUOUS
 62
       1
100
AcDbLine
 10
221.52141655
 20
70.5726559
 30
0.0
 11
221.52141655
 21
89.4273441
 31
0.0
  0
LINE
  5
F0
100
AcDbEntity
  8
D-STR
  6
CONTINUOUS
 62
       1
100
AcDbLine
 10
175.33339502
 20
70.5726559
 30
0.0
 11
175.33339502
 21
89.4273441
 31
0.0
  0
ARC
  5
F1
100
AcDbEntity
  8
D-STR
  6
CONTINUOUS
 62
       1
100
AcDbCircle
 10
163.78638963
 20
72.55341801
 30
0.0
 40
20.44658199
100
AcDbArc
 50
55.61575253
 51
124.38424747
  0
ARC
  5
F2
100
AcDbEntity
  8
D-STR
  6
CONTINUOUS
 62
       1
100
AcDbCircle
 10
233.06842194
 20
72.55341801
 30
0.0
 40
20.44658199
100
AcDbArc
 50
55.61575253
 51
124.38424747
  0
ARC
  5
F3
100
AcDbEntity
  8
D-STR
  6
CONTINUOUS
 62
       1
100
AcDbCircle
 10
198.42740578
 20
143.4273441
 30
0.0
 40
76.4273441
100
AcDbArc
 50
252.41204623
 51
287.58795377
  0
ARC
  5
F4
100
AcDbEntity
  8
D-STR
  6
CONTINUOUS
 62
       1
100
AcDbCircle
 10
163.78638963
 20
87.44658199
 30
0.0
 40
20.44658199
100
AcDbArc
 50
235.61575253
 51
304.38424747
  0
ARC
  5
F5
100
AcDbEntity
  8
D-STR
  6
CONTINUOUS
 62
       1
100
AcDbCircle
 10
233.06842194
 20
87.44658199
 30
0.0
 40
20.44658199
100
AcDbArc
 50
235.61575253
 51
304.38424747
  0
LINE
  5
F6
100
AcDbEntity
  8
D-STR
  6
CONTINUOUS
 62
       1
100
AcDbLine
 10
238.42740578
 20
67.0
 30
0.0
 11
244.61542732
 21
70.5726559
 31
0.0
  0
LINE
  5
F7
100
AcDbEntity
  8
D-STR
  6
CONTINUOUS
 62
       1
100
AcDbLine
 10
158.42740578
 20
67.0
 30
0.0
 11
238.42740578
 21
67.0
 31
0.0
  0
LINE
  5
F8
100
AcDbEntity
  8
D-STR
  6
CONTINUOUS
 62
       1
100
AcDbLine
 10
158.42740578
 20
67.0
 30
0.0
 11
152.23938425
 21
70.5726559
 31
0.0
  0
LINE
  5
F9
100
AcDbEntity
  8
D-BMK
  6
CENTER
 62
       2
100
AcDbLine
 10
198.42740578
 20
93.0
 30
0.0
 11
198.42740578
 21
67.0
 31
0.0
  0
ENDBLK
  5
FA
100
AcDbEntity
  8
0
100
AcDbBlockEnd
  0
BLOCK
  5
FB
100
AcDbEntity
  8
0
100
AcDbBlockBegin
  2
GROUP_10
 70
       0
 10
0.0
 20
0.0
 30
0.0
  3
GROUP_10
  1

  0
LINE
  5
FC
100
AcDbEntity
  8
D-STR
  6
CONTINUOUS
 62
       1
100
AcDbLine
 10
296.57695155
 20
71.01923789
 30
0.0
 11
296.57695155
 21
92.98076211
 31
0.0
  0
LINE
  5
FD
100
AcDbEntity
  8
D-STR
  6
CONTINUOUS
 62
       1
100
AcDbLine
 10
400.5
 20
71.01923789
 30
0.0
 11
400.5
 21
92.98076211
 31
0.0
  0
LINE
  5
FE
100
AcDbEntity
  8
D-STR
  6
CONTINUOUS
 62
       1
100
AcDbLine
 10
303.53847577
 20
97.0
 30
0.0
 11
393.53847577
 21
97.0
 31
0.0
  0
LINE
  5
FF
100
AcDbEntity
  8
D-STR
  6
CONTINUOUS
 62
       1
100
AcDbLine
 10
303.53847577
 20
97.0
 30
0.0
 11
296.57695155
 21
92.98076211
 31
0.0
  0
LINE
  5
100
100
AcDbEntity
  8
D-STR
  6
CONTINUOUS
 62
       1
100
AcDbLine
 10
393.53847577
 20
97.0
 30
0.0
 11
400.5
 21
92.98076211
 31
0.0
  0
ARC
  5
101
100
AcDbEntity
  8
D-STR
  6
CONTINUOUS
 62
       1
100
AcDbCircle
 10
348.53847577
 20
11.01923789
 30
0.0
 40
85.98076211
100
AcDbArc
 50
72.41204623
 51
107.58795377
  0
LINE
  5
102
100
AcDbEntity
  8
D-STR
  6
CONTINUOUS
 62
       1
100
AcDbLine
 10
374.51923789
 20
71.01923789
 30
0.0
 11
374.51923789
 21
92.98076211
 31
0.0
  0
LINE
  5
103
100
AcDbEntity
  8
D-STR
  6
CONTINUOUS
 62
       1
100
AcDbLine
 10
322.55771366
 20
71.01923789
 30
0.0
 11
322.55771366
 21
92.98076211
 31
0.0
  0
ARC
  5
104
100
AcDbEntity
  8
D-STR
  6
CONTINUOUS
 62
       1
100
AcDbCircle
 10
309.5673326
 20
73.99759526
 30
0.0
 40
23.00240474
100
AcDbArc
 50
55.61575253
 51
124.38424747
  0
ARC
  5
105
100
AcDbEntity
  8
D-STR
  6
CONTINUOUS
 62
       1
100
AcDbCircle
 10
387.50961894
 20
73.99759526
 30
0.0
 40
23.00240474
100
AcDbArc
 50
55.61575253
 51
124.38424747
  0
ARC
  5
106
100
AcDbEntity
  8
D-STR
  6
CONTINUOUS
 62
       1
100
AcDbCircle
 10
348.53847577
 20
152.98076211
 30
0.0
 40
85.98076211
100
AcDbArc
 50
252.41204623
 51
287.58795377
  0
ARC
  5
107
100
AcDbEntity
  8
D-STR
  6
CONTINUOUS
 62
       1
100
AcDbCircle
 10
309.5673326
 20
90.00240474
 30
0.0
 40
23.00240474
100
AcDbArc
 50
235.61575253
 51
304.38424747
  0
ARC
  5
108
100
AcDbEntity
  8
D-STR
  6
CONTINUOUS
 62
       1
100
AcDbCircle
 10
387.50961894
 20
90.00240474
 30
0.0
 40
23.00240474
100
AcDbArc
 50
235.61575253
 51
304.38424747
  0
LINE
  5
109
100
AcDbEntity
  8
D-STR
  6
CONTINUOUS
 62
       1
100
AcDbLine
 10
303.53847577
 20
67.0
 30
0.0
 11
393.53847577
 21
67.0
 31
0.0
  0
LINE
  5
10A
100
AcDbEntity
  8
D-STR
  6
CONTINUOUS
 62
       1
100
AcDbLine
 10
303.53847577
 20
67.0
 30
0.0
 11
296.57695155
 21
71.01923789
 31
0.0
  0
LINE
  5
10B
100
AcDbEntity
  8
D-STR
  6
CONTINUOUS
 62
       1
100
AcDbLine
 10
393.53847577
 20
67.0
 30
0.0
 11
400.5
 21
71.01923789
 31
0.0
  0
LINE
  5
10C
100
AcDbEntity
  8
D-BMK
  6
CENTER
 62
       2
100
AcDbLine
 10
348.53847577
 20
97.0
 30
0.0
 11
348.53847577
 21
67.0
 31
0.0
  0
ENDBLK
  5
10D
100
AcDbEntity
  8
0
100
AcDbBlockEnd
  0
BLOCK
  5
10E
100
AcDbEntity
  8
0
100
AcDbBlockBegin
  2
GROUP_11
 70
       0
 10
0.0
 20
0.0
 30
0.0
  3
GROUP_11
  1

  0
CIRCLE
  5
10F
100
AcDbEntity
  8
D-STR
  6
CONTINUOUS
 62
       1
100
AcDbCircle
 10
-271.1735397
 20
-215.0
 30
0.0
 40
9.647
  0
CIRCLE
  5
110
100
AcDbEntity
  8
D-STR
  6
CONTINUOUS
 62
       1
100
AcDbCircle
 10
-271.1735397
 20
-215.0
 30
0.0
 40
17.0
  0
LINE
  5
111
100
AcDbEntity
  8
D-STR
  6
CONTINUOUS
 62
       1
100
AcDbLine
 10
-280.98849428
 20
-198.0
 30
0.0
 11
-261.35858513
 21
-198.0
 31
0.0
  0
LINE
  5
112
100
AcDbEntity
  8
D-STR
  6
CONTINUOUS
 62
       1
100
AcDbLine
 10
-290.80344885
 20
-215.0
 30
0.0
 11
-280.98849428
 21
-198.0
 31
0.0
  0
LINE
  5
113
100
AcDbEntity
  8
D-STR
  6
CONTINUOUS
 62
       1
100
AcDbLine
 10
-280.98849428
 20
-232.0
 30
0.0
 11
-290.80344885
 21
-215.0
 31
0.0
  0
LINE
  5
114
100
AcDbEntity
  8
D-STR
  6
CONTINUOUS
 62
       1
100
AcDbLine
 10
-261.35858513
 20
-232.0
 30
0.0
 11
-280.98849428
 21
-232.0
 31
0.0
  0
LINE
  5
115
100
AcDbEntity
  8
D-STR
  6
CONTINUOUS
 62
       1
100
AcDbLine
 10
-251.54363055
 20
-215.0
 30
0.0
 11
-261.35858513
 21
-232.0
 31
0.0
  0
LINE
  5
116
100
AcDbEntity
  8
D-STR
  6
CONTINUOUS
 62
       1
100
AcDbLine
 10
-261.35858513
 20
-198.0
 30
0.0
 11
-251.54363055
 21
-215.0
 31
0.0
  0
CIRCLE
  5
117
100
AcDbEntity
  8
D-STR
  6
CONTINUOUS
 62
       7
100
AcDbCircle
 10
-271.1735397
 20
-215.0
 30
0.0
 40
11.0
  0
LINE
  5
118
100
AcDbEntity
  8
D-BMK
  6
CENTER
 62
       2
100
AcDbLine
 10
-290.80344885
 20
-215.0
 30
0.0
 11
-251.54363055
 21
-215.0
 31
0.0
  0
LINE
  5
119
100
AcDbEntity
  8
D-BMK
  6
CENTER
 62
       2
100
AcDbLine
 10
-271.1735397
 20
-232.0
 30
0.0
 11
-271.1735397
 21
-198.0
 31
0.0
  0
ENDBLK
  5
11A
100
AcDbEntity
  8
0
100
AcDbBlockEnd
  0
BLOCK
  5
11B
100
AcDbEntity
  8
0
100
AcDbBlockBegin
  2
GROUP_12
 70
       0
 10
0.0
 20
0.0
 30
0.0
  3
GROUP_12
  1

  0
CIRCLE
  5
11C
100
AcDbEntity
  8
D-STR
  6
CONTINUOUS
 62
       1
100
AcDbCircle
 10
64.76607798
 20
194.5
 30
0.0
 40
20.0645
  0
CIRCLE
  5
11D
100
AcDbEntity
  8
D-STR
  6
CONTINUOUS
 62
       1
100
AcDbCircle
 10
64.76607798
 20
194.5
 30
0.0
 40
35.0
  0
LINE
  5
11E
100
AcDbEntity
  8
D-STR
  6
CONTINUOUS
 62
       1
100
AcDbLine
 10
44.55881856
 20
229.5
 30
0.0
 11
84.9733374
 21
229.5
 31
0.0
  0
LINE
  5
11F
100
AcDbEntity
  8
D-STR
  6
CONTINUOUS
 62
       1
100
AcDbLine
 10
24.35155914
 20
194.5
 30
0.0
 11
44.55881856
 21
229.5
 31
0.0
  0
LINE
  5
120
100
AcDbEntity
  8
D-STR
  6
CONTINUOUS
 62
       1
100
AcDbLine
 10
44.55881856
 20
159.5
 30
0.0
 11
24.35155914
 21
194.5
 31
0.0
  0
LINE
  5
121
100
AcDbEntity
  8
D-STR
  6
CONTINUOUS
 62
       1
100
AcDbLine
 10
84.9733374
 20
159.5
 30
0.0
 11
44.55881856
 21
159.5
 31
0.0
  0
LINE
  5
122
100
AcDbEntity
  8
D-STR
  6
CONTINUOUS
 62
       1
100
AcDbLine
 10
105.18059682
 20
194.5
 30
0.0
 11
84.9733374
 21
159.5
 31
0.0
  0
LINE
  5
123
100
AcDbEntity
  8
D-STR
  6
CONTINUOUS
 62
       1
100
AcDbLine
 10
84.9733374
 20
229.5
 30
0.0
 11
105.18059682
 21
194.5
 31
0.0
  0
CIRCLE
  5
124
100
AcDbEntity
  8
D-STR
  6
CONTINUOUS
 62
       7
100
AcDbCircle
 10
64.76607798
 20
194.5
 30
0.0
 40
22.5
  0
LINE
  5
125
100
AcDbEntity
  8
D-BMK
  6
CENTER
 62
       2
100
AcDbLine
 10
64.76607798
 20
159.5
 30
0.0
 11
64.76607798
 21
229.5
 31
0.0
  0
LINE
  5
126
100
AcDbEntity
  8
D-BMK
  6
CENTER
 62
       2
100
AcDbLine
 10
24.35155914
 20
194.5
 30
0.0
 11
105.18059682
 21
194.5
 31
0.0
  0
ENDBLK
  5
127
100
AcDbEntity
  8
0
100
AcDbBlockEnd
  0
BLOCK
  5
128
100
AcDbEntity
  8
0
100
AcDbBlockBegin
  2
GROUP_13
 70
       0
 10
0.0
 20
0.0
 30
0.0
  3
GROUP_13
  1

  0
CIRCLE
  5
129
100
AcDbEntity
  8
D-STR
  6
CONTINUOUS
 62
       1
100
AcDbCircle
 10
198.42740578
 20
213.0
 30
0.0
 40
23.2935
  0
CIRCLE
  5
12A
100
AcDbEntity
  8
D-STR
  6
CONTINUOUS
 62
       1
100
AcDbCircle
 10
198.42740578
 20
213.0
 30
0.0
 40
40.0
  0
LINE
  5
12B
100
AcDbEntity
  8
D-STR
  6
CONTINUOUS
 62
       1
100
AcDbLine
 10
175.33339502
 20
253.0
 30
0.0
 11
221.52141655
 21
253.0
 31
0.0
  0
LINE
  5
12C
100
AcDbEntity
  8
D-STR
  6
CONTINUOUS
 62
       1
100
AcDbLine
 10
152.23938425
 20
213.0
 30
0.0
 11
175.33339502
 21
253.0
 31
0.0
  0
LINE
  5
12D
100
AcDbEntity
  8
D-STR
  6
CONTINUOUS
 62
       1
100
AcDbLine
 10
175.33339502
 20
173.0
 30
0.0
 11
152.23938425
 21
213.0
 31
0.0
  0
LINE
  5
12E
100
AcDbEntity
  8
D-STR
  6
CONTINUOUS
 62
       1
100
AcDbLine
 10
221.52141655
 20
173.0
 30
0.0
 11
175.33339502
 21
173.0
 31
0.0
  0
LINE
  5
12F
100
AcDbEntity
  8
D-STR
  6
CONTINUOUS
 62
       1
100
AcDbLine
 10
244.61542732
 20
213.0
 30
0.0
 11
221.52141655
 21
173.0
 31
0.0
  0
LINE
  5
130
100
AcDbEntity
  8
D-STR
  6
CONTINUOUS
 62
       1
100
AcDbLine
 10
221.52141655
 20
253.0
 30
0.0
 11
244.61542732
 21
213.0
 31
0.0
  0
CIRCLE
  5
131
100
AcDbEntity
  8
D-STR
  6
CONTINUOUS
 62
       7
100
AcDbCircle
 10
198.42740578
 20
213.0
 30
0.0
 40
26.0
  0
LINE
  5
132
100
AcDbEntity
  8
D-BMK
  6
CENTER
 62
       2
100
AcDbLine
 10
198.42740578
 20
173.0
 30
0.0
 11
198.42740578
 21
253.0
 31
0.0
  0
LINE
  5
133
100
AcDbEntity
  8
D-BMK
  6
CENTER
 62
       2
100
AcDbLine
 10
152.23938425
 20
213.0
 30
0.0
 11
244.61542732
 21
213.0
 31
0.0
  0
ENDBLK
  5
134
100
AcDbEntity
  8
0
100
AcDbBlockEnd
  0
BLOCK
  5
135
100
AcDbEntity
  8
0
100
AcDbBlockBegin
  2
GROUP_14
 70
       0
 10
0.0
 20
0.0
 30
0.0
  3
GROUP_14
  1

  0
CIRCLE
  5
136
100
AcDbEntity
  8
D-STR
  6
CONTINUOUS
 62
       1
100
AcDbCircle
 10
-397.03589838
 20
-266.0
 30
0.0
 40
1.425
  0
CIRCLE
  5
137
100
AcDbEntity
  8
D-STR
  6
CONTINUOUS
 62
       1
100
AcDbCircle
 10
-397.03589838
 20
-266.0
 30
0.0
 40
3.0
  0
LINE
  5
138
100
AcDbEntity
  8
D-STR
  6
CONTINUOUS
 62
       1
100
AcDbLine
 10
-398.76794919
 20
-263.0
 30
0.0
 11
-395.30384758
 21
-263.0
 31
0.0
  0
LINE
  5
139
100
AcDbEntity
  8
D-STR
  6
CONTINUOUS
 62
       1
100
AcDbLine
 10
-400.5
 20
-266.0
 30
0.0
 11
-398.76794919
 21
-263.0
 31
0.0
  0
LINE
  5
13A
100
AcDbEntity
  8
D-STR
  6
CONTINUOUS
 62
       1
100
AcDbLine
 10
-398.76794919
 20
-269.0
 30
0.0
 11
-400.5
 21
-266.0
 31
0.0
  0
LINE
  5
13B
100
AcDbEntity
  8
D-STR
  6
CONTINUOUS
 62
       1
100
AcDbLine
 10
-395.30384758
 20
-269.0
 30
0.0
 11
-398.76794919
 21
-269.0
 31
0.0
  0
LINE
  5
13C
100
AcDbEntity
  8
D-STR
  6
CONTINUOUS
 62
       1
100
AcDbLine
 10
-393.57179677
 20
-266.0
 30
0.0
 11
-395.30384758
 21
-269.0
 31
0.0
  0
LINE
  5
13D
100
AcDbEntity
  8
D-STR
  6
CONTINUOUS
 62
       1
100
AcDbLine
 10
-395.30384758
 20
-263.0
 30
0.0
 11
-393.57179677
 21
-266.0
 31
0.0
  0
CIRCLE
  5
13E
100
AcDbEntity
  8
D-STR
  6
CONTINUOUS
 62
       7
100
AcDbCircle
 10
-397.03589838
 20
-266.0
 30
0.0
 40
1.75
  0
LINE
  5
13F
100
AcDbEntity
  8
D-BMK
  6
CENTER
 62
       2
100
AcDbLine
 10
-400.5
 20
-266.0
 30
0.0
 11
-393.57179677
 21
-266.0
 31
0.0
  0
LINE
  5
140
100
AcDbEntity
  8
D-BMK
  6
CENTER
 62
       2
100
AcDbLine
 10
-397.03589838
 20
-269.0
 30
0.0
 11
-397.03589838
 21
-263.0
 31
0.0
  0
ENDBLK
  5
141
100
AcDbEntity
  8
0
100
AcDbBlockEnd
  0
BLOCK
  5
142
100
AcDbEntity
  8
0
100
AcDbBlockBegin
  2
GROUP_15
 70
       0
 10
0.0
 20
0.0
 30
0.0
  3
GROUP_15
  1

  0
CIRCLE
  5
143
100
AcDbEntity
  8
D-STR
  6
CONTINUOUS
 62
       1
100
AcDbCircle
 10
-369.32308546
 20
-238.5
 30
0.0
 40
5.9175
  0
CIRCLE
  5
144
100
AcDbEntity
  8
D-STR
  6
CONTINUOUS
 62
       1
100
AcDbCircle
 10
-369.32308546
 20
-238.5
 30
0.0
 40
10.5
  0
LINE
  5
145
100
AcDbEntity
  8
D-STR
  6
CONTINUOUS
 62
       1
100
AcDbLine
 10
-375.38526329
 20
-228.0
 30
0.0
 11
-363.26090764
 21
-228.0
 31
0.0
  0
LINE
  5
146
100
AcDbEntity
  8
D-STR
  6
CONTINUOUS
 62
       1
100
AcDbLine
 10
-381.44744112
 20
-238.5
 30
0.0
 11
-375.38526329
 21
-228.0
 31
0.0
  0
LINE
  5
147
100
AcDbEntity
  8
D-STR
  6
CONTINUOUS
 62
       1
100
AcDbLine
 10
-375.38526329
 20
-249.0
 30
0.0
 11
-381.44744112
 21
-238.5
 31
0.0
  0
LINE
  5
148
100
AcDbEntity
  8
D-STR
  6
CONTINUOUS
 62
       1
100
AcDbLine
 10
-363.26090764
 20
-249.0
 30
0.0
 11
-375.38526329
 21
-249.0
 31
0.0
  0
LINE
  5
149
100
AcDbEntity
  8
D-STR
  6
CONTINUOUS
 62
       1
100
AcDbLine
 10
-357.19872981
 20
-238.5
 30
0.0
 11
-363.26090764
 21
-249.0
 31
0.0
  0
LINE
  5
14A
100
AcDbEntity
  8
D-STR
  6
CONTINUOUS
 62
       1
100
AcDbLine
 10
-363.26090764
 20
-228.0
 30
0.0
 11
-357.19872981
 21
-238.5
 31
0.0
  0
CIRCLE
  5
14B
100
AcDbEntity
  8
D-STR
  6
CONTINUOUS
 62
       7
100
AcDbCircle
 10
-369.32308546
 20
-238.5
 30
0.0
 40
7.0
  0
LINE
  5
14C
100
AcDbEntity
  8
D-BMK
  6
CENTER
 62
       2
100
AcDbLine
 10
-381.44744112
 20
-238.5
 30
0.0
 11
-357.19872981
 21
-238.5
 31
0.0
  0
LINE
  5
14D
100
AcDbEntity
  8
D-BMK
  6
CENTER
 62
       2
100
AcDbLine
 10
-369.32308546
 20
-249.0
 30
0.0
 11
-369.32308546
 21
-228.0
 31
0.0
  0
ENDBLK
  5
14E
100
AcDbEntity
  8
0
100
AcDbBlockEnd
  0
BLOCK
  5
14F
100
AcDbEntity
  8
0
100
AcDbBlockBegin
  2
GROUP_16
 70
       0
 10
0.0
 20
0.0
 30
0.0
  3
GROUP_16
  1

  0
CIRCLE
  5
150
100
AcDbEntity
  8
D-STR
  6
CONTINUOUS
 62
       1
100
AcDbCircle
 10
-326.02181527
 20
-227.5
 30
0.0
 40
7.647
  0
CIRCLE
  5
151
100
AcDbEntity
  8
D-STR
  6
CONTINUOUS
 62
       1
100
AcDbCircle
 10
-326.02181527
 20
-227.5
 30
0.0
 40
13.5
  0
LINE
  5
152
100
AcDbEntity
  8
D-STR
  6
CONTINUOUS
 62
       1
100
AcDbLine
 10
-333.81604391
 20
-214.0
 30
0.0
 11
-318.22758664
 21
-214.0
 31
0.0
  0
LINE
  5
153
100
AcDbEntity
  8
D-STR
  6
CONTINUOUS
 62
       1
100
AcDbLine
 10
-341.61027254
 20
-227.5
 30
0.0
 11
-333.81604391
 21
-214.0
 31
0.0
  0
LINE
  5
154
100
AcDbEntity
  8
D-STR
  6
CONTINUOUS
 62
       1
100
AcDbLine
 10
-333.81604391
 20
-241.0
 30
0.0
 11
-341.61027254
 21
-227.5
 31
0.0
  0
LINE
  5
155
100
AcDbEntity
  8
D-STR
  6
CONTINUOUS
 62
       1
100
AcDbLine
 10
-318.22758664
 20
-241.0
 30
0.0
 11
-333.81604391
 21
-241.0
 31
0.0
  0
LINE
  5
156
100
AcDbEntity
  8
D-STR
  6
CONTINUOUS
 62
       1
100
AcDbLine
 10
-310.43335801
 20
-227.5
 30
0.0
 11
-318.22758664
 21
-241.0
 31
0.0
  0
LINE
  5
157
100
AcDbEntity
  8
D-STR
  6
CONTINUOUS
 62
       1
100
AcDbLine
 10
-318.22758664
 20
-214.0
 30
0.0
 11
-310.43335801
 21
-227.5
 31
0.0
  0
CIRCLE
  5
158
100
AcDbEntity
  8
D-STR
  6
CONTINUOUS
 62
       7
100
AcDbCircle
 10
-326.02181527
 20
-227.5
 30
0.0
 40
9.0
  0
LINE
  5
159
100
AcDbEntity
  8
D-BMK
  6
CENTER
 62
       2
100
AcDbLine
 10
-341.61027254
 20
-227.5
 30
0.0
 11
-310.43335801
 21
-227.5
 31
0.0
  0
LINE
  5
15A
100
AcDbEntity
  8
D-BMK
  6
CENTER
 62
       2
100
AcDbLine
 10
-326.02181527
 20
-241.0
 30
0.0
 11
-326.02181527
 21
-214.0
 31
0.0
  0
ENDBLK
  5
15B
100
AcDbEntity
  8
0
100
AcDbBlockEnd
  0
BLOCK
  5
15C
100
AcDbEntity
  8
0
100
AcDbBlockBegin
  2
GROUP_17
 70
       0
 10
0.0
 20
0.0
 30
0.0
  3
GROUP_17
  1

  0
CIRCLE
  5
15D
100
AcDbEntity
  8
D-STR
  6
CONTINUOUS
 62
       1
100
AcDbCircle
 10
-230.25990957
 20
142.0
 30
0.0
 40
11.876
  0
CIRCLE
  5
15E
100
AcDbEntity
  8
D-STR
  6
CONTINUOUS
 62
       1
100
AcDbCircle
 10
-230.25990957
 20
142.0
 30
0.0
 40
20.5
  0
LINE
  5
15F
100
AcDbEntity
  8
D-STR
  6
CONTINUOUS
 62
       1
100
AcDbLine
 10
-242.09559009
 20
162.5
 30
0.0
 11
-218.42422906
 21
162.5
 31
0.0
  0
LINE
  5
160
100
AcDbEntity
  8
D-STR
  6
CONTINUOUS
 62
       1
100
AcDbLine
 10
-253.93127061
 20
142.0
 30
0.0
 11
-242.09559009
 21
162.5
 31
0.0
  0
LINE
  5
161
100
AcDbEntity
  8
D-STR
  6
CONTINUOUS
 62
       1
100
AcDbLine
 10
-242.09559009
 20
121.5
 30
0.0
 11
-253.93127061
 21
142.0
 31
0.0
  0
LINE
  5
162
100
AcDbEntity
  8
D-STR
  6
CONTINUOUS
 62
       1
100
AcDbLine
 10
-218.42422906
 20
121.5
 30
0.0
 11
-242.09559009
 21
121.5
 31
0.0
  0
LINE
  5
163
100
AcDbEntity
  8
D-STR
  6
CONTINUOUS
 62
       1
100
AcDbLine
 10
-206.58854854
 20
142.0
 30
0.0
 11
-218.42422906
 21
121.5
 31
0.0
  0
LINE
  5
164
100
AcDbEntity
  8
D-STR
  6
CONTINUOUS
 62
       1
100
AcDbLine
 10
-218.42422906
 20
162.5
 30
0.0
 11
-206.58854854
 21
142.0
 31
0.0
  0
CIRCLE
  5
165
100
AcDbEntity
  8
D-STR
  6
CONTINUOUS
 62
       7
100
AcDbCircle
 10
-230.25990957
 20
142.0
 30
0.0
 40
13.5
  0
LINE
  5
166
100
AcDbEntity
  8
D-BMK
  6
CENTER
 62
       2
100
AcDbLine
 10
-253.93127061
 20
142.0
 30
0.0
 11
-206.58854854
 21
142.0
 31
0.0
  0
LINE
  5
167
100
AcDbEntity
  8
D-BMK
  6
CENTER
 62
       2
100
AcDbLine
 10
-230.25990957
 20
121.5
 30
0.0
 11
-230.25990957
 21
162.5
 31
0.0
  0
ENDBLK
  5
168
100
AcDbEntity
  8
0
100
AcDbBlockEnd
  0
BLOCK
  5
169
100
AcDbEntity
  8
0
100
AcDbBlockBegin
  2
GROUP_18
 70
       0
 10
0.0
 20
0.0
 30
0.0
  3
GROUP_18
  1

  0
CIRCLE
  5
16A
100
AcDbEntity
  8
D-STR
  6
CONTINUOUS
 62
       1
100
AcDbCircle
 10
-148.85352162
 20
158.5
 30
0.0
 40
14.6055
  0
CIRCLE
  5
16B
100
AcDbEntity
  8
D-STR
  6
CONTINUOUS
 62
       1
100
AcDbCircle
 10
-148.85352162
 20
158.5
 30
0.0
 40
25.0
  0
LINE
  5
16C
100
AcDbEntity
  8
D-STR
  6
CONTINUOUS
 62
       1
100
AcDbLine
 10
-163.28727835
 20
183.5
 30
0.0
 11
-134.41976489
 21
183.5
 31
0.0
  0
LINE
  5
16D
100
AcDbEntity
  8
D-STR
  6
CONTINUOUS
 62
       1
100
AcDbLine
 10
-177.72103508
 20
158.5
 30
0.0
 11
-163.28727835
 21
183.5
 31
0.0
  0
LINE
  5
16E
100
AcDbEntity
  8
D-STR
  6
CONTINUOUS
 62
       1
100
AcDbLine
 10
-163.28727835
 20
133.5
 30
0.0
 11
-177.72103508
 21
158.5
 31
0.0
  0
LINE
  5
16F
100
AcDbEntity
  8
D-STR
  6
CONTINUOUS
 62
       1
100
AcDbLine
 10
-134.41976489
 20
133.5
 30
0.0
 11
-163.28727835
 21
133.5
 31
0.0
  0
LINE
  5
170
100
AcDbEntity
  8
D-STR
  6
CONTINUOUS
 62
       1
100
AcDbLine
 10
-119.98600816
 20
158.5
 30
0.0
 11
-134.41976489
 21
133.5
 31
0.0
  0
LINE
  5
171
100
AcDbEntity
  8
D-STR
  6
CONTINUOUS
 62
       1
100
AcDbLine
 10
-134.41976489
 20
183.5
 30
0.0
 11
-119.98600816
 21
158.5
 31
0.0
  0
CIRCLE
  5
172
100
AcDbEntity
  8
D-STR
  6
CONTINUOUS
 62
       7
100
AcDbCircle
 10
-148.85352162
 20
158.5
 30
0.0
 40
16.5
  0
LINE
  5
173
100
AcDbEntity
  8
D-BMK
  6
CENTER
 62
       2
100
AcDbLine
 10
-177.72103508
 20
158.5
 30
0.0
 11
-119.98600816
 21
158.5
 31
0.0
  0
LINE
  5
174
100
AcDbEntity
  8
D-BMK
  6
CENTER
 62
       2
100
AcDbLine
 10
-148.85352162
 20
133.5
 30
0.0
 11
-148.85352162
 21
183.5
 31
0.0
  0
ENDBLK
  5
175
100
AcDbEntity
  8
0
100
AcDbBlockEnd
  0
BLOCK
  5
176
100
AcDbEntity
  8
0
100
AcDbBlockBegin
  2
GROUP_19
 70
       0
 10
0.0
 20
0.0
 30
0.0
  3
GROUP_19
  1

  0
CIRCLE
  5
177
100
AcDbEntity
  8
D-STR
  6
CONTINUOUS
 62
       1
100
AcDbCircle
 10
-50.70397586
 20
176.5
 30
0.0
 40
17.335
  0
CIRCLE
  5
178
100
AcDbEntity
  8
D-STR
  6
CONTINUOUS
 62
       1
100
AcDbCircle
 10
-50.70397586
 20
176.5
 30
0.0
 40
30.0
  0
LINE
  5
179
100
AcDbEntity
  8
D-STR
  6
CONTINUOUS
 62
       1
100
AcDbLine
 10
-68.02448393
 20
206.5
 30
0.0
 11
-33.38346778
 21
206.5
 31
0.0
  0
LINE
  5
17A
100
AcDbEntity
  8
D-STR
  6
CONTINUOUS
 62
       1
100
AcDbLine
 10
-85.34499201
 20
176.5
 30
0.0
 11
-68.02448393
 21
206.5
 31
0.0
  0
LINE
  5
17B
100
AcDbEntity
  8
D-STR
  6
CONTINUOUS
 62
       1
100
AcDbLine
 10
-68.02448393
 20
146.5
 30
0.0
 11
-85.34499201
 21
176.5
 31
0.0
  0
LINE
  5
17C
100
AcDbEntity
  8
D-STR
  6
CONTINUOUS
 62
       1
100
AcDbLine
 10
-33.38346778
 20
146.5
 30
0.0
 11
-68.02448393
 21
146.5
 31
0.0
  0
LINE
  5
17D
100
AcDbEntity
  8
D-STR
  6
CONTINUOUS
 62
       1
100
AcDbLine
 10
-16.06295971
 20
176.5
 30
0.0
 11
-33.38346778
 21
146.5
 31
0.0
  0
LINE
  5
17E
100
AcDbEntity
  8
D-STR
  6
CONTINUOUS
 62
       1
100
AcDbLine
 10
-33.38346778
 20
206.5
 30
0.0
 11
-16.06295971
 21
176.5
 31
0.0
  0
CIRCLE
  5
17F
100
AcDbEntity
  8
D-STR
  6
CONTINUOUS
 62
       7
100
AcDbCircle
 10
-50.70397586
 20
176.5
 30
0.0
 40
19.5
  0
LINE
  5
180
100
AcDbEntity
  8
D-BMK
  6
CENTER
 62
       2
100
AcDbLine
 10
-85.34499201
 20
176.5
 30
0.0
 11
-16.06295971
 21
176.5
 31
0.0
  0
LINE
  5
181
100
AcDbEntity
  8
D-BMK
  6
CENTER
 62
       2
100
AcDbLine
 10
-50.70397586
 20
146.5
 30
0.0
 11
-50.70397586
 21
206.5
 31
0.0
  0
ENDBLK
  5
182
100
AcDbEntity
  8
0
100
AcDbBlockEnd
  0
BLOCK
  5
183
100
AcDbEntity
  8
0
100
AcDbBlockBegin
  2
GROUP_20
 70
       0
 10
0.0
 20
0.0
 30
0.0
  3
GROUP_20
  1

  0
CIRCLE
  5
184
100
AcDbEntity
  8
D-STR
  6
CONTINUOUS
 62
       1
100
AcDbCircle
 10
348.53847577
 20
232.0
 30
0.0
 40
27.023
  0
CIRCLE
  5
185
100
AcDbEntity
  8
D-STR
  6
CONTINUOUS
 62
       1
100
AcDbCircle
 10
348.53847577
 20
232.0
 30
0.0
 40
45.0
  0
LINE
  5
186
100
AcDbEntity
  8
D-STR
  6
CONTINUOUS
 62
       1
100
AcDbLine
 10
322.55771366
 20
277.0
 30
0.0
 11
374.51923789
 21
277.0
 31
0.0
  0
LINE
  5
187
100
AcDbEntity
  8
D-STR
  6
CONTINUOUS
 62
       1
100
AcDbLine
 10
296.57695155
 20
232.0
 30
0.0
 11
322.55771366
 21
277.0
 31
0.0
  0
LINE
  5
188
100
AcDbEntity
  8
D-STR
  6
CONTINUOUS
 62
       1
100
AcDbLine
 10
322.55771366
 20
187.0
 30
0.0
 11
296.57695155
 21
232.0
 31
0.0
  0
LINE
  5
189
100
AcDbEntity
  8
D-STR
  6
CONTINUOUS
 62
       1
100
AcDbLine
 10
374.51923789
 20
187.0
 30
0.0
 11
322.55771366
 21
187.0
 31
0.0
  0
LINE
  5
18A
100
AcDbEntity
  8
D-STR
  6
CONTINUOUS
 62
       1
100
AcDbLine
 10
400.5
 20
232.0
 30
0.0
 11
374.51923789
 21
187.0
 31
0.0
  0
LINE
  5
18B
100
AcDbEntity
  8
D-STR
  6
CONTINUOUS
 62
       1
100
AcDbLine
 10
374.51923789
 20
277.0
 30
0.0
 11
400.5
 21
232.0
 31
0.0
  0
CIRCLE
  5
18C
100
AcDbEntity
  8
D-STR
  6
CONTINUOUS
 62
       7
100
AcDbCircle
 10
348.53847577
 20
232.0
 30
0.0
 40
30.0
  0
LINE
  5
18D
100
AcDbEntity
  8
D-BMK
  6
CENTER
 62
       2
100
AcDbLine
 10
348.53847577
 20
187.0
 30
0.0
 11
348.53847577
 21
277.0
 31
0.0
  0
LINE
  5
18E
100
AcDbEntity
  8
D-BMK
  6
CENTER
 62
       2
100
AcDbLine
 10
296.57695155
 20
232.0
 30
0.0
 11
400.5
 21
232.0
 31
0.0
  0
ENDBLK
  5
18F
100
AcDbEntity
  8
0
100
AcDbBlockEnd
  0
ENDSEC
  0
SECTION
  2
ENTITIES
  0
INSERT
  5
190
100
AcDbEntity
  8
0
  6
CONTINUOUS
100
AcDbBlockReference
  2
GROUP_1
 10
0.0
 20
0.0
 30
0.0
  0
INSERT
  5
191
100
AcDbEntity
  8
0
  6
CONTINUOUS
100
AcDbBlockReference
  2
GROUP_2
 10
0.0
 20
0.0
 30
0.0
  0
INSERT
  5
192
100
AcDbEntity
  8
0
  6
CONTINUOUS
100
AcDbBlockReference
  2
GROUP_3
 10
0.0
 20
0.0
 30
0.0
  0
INSERT
  5
193
100
AcDbEntity
  8
0
  6
CONTINUOUS
100
AcDbBlockReference
  2
GROUP_4
 10
0.0
 20
0.0
 30
0.0
  0
INSERT
  5
194
100
AcDbEntity
  8
0
  6
CONTINUOUS
100
AcDbBlockReference
  2
GROUP_5
 10
0.0
 20
0.0
 30
0.0
  0
INSERT
  5
195
100
AcDbEntity
  8
0
  6
CONTINUOUS
100
AcDbBlockReference
  2
GROUP_6
 10
0.0
 20
0.0
 30
0.0
  0
INSERT
  5
196
100
AcDbEntity
  8
0
  6
CONTINUOUS
100
AcDbBlockReference
  2
GROUP_7
 10
0.0
 20
0.0
 30
0.0
  0
INSERT
  5
197
100
AcDbEntity
  8
0
  6
CONTINUOUS
100
AcDbBlockReference
  2
GROUP_8
 10
0.0
 20
0.0
 30
0.0
  0
INSERT
  5
198
100
AcDbEntity
  8
0
  6
CONTINUOUS
100
AcDbBlockReference
  2
GROUP_9
 10
0.0
 20
0.0
 30
0.0
  0
INSERT
  5
199
100
AcDbEntity
  8
0
  6
CONTINUOUS
100
AcDbBlockReference
  2
GROUP_10
 10
0.0
 20
0.0
 30
0.0
  0
INSERT
  5
19A
100
AcDbEntity
  8
0
  6
CONTINUOUS
100
AcDbBlockReference
  2
GROUP_11
 10
0.0
 20
0.0
 30
0.0
  0
INSERT
  5
19B
100
AcDbEntity
  8
0
  6
CONTINUOUS
100
AcDbBlockReference
  2
GROUP_12
 10
0.0
 20
0.0
 30
0.0
  0
INSERT
  5
19C
100
AcDbEntity
  8
0
  6
CONTINUOUS
100
AcDbBlockReference
  2
GROUP_13
 10
0.0
 20
0.0
 30
0.0
  0
INSERT
  5
19D
100
AcDbEntity
  8
0
  6
CONTINUOUS
100
AcDbBlockReference
  2
GROUP_14
 10
0.0
 20
0.0
 30
0.0
  0
INSERT
  5
19E
100
AcDbEntity
  8
0
  6
CONTINUOUS
100
AcDbBlockReference
  2
GROUP_15
 10
0.0
 20
0.0
 30
0.0
  0
INSERT
  5
19F
100
AcDbEntity
  8
0
  6
CONTINUOUS
100
AcDbBlockReference
  2
GROUP_16
 10
0.0
 20
0.0
 30
0.0
  0
INSERT
  5
1A0
100
AcDbEntity
  8
0
  6
CONTINUOUS
100
AcDbBlockReference
  2
GROUP_17
 10
0.0
 20
0.0
 30
0.0
  0
INSERT
  5
1A1
100
AcDbEntity
  8
0
  6
CONTINUOUS
100
AcDbBlockReference
  2
GROUP_18
 10
0.0
 20
0.0
 30
0.0
  0
INSERT
  5
1A2
100
AcDbEntity
  8
0
  6
CONTINUOUS
100
AcDbBlockReference
  2
GROUP_19
 10
0.0
 20
0.0
 30
0.0
  0
INSERT
  5
1A3
100
AcDbEntity
  8
0
  6
CONTINUOUS
100
AcDbBlockReference
  2
GROUP_20
 10
0.0
 20
0.0
 30
0.0
  0
TEXT
  5
1A4
100
AcDbEntity
  8
D-STR-TXT
 62
       7
100
AcDbText
 10
-400.5
 20
273.5
 30
0.0
 40
3.5
  1
六角低ナット並目第2選択
 41
1.2
 72
       5
 11
-352.2
 21
273.5
 31
0.0
100
AcDbText
  0
TEXT
  5
1A5
100
AcDbEntity
  8
D-STR-TXT
 62
       7
100
AcDbText
 10
-400.5
 20
269.0
 30
0.0
 40
3.5
  1
M3.5,M14,M18,M22,M27,M33,M39,M45,M52,M60
 41
1.2
 72
       5
 11
-316.5
 21
269.0
 31
0.0
100
AcDbText
  0
ENDSEC
  0
SECTION
  2
OBJECTS
  0
DICTIONARY
  5
19
100
AcDbDictionary
  3
ACAD_GROUP
350
1A
  3
ACAD_MLINESTYLE
350
1B
  0
DICTIONARY
  5
1A
102
{ACAD_REACTORS
330
19
102
}
100
AcDbDictionary
  0
DICTIONARY
  5
1B
102
{ACAD_REACTORS
330
19
102
}
100
AcDbDictionary
  3
STANDARD
350
1C
  0
MLINESTYLE
  5
1C
102
{ACAD_REACTORS
330
1B
102
}
100
AcDbMlineStyle
  2
STANDARD
 70
       0
  3

 62
       0
 51
90.0
 52
90.0
 71
       2
 49
0.5
 62
     256
  6
BYLAYER
 49
-0.5
 62
     256
  6
BYLAYER
  0
ENDSEC
  0
EOF
