  0
SECTION
  2
HEADER
  9
$ACADVER
  1
AC1014
  9
$ACADMAINTVER
 70
       0
  9
$DWGCODEPAGE
  3
ANSI_932
  9
$INSBASE
 10
0.0
 20
0.0
 30
0.0
  9
$EXTMIN
 10
-416.52
 20
-288.08
 30
0.0
  9
$EXTMAX
 10
416.52
 20
288.08
 30
0.0
  9
$LIMMIN
 10
-442.5525
 20
-306.085
  9
$LIMMAX
 10
442.5525
 20
306.085
  9
$ORTHOMODE
 70
       0
  9
$REGENMODE
 70
       1
  9
$FILLMODE
 70
       1
  9
$QTEXTMODE
 70
       0
  9
$MIRRTEXT
 70
       1
  9
$DRAGMODE
 70
       2
  9
$LTSCALE
 40
1.0
  9
$OSMODE
 70
       0
  9
$ATTMODE
 70
       1
  9
$TEXTSIZE
 40
0.2
  9
$TRACEWID
 40
0.05
  9
$TEXTSTYLE
  7
STANDARD
  9
$CLAYER
  8
0
  9
$CELTYPE
  6
CONTINUOUS
  9
$CECOLOR
 62
     256
  9
$CELTSCALE
 40
1.0
  9
$DELOBJ
 70
       1
  9
$DISPSILH
 70
       0
  9
$DIMSCALE
 40
1.0
  9
$DIMASZ
 40
0.18
  9
$DIMEXO
 40
0.0625
  9
$DIMDLI
 40
0.38
  9
$DIMRND
 40
0.0
  9
$DIMDLE
 40
0.0
  9
$DIMEXE
 40
0.18
  9
$DIMTP
 40
0.0
  9
$DIMTM
 40
0.0
  9
$DIMTXT
 40
0.18
  9
$DIMCEN
 40
0.09
  9
$DIMTSZ
 40
0.0
  9
$DIMTOL
 70
       0
  9
$DIMLIM
 70
       0
  9
$DIMTIH
 70
       1
  9
$DIMTOH
 70
       1
  9
$DIMSE1
 70
       0
  9
$DIMSE2
 70
       0
  9
$DIMTAD
 70
       0
  9
$DIMZIN
 70
       0
  9
$DIMBLK
  1

  9
$DIMASO
 70
       1
  9
$DIMSHO
 70
       1
  9
$DIMPOST
  1

  9
$DIMAPOST
  1

  9
$DIMALT
 70
       0
  9
$DIMALTD
 70
       2
  9
$DIMALTF
 40
25.4
  9
$DIMLFAC
 40
1.0
  9
$DIMTOFL
 70
       0
  9
$DIMTVP
 40
0.0
  9
$DIMTIX
 70
       0
  9
$DIMSOXD
 70
       0
  9
$DIMSAH
 70
       0
  9
$DIMBLK1
  1

  9
$DIMBLK2
  1

  9
$DIMSTYLE
  2
STANDARD
  9
$DIMCLRD
 70
       0
  9
$DIMCLRE
 70
       0
  9
$DIMCLRT
 70
       0
  9
$DIMTFAC
 40
1.0
  9
$DIMGAP
 40
0.09
  9
$DIMJUST
 70
       0
  9
$DIMSD1
 70
       0
  9
$DIMSD2
 70
       0
  9
$DIMTOLJ
 70
       1
  9
$DIMTZIN
 70
       0
  9
$DIMALTZ
 70
       0
  9
$DIMALTTZ
 70
       0
  9
$DIMFIT
 70
       3
  9
$DIMUPT
 70
       0
  9
$DIMUNIT
 70
       2
  9
$DIMDEC
 70
       4
  9
$DIMTDEC
 70
       4
  9
$DIMALTU
 70
       2
  9
$DIMALTTD
 70
       2
  9
$DIMTXSTY
  7
STANDARD
  9
$DIMAUNIT
 70
       0
  9
$LUNITS
 70
       2
  9
$LUPREC
 70
       4
  9
$SKETCHINC
 40
0.1
  9
$FILLETRAD
 40
0.0
  9
$AUNITS
 70
       0
  9
$AUPREC
 70
       0
  9
$MENU
  1
acad
  9
$ELEVATION
 40
0.0
  9
$PELEVATION
 40
0.0
  9
$THICKNESS
 40
0.0
  9
$LIMCHECK
 70
       0
  9
$BLIPMODE
 70
       1
  9
$CHAMFERA
 40
0.0
  9
$CHAMFERB
 40
0.0
  9
$CHAMFERC
 40
0.0
  9
$CHAMFERD
 40
0.0
  9
$SKPOLY
 70
       0
  9
$TDCREATE
 40
0.000000000
  9
$TDUPDATE
 40
0.000000000
  9
$TDINDWG
 40
0.0000000000
  9
$TDUSRTIMER
 40
0.0000000000
  9
$USRTIMER
 70
       1
  9
$ANGBASE
 50
0.0
  9
$ANGDIR
 70
       0
  9
$PDMODE
 70
       0
  9
$PDSIZE
 40
1.0
  9
$PLINEWID
 40
0.0
  9
$COORDS
 70
       1
  9
$SPLFRAME
 70
       0
  9
$SPLINETYPE
 70
       6
  9
$SPLINESEGS
 70
       8
  9
$ATTDIA
 70
       0
  9
$ATTREQ
 70
       1
  9
$HANDLING
 70
       1
  9
$HANDSEED
  5
1ED
  9
$SURFTAB1
 70
       6
  9
$SURFTAB2
 70
       6
  9
$SURFTYPE
 70
       6
  9
$SURFU
 70
       6
  9
$SURFV
 70
       6
  9
$UCSNAME
  2

  9
$UCSORG
 10
0.0
 20
0.0
 30
0.0
  9
$UCSXDIR
 10
1.0
 20
0.0
 30
0.0
  9
$UCSYDIR
 10
0.0
 20
1.0
 30
0.0
  9
$PUCSNAME
  2

  9
$PUCSORG
 10
0.0
 20
0.0
 30
0.0
  9
$PUCSXDIR
 10
1.0
 20
0.0
 30
0.0
  9
$PUCSYDIR
 10
0.0
 20
1.0
 30
0.0
  9
$USERI1
 70
       0
  9
$USERI2
 70
       0
  9
$USERI3
 70
       0
  9
$USERI4
 70
       0
  9
$USERI5
 70
       0
  9
$USERR1
 40
0.0
  9
$USERR2
 40
0.0
  9
$USERR3
 40
0.0
  9
$USERR4
 40
0.0
  9
$USERR5
 40
0.0
  9
$WORLDVIEW
 70
       1
  9
$SHADEDGE
 70
       3
  9
$SHADEDIF
 70
      70
  9
$TILEMODE
 70
       1
  9
$MAXACTVP
 70
      16
  9
$PINSBASE
 10
0.0
 20
0.0
 30
0.0
  9
$PLIMCHECK
 70
       0
  9
$PEXTMIN
 10
1.00000000E+20
 20
1.00000000E+20
 30
1.00000000E+20
  9
$PEXTMAX
 10
-1.00000000E+20
 20
-1.00000000E+20
 30
-1.00000000E+20
  9
$PLIMMIN
 10
0.0
 20
0.0
  9
$PLIMMAX
 10
12.0
 20
9.0
  9
$UNITMODE
 70
       0
  9
$VISRETAIN
 70
       0
  9
$PLINEGEN
 70
       1
  9
$PSLTSCALE
 70
       0
  9
$TREEDEPTH
 70
    3020
  9
$PICKSTYLE
 70
       1
  9
$CMLSTYLE
  2
STANDARD
  9
$CMLJUST
 70
       0
  9
$CMLSCALE
 40
1.0
  9
$PROXYGRAPHICS
 70
       0
  9
$MEASUREMENT
 70
       0
  0
ENDSEC
  0
SECTION
  2
CLASSES
  0
CLASS
  1
LWPOLYLINE
  2
AcDbPolyline
  3
"AutoCAD"
 90
        0
280
       0
281
       1
  0
CLASS
  1
IMAGE
  2
AcDbRasterImage
  3
ISM
 90
      127
280
       0
281
       1
  0
CLASS
  1
OLE2FRAME
  2
AcDbOle2Frame
  3
""
 90
        0
280
       0
281
       1
  0
CLASS
  1
HATCH
  2
AcDbHatch
  3
"ACAD_SEDONA"
 90
        0
280
       0
281
       1
  0
CLASS
  1
DICTIONARYVAR
  2
AcDbDictionaryVar
  3
"AutoCAD"
 90
        0
280
       0
281
       0
  0
CLASS
  1
RASTERVARIABLES
  2
AcDbRasterVariables
  3
ISM
 90
        0
280
       0
281
       0
  0
CLASS
  1
IMAGEDEF
  2
AcDbRasterImageDef
  3
ISM
 90
        0
280
       0
281
       0
  0
CLASS
  1
IMAGEDEF_REACTOR
  2
AcDbRasterImageDefReactor
  3
ISM
 90
        1
280
       0
281
       0
  0
CLASS
  1
IDBUFFER
  2
AcDbIdBuffer
  3
"Acad"
 90
        0
280
       0
281
       0
  0
CLASS
  1
SPATIAL_FILTER
  2
AcDbSpatialFilter
  3
"Acad"
 90
        0
280
       0
281
       0
  0
CLASS
  1
XRECORD
  2
AcDbXrecord
  3
"<Built In>"
 90
        0
280
       0
281
       0
  0
CLASS
  1
SORTENTSTABLE
  2
AcDbSortentsTable
  3
"AutoCAD"
 90
        0
280
       0
281
       0
  0
CLASS
  1
LAYER_INDEX
  2
AcDbLayerIndex
  3
"Acad"
 90
        0
280
       0
281
       0
  0
CLASS
  1
SPATIAL_INDEX
  2
AcDbSpatialIndex
  3
"Acad"
 90
        0
280
       0
281
       0
  0
CLASS
  1
OBJECT_PTR
  2
CAseDLPNTableRecord
  3
"ASE-LPNTableRecord"
 90
        1
280
       0
281
       0
  0
CLASS
  1
LAYOUT
  2
AcDbLayout
  3
"AutoCAD 2000"
 90
        1
280
       0
281
       0
  0
CLASS
  1
PLOTSETTINGS
  2
AcDbPlotSettings
  3
"AutoCAD 2000"
 90
        1
280
       0
281
       0
  0
CLASS
  1
ACDBDICTIONARYWDFLT
  2
AcDbDictionaryWithDefault
  3
"AutoCAD 2000"
 90
        1
280
       0
281
       0
  0
CLASS
  1
ACDBPLACEHOLDER
  2
AcDbPlaceHolder
  3
"AutoCAD 2000"
 90
        1
280
       0
281
       0
  0
CLASS
  1
VBA_PROJECT
  2
AcDbVbaProject
  3
"acadvba"
 90
        1
280
       0
281
       0
  0
CLASS
  1
WIPEOUT
  2
AcDbWipeout
  3
WipeOut|AutoCAD Express Tool|expresstools@autodesk.com
 90
      127
280
       0
281
       1
  0
CLASS
  1
WIPEOUTVARIABLES
  2
AcDbWipeoutVariables
  3
WipeOut|AutoCAD Express Tool|expresstools@autodesk.com
 90
        0
280
       0
281
       0
  0
CLASS
  1
RTEXT
  2
RText
  3
RText|AutoCAD Express Tool|expresstools@autodesk.com
 90
        0
280
       0
281
       1
  0
CLASS
  1
ARCALIGNEDTEXT
  2
AcDbArcAlignedText
  3
ATEXT|AutoCAD Express Tool|expresstools@autodesk.com
 90
        0
280
       0
281
       1
  0
ENDSEC
  0
SECTION
  2
TABLES
  0
TABLE
  2
VPORT
  5
7
100
AcDbSymbolTable
 70
       1
  0
VPORT
  5
15
100
AcDbSymbolTableRecord
100
AcDbViewportTableRecord
  2
*ACTIVE
 70
       0
 10
0.0
 20
0.0
 11
1.0
 21
1.0
 12
0.0
 22
0.0
 13
0.0
 23
0.0
 14
1.0
 24
1.0
 15
0.0
 25
0.0
 16
0.0
 26
0.0
 36
1.0
 17
0.0
 27
0.0
 37
0.0
 40
612.17
 41
1.44584838
 42
50.0
 43
0.0
 44
0.0
 50
0.0
 51
0.0
 71
       0
 72
     100
 73
       1
 74
       1
 75
       0
 76
       0
 77
       0
 78
       0
  0
ENDTAB
  0
TABLE
  2
LTYPE
  5
4
100
AcDbSymbolTable
 70
      30
  0
LTYPE
  5
11
100
AcDbSymbolTableRecord
100
AcDbLinetypeTableRecord
  2
BYBLOCK
 70
      64
  3

 72
      65
 73
       0
 40
0.0
  0
LTYPE
  5
12
100
AcDbSymbolTableRecord
100
AcDbLinetypeTableRecord
  2
BYLAYER
 70
      64
  3

 72
      65
 73
       0
 40
0.0
  0
LTYPE
  5
13
100
AcDbSymbolTableRecord
100
AcDbLinetypeTableRecord
  2
CONTINUOUS
 70
      64
  3
Solid line
 72
      65
 73
       0
 40
0.0
  0
LTYPE
  5
1D
100
AcDbSymbolTableRecord
100
AcDbLinetypeTableRecord
  2
HIDDENX2
 70
      64
  3
CADPAC LINETYPE
 72
      65
 73
       2
 40
33.64
 49
25.23
 74
       0
 49
-8.41
 74
       0
  0
LTYPE
  5
1E
100
AcDbSymbolTableRecord
100
AcDbLinetypeTableRecord
  2
HIDDEN
 70
      64
  3
CADPAC LINETYPE
 72
      65
 73
       2
 40
25.23
 49
16.82
 74
       0
 49
-8.41
 74
       0
  0
LTYPE
  5
1F
100
AcDbSymbolTableRecord
100
AcDbLinetypeTableRecord
  2
HIDDEN2
 70
      64
  3
CADPAC LINETYPE
 72
      65
 73
       2
 40
21.025
 49
12.615
 74
       0
 49
-8.41
 74
       0
  0
LTYPE
  5
20
100
AcDbSymbolTableRecord
100
AcDbLinetypeTableRecord
  2
DASHED
 70
      64
  3
CADPAC LINETYPE
 72
      65
 73
       2
 40
25.23
 49
16.82
 74
       0
 49
-8.41
 74
       0
  0
LTYPE
  5
21
100
AcDbSymbolTableRecord
100
AcDbLinetypeTableRecord
  2
DASHED2
 70
      64
  3
CADPAC LINETYPE
 72
      65
 73
       2
 40
18.9225
 49
12.615
 74
       0
 49
-6.3075
 74
       0
  0
LTYPE
  5
22
100
AcDbSymbolTableRecord
100
AcDbLinetypeTableRecord
  2
DASHEDX2
 70
      64
  3
CADPAC LINETYPE
 72
      65
 73
       2
 40
37.845
 49
25.23
 74
       0
 49
-12.615
 74
       0
  0
LTYPE
  5
23
100
AcDbSymbolTableRecord
100
AcDbLinetypeTableRecord
  2
DOTX2
 70
      64
  3
CADPAC LINETYPE
 72
      65
 73
       2
 40
10.5125
 49
0.0
 74
       0
 49
-10.5125
 74
       0
  0
LTYPE
  5
24
100
AcDbSymbolTableRecord
100
AcDbLinetypeTableRecord
  2
DOT
 70
      64
  3
CADPAC LINETYPE
 72
      65
 73
       2
 40
8.41
 49
0.0
 74
       0
 49
-8.41
 74
       0
  0
LTYPE
  5
25
100
AcDbSymbolTableRecord
100
AcDbLinetypeTableRecord
  2
DOT2
 70
      64
  3
CADPAC LINETYPE
 72
      65
 73
       2
 40
6.3075
 49
0.0
 74
       0
 49
-6.3075
 74
       0
  0
LTYPE
  5
26
100
AcDbSymbolTableRecord
100
AcDbLinetypeTableRecord
  2
CENTERX2
 70
      64
  3
CADPAC LINETYPE
 72
      65
 73
       4
 40
50.46
 49
21.025
 74
       0
 49
-10.5125
 74
       0
 49
8.41
 74
       0
 49
-10.5125
 74
       0
  0
LTYPE
  5
27
100
AcDbSymbolTableRecord
100
AcDbLinetypeTableRecord
  2
CENTER
 70
      64
  3
CADPAC LINETYPE
 72
      65
 73
       4
 40
38.686
 49
16.82
 74
       0
 49
-8.41
 74
       0
 49
5.046
 74
       0
 49
-8.41
 74
       0
  0
LTYPE
  5
28
100
AcDbSymbolTableRecord
100
AcDbLinetypeTableRecord
  2
CENTER2
 70
      64
  3
CADPAC LINETYPE
 72
      65
 73
       4
 40
26.912
 49
12.615
 74
       0
 49
-6.3075
 74
       0
 49
1.682
 74
       0
 49
-6.3075
 74
       0
  0
LTYPE
  5
29
100
AcDbSymbolTableRecord
100
AcDbLinetypeTableRecord
  2
DASHDOTX2
 70
      64
  3
CADPAC LINETYPE
 72
      65
 73
       4
 40
42.05
 49
21.025
 74
       0
 49
-10.5125
 74
       0
 49
0.0
 74
       0
 49
-10.5125
 74
       0
  0
LTYPE
  5
2A
100
AcDbSymbolTableRecord
100
AcDbLinetypeTableRecord
  2
DASHDOT
 70
      64
  3
CADPAC LINETYPE
 72
      65
 73
       4
 40
33.64
 49
16.82
 74
       0
 49
-8.41
 74
       0
 49
0.0
 74
       0
 49
-8.41
 74
       0
  0
LTYPE
  5
2B
100
AcDbSymbolTableRecord
100
AcDbLinetypeTableRecord
  2
DASHDOT2
 70
      64
  3
CADPAC LINETYPE
 72
      65
 73
       4
 40
25.23
 49
12.615
 74
       0
 49
-6.3075
 74
       0
 49
0.0
 74
       0
 49
-6.3075
 74
       0
  0
LTYPE
  5
2C
100
AcDbSymbolTableRecord
100
AcDbLinetypeTableRecord
  2
DIVIDEX2
 70
      64
  3
CADPAC LINETYPE
 72
      65
 73
       6
 40
52.5625
 49
21.025
 74
       0
 49
-10.5125
 74
       0
 49
0.0
 74
       0
 49
-10.5125
 74
       0
 49
0.0
 74
       0
 49
-10.5125
 74
       0
  0
LTYPE
  5
2D
100
AcDbSymbolTableRecord
100
AcDbLinetypeTableRecord
  2
DIVIDE
 70
      64
  3
CADPAC LINETYPE
 72
      65
 73
       6
 40
42.05
 49
16.82
 74
       0
 49
-8.41
 74
       0
 49
0.0
 74
       0
 49
-8.41
 74
       0
 49
0.0
 74
       0
 49
-8.41
 74
       0
  0
LTYPE
  5
2E
100
AcDbSymbolTableRecord
100
AcDbLinetypeTableRecord
  2
DIVIDE2
 70
      64
  3
CADPAC LINETYPE
 72
      65
 73
       6
 40
31.5375
 49
12.615
 74
       0
 49
-6.3075
 74
       0
 49
0.0
 74
       0
 49
-6.3075
 74
       0
 49
0.0
 74
       0
 49
-6.3075
 74
       0
  0
LTYPE
  5
2F
100
AcDbSymbolTableRecord
100
AcDbLinetypeTableRecord
  2
BORDERX2
 70
      64
  3
CADPAC LINETYPE
 72
      65
 73
       6
 40
73.5875
 49
21.025
 74
       0
 49
-10.5125
 74
       0
 49
21.025
 74
       0
 49
-10.5125
 74
       0
 49
0.0
 74
       0
 49
-10.5125
 74
       0
  0
LTYPE
  5
30
100
AcDbSymbolTableRecord
100
AcDbLinetypeTableRecord
  2
BORDER
 70
      64
  3
CADPAC LINETYPE
 72
      65
 73
       6
 40
58.87
 49
16.82
 74
       0
 49
-8.41
 74
       0
 49
16.82
 74
       0
 49
-8.41
 74
       0
 49
0.0
 74
       0
 49
-8.41
 74
       0
  0
LTYPE
  5
31
100
AcDbSymbolTableRecord
100
AcDbLinetypeTableRecord
  2
BORDER2
 70
      64
  3
CADPAC LINETYPE
 72
      65
 73
       6
 40
44.1525
 49
12.615
 74
       0
 49
-6.3075
 74
       0
 49
12.615
 74
       0
 49
-6.3075
 74
       0
 49
0.0
 74
       0
 49
-6.3075
 74
       0
  0
LTYPE
  5
32
100
AcDbSymbolTableRecord
100
AcDbLinetypeTableRecord
  2
PHANTOMX2
 70
      64
  3
CADPAC LINETYPE
 72
      65
 73
       6
 40
63.075
 49
21.025
 74
       0
 49
-8.41
 74
       0
 49
8.41
 74
       0
 49
-8.41
 74
       0
 49
8.41
 74
       0
 49
-8.41
 74
       0
  0
LTYPE
  5
33
100
AcDbSymbolTableRecord
100
AcDbLinetypeTableRecord
  2
PHANTOM
 70
      64
  3
CADPAC LINETYPE
 72
      65
 73
       6
 40
52.142
 49
16.82
 74
       0
 49
-8.41
 74
       0
 49
5.046
 74
       0
 49
-8.41
 74
       0
 49
5.046
 74
       0
 49
-8.41
 74
       0
  0
LTYPE
  5
34
100
AcDbSymbolTableRecord
100
AcDbLinetypeTableRecord
  2
PHANTOM2
 70
      64
  3
CADPAC LINETYPE
 72
      65
 73
       6
 40
44.573
 49
12.615
 74
       0
 49
-8.41
 74
       0
 49
3.364
 74
       0
 49
-8.41
 74
       0
 49
3.364
 74
       0
 49
-8.41
 74
       0
  0
LTYPE
  5
35
100
AcDbSymbolTableRecord
100
AcDbLinetypeTableRecord
  2
ACAD_ISO06W100
 70
      64
  3
CADPAC LINETYPE
 72
      65
 73
       8
 40
56.7675
 49
21.025
 74
       0
 49
-10.5125
 74
       0
 49
0.0
 74
       0
 49
-8.41
 74
       0
 49
0.0
 74
       0
 49
-8.41
 74
       0
 49
0.0
 74
       0
 49
-8.41
 74
       0
  0
LTYPE
  5
36
100
AcDbSymbolTableRecord
100
AcDbLinetypeTableRecord
  2
ACAD_ISO13W100
 70
      64
  3
CADPAC LINETYPE
 72
      65
 73
       8
 40
67.28
 49
16.82
 74
       0
 49
-8.41
 74
       0
 49
16.82
 74
       0
 49
-8.41
 74
       0
 49
0.0
 74
       0
 49
-8.41
 74
       0
 49
0.0
 74
       0
 49
-8.41
 74
       0
  0
LTYPE
  5
37
100
AcDbSymbolTableRecord
100
AcDbLinetypeTableRecord
  2
ACAD_ISO14W100
 70
      64
  3
CADPAC LINETYPE
 72
      65
 73
       8
 40
50.46
 49
16.82
 74
       0
 49
-8.41
 74
       0
 49
0.0
 74
       0
 49
-8.41
 74
       0
 49
0.0
 74
       0
 49
-8.41
 74
       0
 49
0.0
 74
       0
 49
-8.41
 74
       0
  0
ENDTAB
  0
TABLE
  2
LAYER
  5
2
100
AcDbSymbolTable
 70
       5
  0
LAYER
  5
14
100
AcDbSymbolTableRecord
100
AcDbLayerTableRecord
  2
0
 70
       0
 62
       7
  6
CONTINUOUS
  0
LAYER
  5
38
100
AcDbSymbolTableRecord
100
AcDbLayerTableRecord
  2
D-BMK
 70
       0
 62
       7
  6
CONTINUOUS
  0
LAYER
  5
39
100
AcDbSymbolTableRecord
100
AcDbLayerTableRecord
  2
D-STR
 70
       0
 62
       7
  6
CONTINUOUS
  0
LAYER
  5
3A
100
AcDbSymbolTableRecord
100
AcDbLayerTableRecord
  2
D-STR-HID
 70
       0
 62
       7
  6
CONTINUOUS
  0
LAYER
  5
3B
100
AcDbSymbolTableRecord
100
AcDbLayerTableRecord
  2
D-STR-TXT
 70
       0
 62
       7
  6
CONTINUOUS
  0
ENDTAB
  0
TABLE
  2
STYLE
  5
3
100
AcDbSymbolTable
 70
       1
  0
STYLE
  5
17
100
AcDbSymbolTableRecord
100
AcDbTextStyleTableRecord
  2
STANDARD
 70
       0
 40
0.0
 41
1.2
 50
0.0
 71
       0
 42
3.5
  3
MS Gothic.ttf
  4

1001
ACAD
1000
MS Gothic
1071
    32786
  0
ENDTAB
  0
TABLE
  2
VIEW
  5
5
100
AcDbSymbolTable
 70
       1
  0
VIEW
  5
3C
100
AcDbSymbolTableRecord
100
AcDbViewTableRecord
  2
QQQQ
 70
       0
 40
612.17
 10
0.0
 20
0.0
 41
885.105
 11
0.0
 21
0.0
 31
1.0
 12
100.0
 22
100.0
 32
0.0
 42
50.0
 43
0.0
 44
0.0
 50
0.0
 71
       0
  0
ENDTAB
  0
TABLE
  2
UCS
  5
6
100
AcDbSymbolTable
 70
       0
  0
ENDTAB
  0
TABLE
  2
APPID
  5
8
100
AcDbSymbolTable
 70
       1
  0
APPID
  5
16
100
AcDbSymbolTableRecord
100
AcDbRegAppTableRecord
  2
ACAD
 70
       0
  0
ENDTAB
  0
TABLE
  2
DIMSTYLE
  5
9
100
AcDbSymbolTable
 70
       1
  0
DIMSTYLE
105
18
100
AcDbSymbolTableRecord
100
AcDbDimStyleTableRecord
  2
STANDARD
 70
       0
  3

  4

  5

  6

  7

 40
1.0
 41
0.18
 42
0.0625
 43
0.38
 44
0.18
 45
0.0
 46
0.0
 47
0.0
 48
0.0
 71
       0
 72
       0
 73
       1
 74
       1
 75
       0
 76
       0
 77
       0
 78
       0
140
0.18
141
0.09
142
0.0
143
25.4
144
1.0
145
0.0
146
1.0
147
0.09
170
       0
171
       2
172
       0
173
       0
174
       0
175
       0
176
       0
177
       0
178
       0
270
       2
271
       4
272
       4
273
       2
274
       2
275
       0
280
       0
281
       0
282
       0
283
       1
284
       0
285
       0
286
       0
287
       0
288
       0
340
17
  0
ENDTAB
  0
TABLE
  2
BLOCK_RECORD
  5
1
100
AcDbSymbolTable
 70
      20
  0
BLOCK_RECORD
  5
A
100
AcDbSymbolTableRecord
100
AcDbBlockTableRecord
  2
*MODEL_SPACE
  0
BLOCK_RECORD
  5
B
100
AcDbSymbolTableRecord
100
AcDbBlockTableRecord
  2
*PAPER_SPACE
  0
BLOCK_RECORD
  5
3D
100
AcDbSymbolTableRecord
100
AcDbBlockTableRecord
  2
GROUP_1
  0
BLOCK_RECORD
  5
3E
100
AcDbSymbolTableRecord
100
AcDbBlockTableRecord
  2
GROUP_2
  0
BLOCK_RECORD
  5
3F
100
AcDbSymbolTableRecord
100
AcDbBlockTableRecord
  2
GROUP_3
  0
BLOCK_RECORD
  5
40
100
AcDbSymbolTableRecord
100
AcDbBlockTableRecord
  2
GROUP_4
  0
BLOCK_RECORD
  5
41
100
AcDbSymbolTableRecord
100
AcDbBlockTableRecord
  2
GROUP_5
  0
BLOCK_RECORD
  5
42
100
AcDbSymbolTableRecord
100
AcDbBlockTableRecord
  2
GROUP_6
  0
BLOCK_RECORD
  5
43
100
AcDbSymbolTableRecord
100
AcDbBlockTableRecord
  2
GROUP_7
  0
BLOCK_RECORD
  5
44
100
AcDbSymbolTableRecord
100
AcDbBlockTableRecord
  2
GROUP_8
  0
BLOCK_RECORD
  5
45
100
AcDbSymbolTableRecord
100
AcDbBlockTableRecord
  2
GROUP_9
  0
BLOCK_RECORD
  5
46
100
AcDbSymbolTableRecord
100
AcDbBlockTableRecord
  2
GROUP_10
  0
BLOCK_RECORD
  5
47
100
AcDbSymbolTableRecord
100
AcDbBlockTableRecord
  2
GROUP_11
  0
BLOCK_RECORD
  5
48
100
AcDbSymbolTableRecord
100
AcDbBlockTableRecord
  2
GROUP_12
  0
BLOCK_RECORD
  5
49
100
AcDbSymbolTableRecord
100
AcDbBlockTableRecord
  2
GROUP_13
  0
BLOCK_RECORD
  5
4A
100
AcDbSymbolTableRecord
100
AcDbBlockTableRecord
  2
GROUP_14
  0
BLOCK_RECORD
  5
4B
100
AcDbSymbolTableRecord
100
AcDbBlockTableRecord
  2
GROUP_15
  0
BLOCK_RECORD
  5
4C
100
AcDbSymbolTableRecord
100
AcDbBlockTableRecord
  2
GROUP_16
  0
BLOCK_RECORD
  5
4D
100
AcDbSymbolTableRecord
100
AcDbBlockTableRecord
  2
GROUP_17
  0
BLOCK_RECORD
  5
4E
100
AcDbSymbolTableRecord
100
AcDbBlockTableRecord
  2
GROUP_18
  0
BLOCK_RECORD
  5
4F
100
AcDbSymbolTableRecord
100
AcDbBlockTableRecord
  2
GROUP_19
  0
BLOCK_RECORD
  5
50
100
AcDbSymbolTableRecord
100
AcDbBlockTableRecord
  2
GROUP_20
  0
ENDTAB
  0
ENDSEC
  0
SECTION
  2
BLOCKS
  0
BLOCK
  5
D
100
AcDbEntity
  8
0
100
AcDbBlockBegin
  2
*MODEL_SPACE
 70
       0
 10
0.0
 20
0.0
 30
0.0
  3
*MODEL_SPACE
  1

  0
ENDBLK
  5
E
100
AcDbEntity
  8
0
100
AcDbBlockEnd
  0
BLOCK
  5
F
100
AcDbEntity
 67
       1
  8
0
100
AcDbBlockBegin
  2
*PAPER_SPACE
 70
       0
 10
0.0
 20
0.0
 30
0.0
  3
*PAPER_SPACE
  1

  0
ENDBLK
  5
10
100
AcDbEntity
 67
       1
  8
0
100
AcDbBlockEnd
  0
BLOCK
  5
51
100
AcDbEntity
  8
0
100
AcDbBlockBegin
  2
GROUP_1
 70
       0
 10
0.0
 20
0.0
 30
0.0
  3
GROUP_1
  1

  0
LINE
  5
52
100
AcDbEntity
  8
D-STR
  6
CONTINUOUS
 62
       1
100
AcDbLine
 10
130.04
 20
203.04
 30
0.0
 11
133.04
 21
203.04
 31
0.0
  0
LINE
  5
53
100
AcDbEntity
  8
D-STR
  6
CONTINUOUS
 62
       1
100
AcDbLine
 10
133.04
 20
203.04
 30
0.0
 11
133.04
 21
175.1705
 31
0.0
  0
LINE
  5
54
100
AcDbEntity
  8
D-STR
  6
CONTINUOUS
 62
       1
100
AcDbLine
 10
130.04
 20
203.04
 30
0.0
 11
130.04
 21
175.1705
 31
0.0
  0
LINE
  5
55
100
AcDbEntity
  8
D-STR
  6
CONTINUOUS
 62
       1
100
AcDbLine
 10
130.3105
 20
174.9
 30
0.0
 11
132.7695
 21
174.9
 31
0.0
  0
LINE
  5
56
100
AcDbEntity
  8
D-STR
  6
CONTINUOUS
 62
       1
100
AcDbLine
 10
130.04
 20
192.9
 30
0.0
 11
133.04
 21
192.9
 31
0.0
  0
LINE
  5
57
100
AcDbEntity
  8
D-STR
  6
CONTINUOUS
 62
       1
100
AcDbLine
 10
130.3105
 20
192.9
 30
0.0
 11
130.04
 21
193.36851974
 31
0.0
  0
LINE
  5
58
100
AcDbEntity
  8
D-STR
  6
CONTINUOUS
 62
       1
100
AcDbLine
 10
132.7695
 20
192.9
 30
0.0
 11
133.04
 21
193.36851974
 31
0.0
  0
LINE
  5
59
100
AcDbEntity
  8
D-STR
  6
CONTINUOUS
 62
       1
100
AcDbLine
 10
130.04
 20
175.1705
 30
0.0
 11
130.3105
 21
174.9
 31
0.0
  0
LINE
  5
5A
100
AcDbEntity
  8
D-STR
  6
CONTINUOUS
 62
       1
100
AcDbLine
 10
132.7695
 20
174.9
 30
0.0
 11
133.04
 21
175.1705
 31
0.0
  0
LINE
  5
5B
100
AcDbEntity
  8
D-STR
  6
CONTINUOUS
 62
       1
100
AcDbLine
 10
130.04
 20
175.1705
 30
0.0
 11
133.04
 21
175.1705
 31
0.0
  0
LINE
  5
5C
100
AcDbEntity
  8
D-STR
  6
CONTINUOUS
 62
       1
100
AcDbLine
 10
133.04
 20
203.04
 30
0.0
 11
134.31
 21
204.31
 31
0.0
  0
LINE
  5
5D
100
AcDbEntity
  8
D-STR
  6
CONTINUOUS
 62
       1
100
AcDbLine
 10
130.04
 20
203.04
 30
0.0
 11
128.77
 21
204.31
 31
0.0
  0
LINE
  5
5E
100
AcDbEntity
  8
D-STR
  6
CONTINUOUS
 62
       1
100
AcDbLine
 10
128.77
 20
204.9
 30
0.0
 11
134.31
 21
204.9
 31
0.0
  0
LINE
  5
5F
100
AcDbEntity
  8
D-STR
  6
CONTINUOUS
 62
       1
100
AcDbLine
 10
134.31
 20
204.9
 30
0.0
 11
134.31
 21
204.31
 31
0.0
  0
LINE
  5
60
100
AcDbEntity
  8
D-STR
  6
CONTINUOUS
 62
       1
100
AcDbLine
 10
128.77
 20
204.9
 30
0.0
 11
128.77
 21
204.31
 31
0.0
  0
LINE
  5
61
100
AcDbEntity
  8
D-STR
  6
CONTINUOUS
 62
       1
100
AcDbLine
 10
128.77
 20
204.31
 30
0.0
 11
134.31
 21
204.31
 31
0.0
  0
LINE
  5
62
100
AcDbEntity
  8
D-BMK
  6
CENTER
 62
       2
100
AcDbLine
 10
131.54
 20
204.9
 30
0.0
 11
131.54
 21
174.9
 31
0.0
  0
LINE
  5
63
100
AcDbEntity
  8
D-STR
  6
CONTINUOUS
 62
       7
100
AcDbLine
 10
130.3105
 20
192.9
 30
0.0
 11
130.3105
 21
174.9
 31
0.0
  0
LINE
  5
64
100
AcDbEntity
  8
D-STR
  6
CONTINUOUS
 62
       7
100
AcDbLine
 10
132.7695
 20
192.9
 30
0.0
 11
132.7695
 21
174.9
 31
0.0
  0
LINE
  5
65
100
AcDbEntity
  8
D-STR-HID
  6
DASHED2
 62
       1
100
AcDbLine
 10
132.69470054
 20
204.9
 30
0.0
 11
132.69470054
 21
203.8
 31
0.0
  0
LINE
  5
66
100
AcDbEntity
  8
D-STR-HID
  6
DASHED2
 62
       1
100
AcDbLine
 10
132.11735027
 20
204.9
 30
0.0
 11
132.11735027
 21
203.8
 31
0.0
  0
LINE
  5
67
100
AcDbEntity
  8
D-STR-HID
  6
DASHED2
 62
       1
100
AcDbLine
 10
130.96264973
 20
204.9
 30
0.0
 11
130.96264973
 21
203.8
 31
0.0
  0
LINE
  5
68
100
AcDbEntity
  8
D-STR-HID
  6
DASHED2
 62
       1
100
AcDbLine
 10
130.38529946
 20
204.9
 30
0.0
 11
130.38529946
 21
203.8
 31
0.0
  0
LINE
  5
69
100
AcDbEntity
  8
D-STR-HID
  6
DASHED2
 62
       1
100
AcDbLine
 10
130.38529946
 20
203.8
 30
0.0
 11
132.69470054
 21
203.8
 31
0.0
  0
LINE
  5
6A
100
AcDbEntity
  8
D-STR-HID
  6
DASHED2
 62
       1
100
AcDbLine
 10
132.69470054
 20
203.8
 30
0.0
 11
131.54
 21
203.13333333
 31
0.0
  0
LINE
  5
6B
100
AcDbEntity
  8
D-STR-HID
  6
DASHED2
 62
       1
100
AcDbLine
 10
130.38529946
 20
203.8
 30
0.0
 11
131.54
 21
203.13333333
 31
0.0
  0
ENDBLK
  5
6C
100
AcDbEntity
  8
0
100
AcDbBlockEnd
  0
BLOCK
  5
6D
100
AcDbEntity
  8
0
100
AcDbBlockBegin
  2
GROUP_2
 70
       0
 10
0.0
 20
0.0
 30
0.0
  3
GROUP_2
  1

  0
LINE
  5
6E
100
AcDbEntity
  8
D-STR
  6
CONTINUOUS
 62
       1
100
AcDbLine
 10
139.84
 20
202.42
 30
0.0
 11
143.84
 21
202.42
 31
0.0
  0
LINE
  5
6F
100
AcDbEntity
  8
D-STR
  6
CONTINUOUS
 62
       1
100
AcDbLine
 10
143.84
 20
202.42
 30
0.0
 11
143.84
 21
175.279
 31
0.0
  0
LINE
  5
70
100
AcDbEntity
  8
D-STR
  6
CONTINUOUS
 62
       1
100
AcDbLine
 10
139.84
 20
202.42
 30
0.0
 11
139.84
 21
175.279
 31
0.0
  0
LINE
  5
71
100
AcDbEntity
  8
D-STR
  6
CONTINUOUS
 62
       1
100
AcDbLine
 10
140.219
 20
174.9
 30
0.0
 11
143.461
 21
174.9
 31
0.0
  0
LINE
  5
72
100
AcDbEntity
  8
D-STR
  6
CONTINUOUS
 62
       1
100
AcDbLine
 10
139.84
 20
194.9
 30
0.0
 11
143.84
 21
194.9
 31
0.0
  0
LINE
  5
73
100
AcDbEntity
  8
D-STR
  6
CONTINUOUS
 62
       1
100
AcDbLine
 10
140.219
 20
194.9
 30
0.0
 11
139.84
 21
195.55644726
 31
0.0
  0
LINE
  5
74
100
AcDbEntity
  8
D-STR
  6
CONTINUOUS
 62
       1
100
AcDbLine
 10
143.461
 20
194.9
 30
0.0
 11
143.84
 21
195.55644726
 31
0.0
  0
LINE
  5
75
100
AcDbEntity
  8
D-STR
  6
CONTINUOUS
 62
       1
100
AcDbLine
 10
139.84
 20
175.279
 30
0.0
 11
140.219
 21
174.9
 31
0.0
  0
LINE
  5
76
100
AcDbEntity
  8
D-STR
  6
CONTINUOUS
 62
       1
100
AcDbLine
 10
143.461
 20
174.9
 30
0.0
 11
143.84
 21
175.279
 31
0.0
  0
LINE
  5
77
100
AcDbEntity
  8
D-STR
  6
CONTINUOUS
 62
       1
100
AcDbLine
 10
139.84
 20
175.279
 30
0.0
 11
143.84
 21
175.279
 31
0.0
  0
LINE
  5
78
100
AcDbEntity
  8
D-STR
  6
CONTINUOUS
 62
       1
100
AcDbLine
 10
143.84
 20
202.42
 30
0.0
 11
145.605
 21
204.185
 31
0.0
  0
LINE
  5
79
100
AcDbEntity
  8
D-STR
  6
CONTINUOUS
 62
       1
100
AcDbLine
 10
139.84
 20
202.42
 30
0.0
 11
138.075
 21
204.185
 31
0.0
  0
LINE
  5
7A
100
AcDbEntity
  8
D-STR
  6
CONTINUOUS
 62
       1
100
AcDbLine
 10
138.075
 20
204.9
 30
0.0
 11
145.605
 21
204.9
 31
0.0
  0
LINE
  5
7B
100
AcDbEntity
  8
D-STR
  6
CONTINUOUS
 62
       1
100
AcDbLine
 10
145.605
 20
204.9
 30
0.0
 11
145.605
 21
204.185
 31
0.0
  0
LINE
  5
7C
100
AcDbEntity
  8
D-STR
  6
CONTINUOUS
 62
       1
100
AcDbLine
 10
138.075
 20
204.9
 30
0.0
 11
138.075
 21
204.185
 31
0.0
  0
LINE
  5
7D
100
AcDbEntity
  8
D-STR
  6
CONTINUOUS
 62
       1
100
AcDbLine
 10
138.075
 20
204.185
 30
0.0
 11
145.605
 21
204.185
 31
0.0
  0
LINE
  5
7E
100
AcDbEntity
  8
D-BMK
  6
CENTER
 62
       2
100
AcDbLine
 10
141.84
 20
204.9
 30
0.0
 11
141.84
 21
174.9
 31
0.0
  0
LINE
  5
7F
100
AcDbEntity
  8
D-STR
  6
CONTINUOUS
 62
       7
100
AcDbLine
 10
140.219
 20
194.9
 30
0.0
 11
140.219
 21
174.9
 31
0.0
  0
LINE
  5
80
100
AcDbEntity
  8
D-STR
  6
CONTINUOUS
 62
       7
100
AcDbLine
 10
143.461
 20
194.9
 30
0.0
 11
143.461
 21
174.9
 31
0.0
  0
LINE
  5
81
100
AcDbEntity
  8
D-STR-HID
  6
DASHED2
 62
       1
100
AcDbLine
 10
143.28337567
 20
204.9
 30
0.0
 11
143.28337567
 21
203.4
 31
0.0
  0
LINE
  5
82
100
AcDbEntity
  8
D-STR-HID
  6
DASHED2
 62
       1
100
AcDbLine
 10
142.56168784
 20
204.9
 30
0.0
 11
142.56168784
 21
203.4
 31
0.0
  0
LINE
  5
83
100
AcDbEntity
  8
D-STR-HID
  6
DASHED2
 62
       1
100
AcDbLine
 10
141.11831216
 20
204.9
 30
0.0
 11
141.11831216
 21
203.4
 31
0.0
  0
LINE
  5
84
100
AcDbEntity
  8
D-STR-HID
  6
DASHED2
 62
       1
100
AcDbLine
 10
140.39662433
 20
204.9
 30
0.0
 11
140.39662433
 21
203.4
 31
0.0
  0
LINE
  5
85
100
AcDbEntity
  8
D-STR-HID
  6
DASHED2
 62
       1
100
AcDbLine
 10
140.39662433
 20
203.4
 30
0.0
 11
143.28337567
 21
203.4
 31
0.0
  0
LINE
  5
86
100
AcDbEntity
  8
D-STR-HID
  6
DASHED2
 62
       1
100
AcDbLine
 10
143.28337567
 20
203.4
 30
0.0
 11
141.84
 21
202.56666667
 31
0.0
  0
LINE
  5
87
100
AcDbEntity
  8
D-STR-HID
  6
DASHED2
 62
       1
100
AcDbLine
 10
140.39662433
 20
203.4
 30
0.0
 11
141.84
 21
202.56666667
 31
0.0
  0
ENDBLK
  5
88
100
AcDbEntity
  8
0
100
AcDbBlockEnd
  0
BLOCK
  5
89
100
AcDbEntity
  8
0
100
AcDbBlockBegin
  2
GROUP_3
 70
       0
 10
0.0
 20
0.0
 30
0.0
  3
GROUP_3
  1

  0
LINE
  5
8A
100
AcDbEntity
  8
D-STR
  6
CONTINUOUS
 62
       1
100
AcDbLine
 10
152.535
 20
201.8
 30
0.0
 11
157.535
 21
201.8
 31
0.0
  0
LINE
  5
8B
100
AcDbEntity
  8
D-STR
  6
CONTINUOUS
 62
       1
100
AcDbLine
 10
157.535
 20
201.8
 30
0.0
 11
157.535
 21
170.333
 31
0.0
  0
LINE
  5
8C
100
AcDbEntity
  8
D-STR
  6
CONTINUOUS
 62
       1
100
AcDbLine
 10
152.535
 20
201.8
 30
0.0
 11
152.535
 21
170.333
 31
0.0
  0
LINE
  5
8D
100
AcDbEntity
  8
D-STR
  6
CONTINUOUS
 62
       1
100
AcDbLine
 10
152.968
 20
169.9
 30
0.0
 11
157.102
 21
169.9
 31
0.0
  0
LINE
  5
8E
100
AcDbEntity
  8
D-STR
  6
CONTINUOUS
 62
       1
100
AcDbLine
 10
152.535
 20
191.9
 30
0.0
 11
157.535
 21
191.9
 31
0.0
  0
LINE
  5
8F
100
AcDbEntity
  8
D-STR
  6
CONTINUOUS
 62
       1
100
AcDbLine
 10
152.968
 20
191.9
 30
0.0
 11
152.535
 21
192.649978
 31
0.0
  0
LINE
  5
90
100
AcDbEntity
  8
D-STR
  6
CONTINUOUS
 62
       1
100
AcDbLine
 10
157.102
 20
191.9
 30
0.0
 11
157.535
 21
192.649978
 31
0.0
  0
LINE
  5
91
100
AcDbEntity
  8
D-STR
  6
CONTINUOUS
 62
       1
100
AcDbLine
 10
152.535
 20
170.333
 30
0.0
 11
152.968
 21
169.9
 31
0.0
  0
LINE
  5
92
100
AcDbEntity
  8
D-STR
  6
CONTINUOUS
 62
       1
100
AcDbLine
 10
157.102
 20
169.9
 30
0.0
 11
157.535
 21
170.333
 31
0.0
  0
LINE
  5
93
100
AcDbEntity
  8
D-STR
  6
CONTINUOUS
 62
       1
100
AcDbLine
 10
152.535
 20
170.333
 30
0.0
 11
157.535
 21
170.333
 31
0.0
  0
LINE
  5
94
100
AcDbEntity
  8
D-STR
  6
CONTINUOUS
 62
       1
100
AcDbLine
 10
157.535
 20
201.8
 30
0.0
 11
159.75
 21
204.015
 31
0.0
  0
LINE
  5
95
100
AcDbEntity
  8
D-STR
  6
CONTINUOUS
 62
       1
100
AcDbLine
 10
152.535
 20
201.8
 30
0.0
 11
150.32
 21
204.015
 31
0.0
  0
LINE
  5
96
100
AcDbEntity
  8
D-STR
  6
CONTINUOUS
 62
       1
100
AcDbLine
 10
150.32
 20
204.9
 30
0.0
 11
159.75
 21
204.9
 31
0.0
  0
LINE
  5
97
100
AcDbEntity
  8
D-STR
  6
CONTINUOUS
 62
       1
100
AcDbLine
 10
159.75
 20
204.9
 30
0.0
 11
159.75
 21
204.015
 31
0.0
  0
LINE
  5
98
100
AcDbEntity
  8
D-STR
  6
CONTINUOUS
 62
       1
100
AcDbLine
 10
150.32
 20
204.9
 30
0.0
 11
150.32
 21
204.015
 31
0.0
  0
LINE
  5
99
100
AcDbEntity
  8
D-STR
  6
CONTINUOUS
 62
       1
100
AcDbLine
 10
150.32
 20
204.015
 30
0.0
 11
159.75
 21
204.015
 31
0.0
  0
LINE
  5
9A
100
AcDbEntity
  8
D-BMK
  6
CENTER
 62
       2
100
AcDbLine
 10
155.035
 20
204.9
 30
0.0
 11
155.035
 21
169.9
 31
0.0
  0
LINE
  5
9B
100
AcDbEntity
  8
D-STR
  6
CONTINUOUS
 62
       7
100
AcDbLine
 10
152.968
 20
191.9
 30
0.0
 11
152.968
 21
169.9
 31
0.0
  0
LINE
  5
9C
100
AcDbEntity
  8
D-STR
  6
CONTINUOUS
 62
       7
100
AcDbLine
 10
157.102
 20
191.9
 30
0.0
 11
157.102
 21
169.9
 31
0.0
  0
LINE
  5
9D
100
AcDbEntity
  8
D-STR-HID
  6
DASHED2
 62
       1
100
AcDbLine
 10
156.76705081
 20
204.9
 30
0.0
 11
156.76705081
 21
203.0
 31
0.0
  0
LINE
  5
9E
100
AcDbEntity
  8
D-STR-HID
  6
DASHED2
 62
       1
100
AcDbLine
 10
155.9010254
 20
204.9
 30
0.0
 11
155.9010254
 21
203.0
 31
0.0
  0
LINE
  5
9F
100
AcDbEntity
  8
D-STR-HID
  6
DASHED2
 62
       1
100
AcDbLine
 10
154.1689746
 20
204.9
 30
0.0
 11
154.1689746
 21
203.0
 31
0.0
  0
LINE
  5
A0
100
AcDbEntity
  8
D-STR-HID
  6
DASHED2
 62
       1
100
AcDbLine
 10
153.30294919
 20
204.9
 30
0.0
 11
153.30294919
 21
203.0
 31
0.0
  0
LINE
  5
A1
100
AcDbEntity
  8
D-STR-HID
  6
DASHED2
 62
       1
100
AcDbLine
 10
153.30294919
 20
203.0
 30
0.0
 11
156.76705081
 21
203.0
 31
0.0
  0
LINE
  5
A2
100
AcDbEntity
  8
D-STR-HID
  6
DASHED2
 62
       1
100
AcDbLine
 10
156.76705081
 20
203.0
 30
0.0
 11
155.035
 21
202.0
 31
0.0
  0
LINE
  5
A3
100
AcDbEntity
  8
D-STR-HID
  6
DASHED2
 62
       1
100
AcDbLine
 10
153.30294919
 20
203.0
 30
0.0
 11
155.035
 21
202.0
 31
0.0
  0
ENDBLK
  5
A4
100
AcDbEntity
  8
0
100
AcDbBlockEnd
  0
BLOCK
  5
A5
100
AcDbEntity
  8
0
100
AcDbBlockBegin
  2
GROUP_4
 70
       0
 10
0.0
 20
0.0
 30
0.0
  3
GROUP_4
  1

  0
LINE
  5
A6
100
AcDbEntity
  8
D-STR
  6
CONTINUOUS
 62
       1
100
AcDbLine
 10
168.09
 20
201.18
 30
0.0
 11
174.09
 21
201.18
 31
0.0
  0
LINE
  5
A7
100
AcDbEntity
  8
D-STR
  6
CONTINUOUS
 62
       1
100
AcDbLine
 10
174.09
 20
201.18
 30
0.0
 11
174.09
 21
165.4415
 31
0.0
  0
LINE
  5
A8
100
AcDbEntity
  8
D-STR
  6
CONTINUOUS
 62
       1
100
AcDbLine
 10
168.09
 20
201.18
 30
0.0
 11
168.09
 21
165.4415
 31
0.0
  0
LINE
  5
A9
100
AcDbEntity
  8
D-STR
  6
CONTINUOUS
 62
       1
100
AcDbLine
 10
168.6315
 20
164.9
 30
0.0
 11
173.5485
 21
164.9
 31
0.0
  0
LINE
  5
AA
100
AcDbEntity
  8
D-STR
  6
CONTINUOUS
 62
       1
100
AcDbLine
 10
168.09
 20
188.9
 30
0.0
 11
174.09
 21
188.9
 31
0.0
  0
LINE
  5
AB
100
AcDbEntity
  8
D-STR
  6
CONTINUOUS
 62
       1
100
AcDbLine
 10
168.6315
 20
188.9
 30
0.0
 11
168.09
 21
189.83790551
 31
0.0
  0
LINE
  5
AC
100
AcDbEntity
  8
D-STR
  6
CONTINUOUS
 62
       1
100
AcDbLine
 10
173.5485
 20
188.9
 30
0.0
 11
174.09
 21
189.83790551
 31
0.0
  0
LINE
  5
AD
100
AcDbEntity
  8
D-STR
  6
CONTINUOUS
 62
       1
100
AcDbLine
 10
168.09
 20
165.4415
 30
0.0
 11
168.6315
 21
164.9
 31
0.0
  0
LINE
  5
AE
100
AcDbEntity
  8
D-STR
  6
CONTINUOUS
 62
       1
100
AcDbLine
 10
173.5485
 20
164.9
 30
0.0
 11
174.09
 21
165.4415
 31
0.0
  0
LINE
  5
AF
100
AcDbEntity
  8
D-STR
  6
CONTINUOUS
 62
       1
100
AcDbLine
 10
168.09
 20
165.4415
 30
0.0
 11
174.09
 21
165.4415
 31
0.0
  0
LINE
  5
B0
100
AcDbEntity
  8
D-STR
  6
CONTINUOUS
 62
       1
100
AcDbLine
 10
174.09
 20
201.18
 30
0.0
 11
176.76
 21
203.85
 31
0.0
  0
LINE
  5
B1
100
AcDbEntity
  8
D-STR
  6
CONTINUOUS
 62
       1
100
AcDbLine
 10
168.09
 20
201.18
 30
0.0
 11
165.42
 21
203.85
 31
0.0
  0
LINE
  5
B2
100
AcDbEntity
  8
D-STR
  6
CONTINUOUS
 62
       1
100
AcDbLine
 10
165.42
 20
204.9
 30
0.0
 11
176.76
 21
204.9
 31
0.0
  0
LINE
  5
B3
100
AcDbEntity
  8
D-STR
  6
CONTINUOUS
 62
       1
100
AcDbLine
 10
176.76
 20
204.9
 30
0.0
 11
176.76
 21
203.85
 31
0.0
  0
LINE
  5
B4
100
AcDbEntity
  8
D-STR
  6
CONTINUOUS
 62
       1
100
AcDbLine
 10
165.42
 20
204.9
 30
0.0
 11
165.42
 21
203.85
 31
0.0
  0
LINE
  5
B5
100
AcDbEntity
  8
D-STR
  6
CONTINUOUS
 62
       1
100
AcDbLine
 10
165.42
 20
203.85
 30
0.0
 11
176.76
 21
203.85
 31
0.0
  0
LINE
  5
B6
100
AcDbEntity
  8
D-BMK
  6
CENTER
 62
       2
100
AcDbLine
 10
171.09
 20
204.9
 30
0.0
 11
171.09
 21
164.9
 31
0.0
  0
LINE
  5
B7
100
AcDbEntity
  8
D-STR
  6
CONTINUOUS
 62
       7
100
AcDbLine
 10
168.6315
 20
188.9
 30
0.0
 11
168.6315
 21
164.9
 31
0.0
  0
LINE
  5
B8
100
AcDbEntity
  8
D-STR
  6
CONTINUOUS
 62
       7
100
AcDbLine
 10
173.5485
 20
188.9
 30
0.0
 11
173.5485
 21
164.9
 31
0.0
  0
LINE
  5
B9
100
AcDbEntity
  8
D-STR-HID
  6
DASHED2
 62
       1
100
AcDbLine
 10
173.39940108
 20
204.9
 30
0.0
 11
173.39940108
 21
202.7
 31
0.0
  0
LINE
  5
BA
100
AcDbEntity
  8
D-STR-HID
  6
DASHED2
 62
       1
100
AcDbLine
 10
172.24470054
 20
204.9
 30
0.0
 11
172.24470054
 21
202.7
 31
0.0
  0
LINE
  5
BB
100
AcDbEntity
  8
D-STR-HID
  6
DASHED2
 62
       1
100
AcDbLine
 10
169.93529946
 20
204.9
 30
0.0
 11
169.93529946
 21
202.7
 31
0.0
  0
LINE
  5
BC
100
AcDbEntity
  8
D-STR-HID
  6
DASHED2
 62
       1
100
AcDbLine
 10
168.78059892
 20
204.9
 30
0.0
 11
168.78059892
 21
202.7
 31
0.0
  0
LINE
  5
BD
100
AcDbEntity
  8
D-STR-HID
  6
DASHED2
 62
       1
100
AcDbLine
 10
168.78059892
 20
202.7
 30
0.0
 11
173.39940108
 21
202.7
 31
0.0
  0
LINE
  5
BE
100
AcDbEntity
  8
D-STR-HID
  6
DASHED2
 62
       1
100
AcDbLine
 10
173.39940108
 20
202.7
 30
0.0
 11
171.09
 21
201.36666667
 31
0.0
  0
LINE
  5
BF
100
AcDbEntity
  8
D-STR-HID
  6
DASHED2
 62
       1
100
AcDbLine
 10
168.78059892
 20
202.7
 30
0.0
 11
171.09
 21
201.36666667
 31
0.0
  0
ENDBLK
  5
C0
100
AcDbEntity
  8
0
100
AcDbBlockEnd
  0
BLOCK
  5
C1
100
AcDbEntity
  8
0
100
AcDbBlockBegin
  2
GROUP_5
 70
       0
 10
0.0
 20
0.0
 30
0.0
  3
GROUP_5
  1

  0
LINE
  5
C2
100
AcDbEntity
  8
D-STR
  6
CONTINUOUS
 62
       1
100
AcDbLine
 10
184.38
 20
204.9
 30
0.0
 11
184.38
 21
203.56
 31
0.0
  0
LINE
  5
C3
100
AcDbEntity
  8
D-STR
  6
CONTINUOUS
 62
       1
100
AcDbLine
 10
188.0
 20
199.94
 30
0.0
 11
196.0
 21
199.94
 31
0.0
  0
LINE
  5
C4
100
AcDbEntity
  8
D-STR
  6
CONTINUOUS
 62
       1
100
AcDbLine
 10
196.0
 20
199.94
 30
0.0
 11
196.0
 21
155.5765
 31
0.0
  0
LINE
  5
C5
100
AcDbEntity
  8
D-STR
  6
CONTINUOUS
 62
       1
100
AcDbLine
 10
188.0
 20
199.94
 30
0.0
 11
188.0
 21
155.5765
 31
0.0
  0
LINE
  5
C6
100
AcDbEntity
  8
D-STR
  6
CONTINUOUS
 62
       1
100
AcDbLine
 10
188.6765
 20
154.9
 30
0.0
 11
195.3235
 21
154.9
 31
0.0
  0
LINE
  5
C7
100
AcDbEntity
  8
D-STR
  6
CONTINUOUS
 62
       1
100
AcDbLine
 10
188.0
 20
182.9
 30
0.0
 11
196.0
 21
182.9
 31
0.0
  0
LINE
  5
C8
100
AcDbEntity
  8
D-STR
  6
CONTINUOUS
 62
       1
100
AcDbLine
 10
188.6765
 20
182.9
 30
0.0
 11
188.0
 21
184.07173237
 31
0.0
  0
LINE
  5
C9
100
AcDbEntity
  8
D-STR
  6
CONTINUOUS
 62
       1
100
AcDbLine
 10
195.3235
 20
182.9
 30
0.0
 11
196.0
 21
184.07173237
 31
0.0
  0
LINE
  5
CA
100
AcDbEntity
  8
D-STR
  6
CONTINUOUS
 62
       1
100
AcDbLine
 10
188.0
 20
155.5765
 30
0.0
 11
188.6765
 21
154.9
 31
0.0
  0
LINE
  5
CB
100
AcDbEntity
  8
D-STR
  6
CONTINUOUS
 62
       1
100
AcDbLine
 10
195.3235
 20
154.9
 30
0.0
 11
196.0
 21
155.5765
 31
0.0
  0
LINE
  5
CC
100
AcDbEntity
  8
D-STR
  6
CONTINUOUS
 62
       1
100
AcDbLine
 10
188.0
 20
155.5765
 30
0.0
 11
196.0
 21
155.5765
 31
0.0
  0
LINE
  5
CD
100
AcDbEntity
  8
D-STR
  6
CONTINUOUS
 62
       1
100
AcDbLine
 10
196.0
 20
199.94
 30
0.0
 11
199.62
 21
203.56
 31
0.0
  0
LINE
  5
CE
100
AcDbEntity
  8
D-STR
  6
CONTINUOUS
 62
       1
100
AcDbLine
 10
199.62
 20
204.9
 30
0.0
 11
199.62
 21
203.56
 31
0.0
  0
LINE
  5
CF
100
AcDbEntity
  8
D-STR
  6
CONTINUOUS
 62
       1
100
AcDbLine
 10
188.0
 20
199.94
 30
0.0
 11
184.38
 21
203.56
 31
0.0
  0
LINE
  5
D0
100
AcDbEntity
  8
D-STR
  6
CONTINUOUS
 62
       1
100
AcDbLine
 10
184.38
 20
204.9
 30
0.0
 11
199.62
 21
204.9
 31
0.0
  0
LINE
  5
D1
100
AcDbEntity
  8
D-STR
  6
CONTINUOUS
 62
       1
100
AcDbLine
 10
184.38
 20
203.56
 30
0.0
 11
199.62
 21
203.56
 31
0.0
  0
LINE
  5
D2
100
AcDbEntity
  8
D-BMK
  6
CENTER
 62
       2
100
AcDbLine
 10
192.0
 20
204.9
 30
0.0
 11
192.0
 21
154.9
 31
0.0
  0
LINE
  5
D3
100
AcDbEntity
  8
D-STR
  6
CONTINUOUS
 62
       7
100
AcDbLine
 10
188.6765
 20
182.9
 30
0.0
 11
188.6765
 21
154.9
 31
0.0
  0
LINE
  5
D4
100
AcDbEntity
  8
D-STR
  6
CONTINUOUS
 62
       7
100
AcDbLine
 10
195.3235
 20
182.9
 30
0.0
 11
195.3235
 21
154.9
 31
0.0
  0
LINE
  5
D5
100
AcDbEntity
  8
D-STR-HID
  6
DASHED2
 62
       1
100
AcDbLine
 10
194.88675135
 20
204.9
 30
0.0
 11
194.88675135
 21
201.9
 31
0.0
  0
LINE
  5
D6
100
AcDbEntity
  8
D-STR-HID
  6
DASHED2
 62
       1
100
AcDbLine
 10
193.44337567
 20
204.9
 30
0.0
 11
193.44337567
 21
201.9
 31
0.0
  0
LINE
  5
D7
100
AcDbEntity
  8
D-STR-HID
  6
DASHED2
 62
       1
100
AcDbLine
 10
190.55662433
 20
204.9
 30
0.0
 11
190.55662433
 21
201.9
 31
0.0
  0
LINE
  5
D8
100
AcDbEntity
  8
D-STR-HID
  6
DASHED2
 62
       1
100
AcDbLine
 10
189.11324865
 20
204.9
 30
0.0
 11
189.11324865
 21
201.9
 31
0.0
  0
LINE
  5
D9
100
AcDbEntity
  8
D-STR-HID
  6
DASHED2
 62
       1
100
AcDbLine
 10
189.11324865
 20
201.9
 30
0.0
 11
194.88675135
 21
201.9
 31
0.0
  0
LINE
  5
DA
100
AcDbEntity
  8
D-STR-HID
  6
DASHED2
 62
       1
100
AcDbLine
 10
194.88675135
 20
201.9
 30
0.0
 11
192.0
 21
200.23333333
 31
0.0
  0
LINE
  5
DB
100
AcDbEntity
  8
D-STR-HID
  6
DASHED2
 62
       1
100
AcDbLine
 10
189.11324865
 20
201.9
 30
0.0
 11
192.0
 21
200.23333333
 31
0.0
  0
ENDBLK
  5
DC
100
AcDbEntity
  8
0
100
AcDbBlockEnd
  0
BLOCK
  5
DD
100
AcDbEntity
  8
0
100
AcDbBlockBegin
  2
GROUP_6
 70
       0
 10
0.0
 20
0.0
 30
0.0
  3
GROUP_6
  1

  0
LINE
  5
DE
100
AcDbEntity
  8
D-STR
  6
CONTINUOUS
 62
       1
100
AcDbLine
 10
213.84
 20
198.7
 30
0.0
 11
223.84
 21
198.7
 31
0.0
  0
LINE
  5
DF
100
AcDbEntity
  8
D-STR
  6
CONTINUOUS
 62
       1
100
AcDbLine
 10
213.84
 20
198.7
 30
0.0
 11
213.84
 21
150.7125
 31
0.0
  0
LINE
  5
E0
100
AcDbEntity
  8
D-STR
  6
CONTINUOUS
 62
       1
100
AcDbLine
 10
223.84
 20
198.7
 30
0.0
 11
223.84
 21
150.7125
 31
0.0
  0
LINE
  5
E1
100
AcDbEntity
  8
D-STR
  6
CONTINUOUS
 62
       1
100
AcDbLine
 10
214.6525
 20
149.9
 30
0.0
 11
223.0275
 21
149.9
 31
0.0
  0
LINE
  5
E2
100
AcDbEntity
  8
D-STR
  6
CONTINUOUS
 62
       1
100
AcDbLine
 10
213.84
 20
181.9
 30
0.0
 11
223.84
 21
181.9
 31
0.0
  0
LINE
  5
E3
100
AcDbEntity
  8
D-STR
  6
CONTINUOUS
 62
       1
100
AcDbLine
 10
214.6525
 20
181.9
 30
0.0
 11
213.84
 21
183.30729128
 31
0.0
  0
LINE
  5
E4
100
AcDbEntity
  8
D-STR
  6
CONTINUOUS
 62
       1
100
AcDbLine
 10
223.0275
 20
181.9
 30
0.0
 11
223.84
 21
183.30729128
 31
0.0
  0
LINE
  5
E5
100
AcDbEntity
  8
D-STR
  6
CONTINUOUS
 62
       1
100
AcDbLine
 10
213.84
 20
150.7125
 30
0.0
 11
214.6525
 21
149.9
 31
0.0
  0
LINE
  5
E6
100
AcDbEntity
  8
D-STR
  6
CONTINUOUS
 62
       1
100
AcDbLine
 10
223.0275
 20
149.9
 30
0.0
 11
223.84
 21
150.7125
 31
0.0
  0
LINE
  5
E7
100
AcDbEntity
  8
D-STR
  6
CONTINUOUS
 62
       1
100
AcDbLine
 10
213.84
 20
150.7125
 30
0.0
 11
223.84
 21
150.7125
 31
0.0
  0
LINE
  5
E8
100
AcDbEntity
  8
D-STR
  6
CONTINUOUS
 62
       1
100
AcDbLine
 10
223.84
 20
198.7
 30
0.0
 11
228.45
 21
203.31
 31
0.0
  0
LINE
  5
E9
100
AcDbEntity
  8
D-STR
  6
CONTINUOUS
 62
       1
100
AcDbLine
 10
213.84
 20
198.7
 30
0.0
 11
209.23
 21
203.31
 31
0.0
  0
LINE
  5
EA
100
AcDbEntity
  8
D-STR
  6
CONTINUOUS
 62
       1
100
AcDbLine
 10
209.23
 20
204.9
 30
0.0
 11
228.45
 21
204.9
 31
0.0
  0
LINE
  5
EB
100
AcDbEntity
  8
D-STR
  6
CONTINUOUS
 62
       1
100
AcDbLine
 10
228.45
 20
204.9
 30
0.0
 11
228.45
 21
203.31
 31
0.0
  0
LINE
  5
EC
100
AcDbEntity
  8
D-STR
  6
CONTINUOUS
 62
       1
100
AcDbLine
 10
209.23
 20
204.9
 30
0.0
 11
209.23
 21
203.31
 31
0.0
  0
LINE
  5
ED
100
AcDbEntity
  8
D-STR
  6
CONTINUOUS
 62
       1
100
AcDbLine
 10
209.23
 20
203.31
 30
0.0
 11
228.45
 21
203.31
 31
0.0
  0
LINE
  5
EE
100
AcDbEntity
  8
D-BMK
  6
CENTER
 62
       2
100
AcDbLine
 10
218.84
 20
204.9
 30
0.0
 11
218.84
 21
149.9
 31
0.0
  0
LINE
  5
EF
100
AcDbEntity
  8
D-STR
  6
CONTINUOUS
 62
       7
100
AcDbLine
 10
214.6525
 20
181.9
 30
0.0
 11
214.6525
 21
149.9
 31
0.0
  0
LINE
  5
F0
100
AcDbEntity
  8
D-STR
  6
CONTINUOUS
 62
       7
100
AcDbLine
 10
223.0275
 20
181.9
 30
0.0
 11
223.0275
 21
149.9
 31
0.0
  0
LINE
  5
F1
100
AcDbEntity
  8
D-STR-HID
  6
DASHED2
 62
       1
100
AcDbLine
 10
222.30410162
 20
204.9
 30
0.0
 11
222.30410162
 21
201.3
 31
0.0
  0
LINE
  5
F2
100
AcDbEntity
  8
D-STR-HID
  6
DASHED2
 62
       1
100
AcDbLine
 10
220.57205081
 20
204.9
 30
0.0
 11
220.57205081
 21
201.3
 31
0.0
  0
LINE
  5
F3
100
AcDbEntity
  8
D-STR-HID
  6
DASHED2
 62
       1
100
AcDbLine
 10
217.10794919
 20
204.9
 30
0.0
 11
217.10794919
 21
201.3
 31
0.0
  0
LINE
  5
F4
100
AcDbEntity
  8
D-STR-HID
  6
DASHED2
 62
       1
100
AcDbLine
 10
215.37589838
 20
204.9
 30
0.0
 11
215.37589838
 21
201.3
 31
0.0
  0
LINE
  5
F5
100
AcDbEntity
  8
D-STR-HID
  6
DASHED2
 62
       1
100
AcDbLine
 10
215.37589838
 20
201.3
 30
0.0
 11
222.30410162
 21
201.3
 31
0.0
  0
LINE
  5
F6
100
AcDbEntity
  8
D-STR-HID
  6
DASHED2
 62
       1
100
AcDbLine
 10
222.30410162
 20
201.3
 30
0.0
 11
218.84
 21
199.3
 31
0.0
  0
LINE
  5
F7
100
AcDbEntity
  8
D-STR-HID
  6
DASHED2
 62
       1
100
AcDbLine
 10
215.37589838
 20
201.3
 30
0.0
 11
218.84
 21
199.3
 31
0.0
  0
ENDBLK
  5
F8
100
AcDbEntity
  8
0
100
AcDbBlockEnd
  0
BLOCK
  5
F9
100
AcDbEntity
  8
0
100
AcDbBlockBegin
  2
GROUP_7
 70
       0
 10
0.0
 20
0.0
 30
0.0
  3
GROUP_7
  1

  0
LINE
  5
FA
100
AcDbEntity
  8
D-STR
  6
CONTINUOUS
 62
       1
100
AcDbLine
 10
245.57
 20
197.46
 30
0.0
 11
257.57
 21
197.46
 31
0.0
  0
LINE
  5
FB
100
AcDbEntity
  8
D-STR
  6
CONTINUOUS
 62
       1
100
AcDbLine
 10
245.57
 20
197.46
 30
0.0
 11
245.57
 21
140.847
 31
0.0
  0
LINE
  5
FC
100
AcDbEntity
  8
D-STR
  6
CONTINUOUS
 62
       1
100
AcDbLine
 10
257.57
 20
197.46
 30
0.0
 11
257.57
 21
140.847
 31
0.0
  0
LINE
  5
FD
100
AcDbEntity
  8
D-STR
  6
CONTINUOUS
 62
       1
100
AcDbLine
 10
246.517
 20
139.9
 30
0.0
 11
256.623
 21
139.9
 31
0.0
  0
LINE
  5
FE
100
AcDbEntity
  8
D-STR
  6
CONTINUOUS
 62
       1
100
AcDbLine
 10
245.57
 20
175.9
 30
0.0
 11
257.57
 21
175.9
 31
0.0
  0
LINE
  5
FF
100
AcDbEntity
  8
D-STR
  6
CONTINUOUS
 62
       1
100
AcDbLine
 10
246.517
 20
175.9
 30
0.0
 11
245.57
 21
177.54025211
 31
0.0
  0
LINE
  5
100
100
AcDbEntity
  8
D-STR
  6
CONTINUOUS
 62
       1
100
AcDbLine
 10
256.623
 20
175.9
 30
0.0
 11
257.57
 21
177.54025211
 31
0.0
  0
LINE
  5
101
100
AcDbEntity
  8
D-STR
  6
CONTINUOUS
 62
       1
100
AcDbLine
 10
245.57
 20
140.847
 30
0.0
 11
246.517
 21
139.9
 31
0.0
  0
LINE
  5
102
100
AcDbEntity
  8
D-STR
  6
CONTINUOUS
 62
       1
100
AcDbLine
 10
256.623
 20
139.9
 30
0.0
 11
257.57
 21
140.847
 31
0.0
  0
LINE
  5
103
100
AcDbEntity
  8
D-STR
  6
CONTINUOUS
 62
       1
100
AcDbLine
 10
245.57
 20
140.847
 30
0.0
 11
257.57
 21
140.847
 31
0.0
  0
LINE
  5
104
100
AcDbEntity
  8
D-STR
  6
CONTINUOUS
 62
       1
100
AcDbLine
 10
257.57
 20
197.46
 30
0.0
 11
263.13
 21
203.02
 31
0.0
  0
LINE
  5
105
100
AcDbEntity
  8
D-STR
  6
CONTINUOUS
 62
       1
100
AcDbLine
 10
245.57
 20
197.46
 30
0.0
 11
240.01
 21
203.02
 31
0.0
  0
LINE
  5
106
100
AcDbEntity
  8
D-STR
  6
CONTINUOUS
 62
       1
100
AcDbLine
 10
240.01
 20
204.9
 30
0.0
 11
263.13
 21
204.9
 31
0.0
  0
LINE
  5
107
100
AcDbEntity
  8
D-STR
  6
CONTINUOUS
 62
       1
100
AcDbLine
 10
240.01
 20
204.9
 30
0.0
 11
240.01
 21
203.02
 31
0.0
  0
LINE
  5
108
100
AcDbEntity
  8
D-STR
  6
CONTINUOUS
 62
       1
100
AcDbLine
 10
263.13
 20
204.9
 30
0.0
 11
263.13
 21
203.02
 31
0.0
  0
LINE
  5
109
100
AcDbEntity
  8
D-STR
  6
CONTINUOUS
 62
       1
100
AcDbLine
 10
240.01
 20
203.02
 30
0.0
 11
263.13
 21
203.02
 31
0.0
  0
LINE
  5
10A
100
AcDbEntity
  8
D-BMK
  6
CENTER
 62
       2
100
AcDbLine
 10
251.57
 20
204.9
 30
0.0
 11
251.57
 21
139.9
 31
0.0
  0
LINE
  5
10B
100
AcDbEntity
  8
D-STR
  6
CONTINUOUS
 62
       7
100
AcDbLine
 10
246.517
 20
175.9
 30
0.0
 11
246.517
 21
139.9
 31
0.0
  0
LINE
  5
10C
100
AcDbEntity
  8
D-STR
  6
CONTINUOUS
 62
       7
100
AcDbLine
 10
256.623
 20
175.9
 30
0.0
 11
256.623
 21
139.9
 31
0.0
  0
LINE
  5
10D
100
AcDbEntity
  8
D-STR-HID
  6
DASHED2
 62
       1
100
AcDbLine
 10
256.18880215
 20
204.9
 30
0.0
 11
256.18880215
 21
200.6
 31
0.0
  0
LINE
  5
10E
100
AcDbEntity
  8
D-STR-HID
  6
DASHED2
 62
       1
100
AcDbLine
 10
253.87940108
 20
204.9
 30
0.0
 11
253.87940108
 21
200.6
 31
0.0
  0
LINE
  5
10F
100
AcDbEntity
  8
D-STR-HID
  6
DASHED2
 62
       1
100
AcDbLine
 10
249.26059892
 20
204.9
 30
0.0
 11
249.26059892
 21
200.6
 31
0.0
  0
LINE
  5
110
100
AcDbEntity
  8
D-STR-HID
  6
DASHED2
 62
       1
100
AcDbLine
 10
246.95119785
 20
204.9
 30
0.0
 11
246.95119785
 21
200.6
 31
0.0
  0
LINE
  5
111
100
AcDbEntity
  8
D-STR-HID
  6
DASHED2
 62
       1
100
AcDbLine
 10
246.95119785
 20
200.6
 30
0.0
 11
256.18880215
 21
200.6
 31
0.0
  0
LINE
  5
112
100
AcDbEntity
  8
D-STR-HID
  6
DASHED2
 62
       1
100
AcDbLine
 10
256.18880215
 20
200.6
 30
0.0
 11
251.57
 21
197.93333333
 31
0.0
  0
LINE
  5
113
100
AcDbEntity
  8
D-STR-HID
  6
DASHED2
 62
       1
100
AcDbLine
 10
246.95119785
 20
200.6
 30
0.0
 11
251.57
 21
197.93333333
 31
0.0
  0
ENDBLK
  5
114
100
AcDbEntity
  8
0
100
AcDbBlockEnd
  0
BLOCK
  5
115
100
AcDbEntity
  8
0
100
AcDbBlockBegin
  2
GROUP_8
 70
       0
 10
0.0
 20
0.0
 30
0.0
  3
GROUP_8
  1

  0
LINE
  5
116
100
AcDbEntity
  8
D-STR
  6
CONTINUOUS
 62
       1
100
AcDbLine
 10
282.65
 20
196.5
 30
0.0
 11
296.65
 21
196.5
 31
0.0
  0
LINE
  5
117
100
AcDbEntity
  8
D-STR
  6
CONTINUOUS
 62
       1
100
AcDbLine
 10
282.65
 20
196.5
 30
0.0
 11
282.65
 21
135.9825
 31
0.0
  0
LINE
  5
118
100
AcDbEntity
  8
D-STR
  6
CONTINUOUS
 62
       1
100
AcDbLine
 10
296.65
 20
196.5
 30
0.0
 11
296.65
 21
135.9825
 31
0.0
  0
LINE
  5
119
100
AcDbEntity
  8
D-STR
  6
CONTINUOUS
 62
       1
100
AcDbLine
 10
283.7325
 20
134.9
 30
0.0
 11
295.5675
 21
134.9
 31
0.0
  0
LINE
  5
11A
100
AcDbEntity
  8
D-STR
  6
CONTINUOUS
 62
       1
100
AcDbLine
 10
282.65
 20
174.9
 30
0.0
 11
296.65
 21
174.9
 31
0.0
  0
LINE
  5
11B
100
AcDbEntity
  8
D-STR
  6
CONTINUOUS
 62
       1
100
AcDbLine
 10
283.7325
 20
174.9
 30
0.0
 11
282.65
 21
176.774945
 31
0.0
  0
LINE
  5
11C
100
AcDbEntity
  8
D-STR
  6
CONTINUOUS
 62
       1
100
AcDbLine
 10
295.5675
 20
174.9
 30
0.0
 11
296.65
 21
176.774945
 31
0.0
  0
LINE
  5
11D
100
AcDbEntity
  8
D-STR
  6
CONTINUOUS
 62
       1
100
AcDbLine
 10
282.65
 20
135.9825
 30
0.0
 11
283.7325
 21
134.9
 31
0.0
  0
LINE
  5
11E
100
AcDbEntity
  8
D-STR
  6
CONTINUOUS
 62
       1
100
AcDbLine
 10
295.5675
 20
134.9
 30
0.0
 11
296.65
 21
135.9825
 31
0.0
  0
LINE
  5
11F
100
AcDbEntity
  8
D-STR
  6
CONTINUOUS
 62
       1
100
AcDbLine
 10
282.65
 20
135.9825
 30
0.0
 11
296.65
 21
135.9825
 31
0.0
  0
LINE
  5
120
100
AcDbEntity
  8
D-STR
  6
CONTINUOUS
 62
       1
100
AcDbLine
 10
296.65
 20
196.5
 30
0.0
 11
302.91
 21
202.76
 31
0.0
  0
LINE
  5
121
100
AcDbEntity
  8
D-STR
  6
CONTINUOUS
 62
       1
100
AcDbLine
 10
282.65
 20
196.5
 30
0.0
 11
276.39
 21
202.76
 31
0.0
  0
LINE
  5
122
100
AcDbEntity
  8
D-STR
  6
CONTINUOUS
 62
       1
100
AcDbLine
 10
276.39
 20
204.9
 30
0.0
 11
302.91
 21
204.9
 31
0.0
  0
LINE
  5
123
100
AcDbEntity
  8
D-STR
  6
CONTINUOUS
 62
       1
100
AcDbLine
 10
302.91
 20
204.9
 30
0.0
 11
302.91
 21
202.76
 31
0.0
  0
LINE
  5
124
100
AcDbEntity
  8
D-STR
  6
CONTINUOUS
 62
       1
100
AcDbLine
 10
276.39
 20
204.9
 30
0.0
 11
276.39
 21
202.76
 31
0.0
  0
LINE
  5
125
100
AcDbEntity
  8
D-STR
  6
CONTINUOUS
 62
       1
100
AcDbLine
 10
276.39
 20
202.76
 30
0.0
 11
302.91
 21
202.76
 31
0.0
  0
LINE
  5
126
100
AcDbEntity
  8
D-BMK
  6
CENTER
 62
       2
100
AcDbLine
 10
289.65
 20
204.9
 30
0.0
 11
289.65
 21
134.9
 31
0.0
  0
LINE
  5
127
100
AcDbEntity
  8
D-STR
  6
CONTINUOUS
 62
       7
100
AcDbLine
 10
283.7325
 20
174.9
 30
0.0
 11
283.7325
 21
134.9
 31
0.0
  0
LINE
  5
128
100
AcDbEntity
  8
D-STR
  6
CONTINUOUS
 62
       7
100
AcDbLine
 10
295.5675
 20
174.9
 30
0.0
 11
295.5675
 21
134.9
 31
0.0
  0
LINE
  5
129
100
AcDbEntity
  8
D-STR-HID
  6
DASHED2
 62
       1
100
AcDbLine
 10
295.42350269
 20
204.9
 30
0.0
 11
295.42350269
 21
200.4
 31
0.0
  0
LINE
  5
12A
100
AcDbEntity
  8
D-STR-HID
  6
DASHED2
 62
       1
100
AcDbLine
 10
292.53675135
 20
204.9
 30
0.0
 11
292.53675135
 21
200.4
 31
0.0
  0
LINE
  5
12B
100
AcDbEntity
  8
D-STR-HID
  6
DASHED2
 62
       1
100
AcDbLine
 10
286.76324865
 20
204.9
 30
0.0
 11
286.76324865
 21
200.4
 31
0.0
  0
LINE
  5
12C
100
AcDbEntity
  8
D-STR-HID
  6
DASHED2
 62
       1
100
AcDbLine
 10
283.87649731
 20
204.9
 30
0.0
 11
283.87649731
 21
200.4
 31
0.0
  0
LINE
  5
12D
100
AcDbEntity
  8
D-STR-HID
  6
DASHED2
 62
       1
100
AcDbLine
 10
283.87649731
 20
200.4
 30
0.0
 11
295.42350269
 21
200.4
 31
0.0
  0
LINE
  5
12E
100
AcDbEntity
  8
D-STR-HID
  6
DASHED2
 62
       1
100
AcDbLine
 10
295.42350269
 20
200.4
 30
0.0
 11
289.65
 21
197.06666667
 31
0.0
  0
LINE
  5
12F
100
AcDbEntity
  8
D-STR-HID
  6
DASHED2
 62
       1
100
AcDbLine
 10
283.87649731
 20
200.4
 30
0.0
 11
289.65
 21
197.06666667
 31
0.0
  0
ENDBLK
  5
130
100
AcDbEntity
  8
0
100
AcDbBlockEnd
  0
BLOCK
  5
131
100
AcDbEntity
  8
0
100
AcDbBlockBegin
  2
GROUP_9
 70
       0
 10
0.0
 20
0.0
 30
0.0
  3
GROUP_9
  1

  0
LINE
  5
132
100
AcDbEntity
  8
D-STR
  6
CONTINUOUS
 62
       1
100
AcDbLine
 10
323.92
 20
196.1
 30
0.0
 11
339.92
 21
196.1
 31
0.0
  0
LINE
  5
133
100
AcDbEntity
  8
D-STR
  6
CONTINUOUS
 62
       1
100
AcDbLine
 10
323.92
 20
196.1
 30
0.0
 11
323.92
 21
125.9825
 31
0.0
  0
LINE
  5
134
100
AcDbEntity
  8
D-STR
  6
CONTINUOUS
 62
       1
100
AcDbLine
 10
339.92
 20
196.1
 30
0.0
 11
339.92
 21
125.9825
 31
0.0
  0
LINE
  5
135
100
AcDbEntity
  8
D-STR
  6
CONTINUOUS
 62
       1
100
AcDbLine
 10
325.0025
 20
124.9
 30
0.0
 11
338.8375
 21
124.9
 31
0.0
  0
LINE
  5
136
100
AcDbEntity
  8
D-STR
  6
CONTINUOUS
 62
       1
100
AcDbLine
 10
323.92
 20
168.9
 30
0.0
 11
339.92
 21
168.9
 31
0.0
  0
LINE
  5
137
100
AcDbEntity
  8
D-STR
  6
CONTINUOUS
 62
       1
100
AcDbLine
 10
325.0025
 20
168.9
 30
0.0
 11
323.92
 21
170.774945
 31
0.0
  0
LINE
  5
138
100
AcDbEntity
  8
D-STR
  6
CONTINUOUS
 62
       1
100
AcDbLine
 10
338.8375
 20
168.9
 30
0.0
 11
339.92
 21
170.774945
 31
0.0
  0
LINE
  5
139
100
AcDbEntity
  8
D-STR
  6
CONTINUOUS
 62
       1
100
AcDbLine
 10
323.92
 20
125.9825
 30
0.0
 11
325.0025
 21
124.9
 31
0.0
  0
LINE
  5
13A
100
AcDbEntity
  8
D-STR
  6
CONTINUOUS
 62
       1
100
AcDbLine
 10
338.8375
 20
124.9
 30
0.0
 11
339.92
 21
125.9825
 31
0.0
  0
LINE
  5
13B
100
AcDbEntity
  8
D-STR
  6
CONTINUOUS
 62
       1
100
AcDbLine
 10
323.92
 20
125.9825
 30
0.0
 11
339.92
 21
125.9825
 31
0.0
  0
LINE
  5
13C
100
AcDbEntity
  8
D-STR
  6
CONTINUOUS
 62
       1
100
AcDbLine
 10
339.92
 20
196.1
 30
0.0
 11
346.425
 21
202.605
 31
0.0
  0
LINE
  5
13D
100
AcDbEntity
  8
D-STR
  6
CONTINUOUS
 62
       1
100
AcDbLine
 10
323.92
 20
196.1
 30
0.0
 11
317.415
 21
202.605
 31
0.0
  0
LINE
  5
13E
100
AcDbEntity
  8
D-STR
  6
CONTINUOUS
 62
       1
100
AcDbLine
 10
317.415
 20
204.9
 30
0.0
 11
346.425
 21
204.9
 31
0.0
  0
LINE
  5
13F
100
AcDbEntity
  8
D-STR
  6
CONTINUOUS
 62
       1
100
AcDbLine
 10
346.425
 20
204.9
 30
0.0
 11
346.425
 21
202.605
 31
0.0
  0
LINE
  5
140
100
AcDbEntity
  8
D-STR
  6
CONTINUOUS
 62
       1
100
AcDbLine
 10
317.415
 20
204.9
 30
0.0
 11
317.415
 21
202.605
 31
0.0
  0
LINE
  5
141
100
AcDbEntity
  8
D-STR
  6
CONTINUOUS
 62
       1
100
AcDbLine
 10
317.415
 20
202.605
 30
0.0
 11
346.425
 21
202.605
 31
0.0
  0
LINE
  5
142
100
AcDbEntity
  8
D-BMK
  6
CENTER
 62
       2
100
AcDbLine
 10
331.92
 20
204.9
 30
0.0
 11
331.92
 21
124.9
 31
0.0
  0
LINE
  5
143
100
AcDbEntity
  8
D-STR
  6
CONTINUOUS
 62
       7
100
AcDbLine
 10
325.0025
 20
168.9
 30
0.0
 11
325.0025
 21
124.9
 31
0.0
  0
LINE
  5
144
100
AcDbEntity
  8
D-STR
  6
CONTINUOUS
 62
       7
100
AcDbLine
 10
338.8375
 20
168.9
 30
0.0
 11
338.8375
 21
124.9
 31
0.0
  0
LINE
  5
145
100
AcDbEntity
  8
D-STR-HID
  6
DASHED2
 62
       1
100
AcDbLine
 10
337.69350269
 20
204.9
 30
0.0
 11
337.69350269
 21
200.1
 31
0.0
  0
LINE
  5
146
100
AcDbEntity
  8
D-STR-HID
  6
DASHED2
 62
       1
100
AcDbLine
 10
334.80675135
 20
204.9
 30
0.0
 11
334.80675135
 21
200.1
 31
0.0
  0
LINE
  5
147
100
AcDbEntity
  8
D-STR-HID
  6
DASHED2
 62
       1
100
AcDbLine
 10
329.03324865
 20
204.9
 30
0.0
 11
329.03324865
 21
200.1
 31
0.0
  0
LINE
  5
148
100
AcDbEntity
  8
D-STR-HID
  6
DASHED2
 62
       1
100
AcDbLine
 10
326.14649731
 20
204.9
 30
0.0
 11
326.14649731
 21
200.1
 31
0.0
  0
LINE
  5
149
100
AcDbEntity
  8
D-STR-HID
  6
DASHED2
 62
       1
100
AcDbLine
 10
326.14649731
 20
200.1
 30
0.0
 11
337.69350269
 21
200.1
 31
0.0
  0
LINE
  5
14A
100
AcDbEntity
  8
D-STR-HID
  6
DASHED2
 62
       1
100
AcDbLine
 10
326.14649731
 20
200.1
 30
0.0
 11
331.92
 21
196.76666667
 31
0.0
  0
LINE
  5
14B
100
AcDbEntity
  8
D-STR-HID
  6
DASHED2
 62
       1
100
AcDbLine
 10
337.69350269
 20
200.1
 30
0.0
 11
331.92
 21
196.76666667
 31
0.0
  0
ENDBLK
  5
14C
100
AcDbEntity
  8
0
100
AcDbBlockEnd
  0
BLOCK
  5
14D
100
AcDbEntity
  8
0
100
AcDbBlockBegin
  2
GROUP_10
 70
       0
 10
0.0
 20
0.0
 30
0.0
  3
GROUP_10
  1

  0
LINE
  5
14E
100
AcDbEntity
  8
D-STR
  6
CONTINUOUS
 62
       1
100
AcDbLine
 10
372.475
 20
194.74
 30
0.0
 11
392.475
 21
194.74
 31
0.0
  0
LINE
  5
14F
100
AcDbEntity
  8
D-STR
  6
CONTINUOUS
 62
       1
100
AcDbLine
 10
372.475
 20
194.74
 30
0.0
 11
372.475
 21
106.253
 31
0.0
  0
LINE
  5
150
100
AcDbEntity
  8
D-STR
  6
CONTINUOUS
 62
       1
100
AcDbLine
 10
392.475
 20
194.74
 30
0.0
 11
392.475
 21
106.253
 31
0.0
  0
LINE
  5
151
100
AcDbEntity
  8
D-STR
  6
CONTINUOUS
 62
       1
100
AcDbLine
 10
373.828
 20
104.9
 30
0.0
 11
391.122
 21
104.9
 31
0.0
  0
LINE
  5
152
100
AcDbEntity
  8
D-STR
  6
CONTINUOUS
 62
       1
100
AcDbLine
 10
372.475
 20
156.9
 30
0.0
 11
392.475
 21
156.9
 31
0.0
  0
LINE
  5
153
100
AcDbEntity
  8
D-STR
  6
CONTINUOUS
 62
       1
100
AcDbLine
 10
373.828
 20
156.9
 30
0.0
 11
372.475
 21
159.24346474
 31
0.0
  0
LINE
  5
154
100
AcDbEntity
  8
D-STR
  6
CONTINUOUS
 62
       1
100
AcDbLine
 10
391.122
 20
156.9
 30
0.0
 11
392.475
 21
159.24346474
 31
0.0
  0
LINE
  5
155
100
AcDbEntity
  8
D-STR
  6
CONTINUOUS
 62
       1
100
AcDbLine
 10
372.475
 20
106.253
 30
0.0
 11
373.828
 21
104.9
 31
0.0
  0
LINE
  5
156
100
AcDbEntity
  8
D-STR
  6
CONTINUOUS
 62
       1
100
AcDbLine
 10
391.122
 20
104.9
 30
0.0
 11
392.475
 21
106.253
 31
0.0
  0
LINE
  5
157
100
AcDbEntity
  8
D-STR
  6
CONTINUOUS
 62
       1
100
AcDbLine
 10
372.475
 20
106.253
 30
0.0
 11
392.475
 21
106.253
 31
0.0
  0
LINE
  5
158
100
AcDbEntity
  8
D-STR
  6
CONTINUOUS
 62
       1
100
AcDbLine
 10
392.475
 20
194.74
 30
0.0
 11
400.5
 21
202.765
 31
0.0
  0
LINE
  5
159
100
AcDbEntity
  8
D-STR
  6
CONTINUOUS
 62
       1
100
AcDbLine
 10
372.475
 20
194.74
 30
0.0
 11
364.45
 21
202.765
 31
0.0
  0
LINE
  5
15A
100
AcDbEntity
  8
D-STR
  6
CONTINUOUS
 62
       1
100
AcDbLine
 10
364.45
 20
204.9
 30
0.0
 11
400.5
 21
204.9
 31
0.0
  0
LINE
  5
15B
100
AcDbEntity
  8
D-STR
  6
CONTINUOUS
 62
       1
100
AcDbLine
 10
400.5
 20
204.9
 30
0.0
 11
400.5
 21
202.765
 31
0.0
  0
LINE
  5
15C
100
AcDbEntity
  8
D-STR
  6
CONTINUOUS
 62
       1
100
AcDbLine
 10
364.45
 20
204.9
 30
0.0
 11
364.45
 21
202.765
 31
0.0
  0
LINE
  5
15D
100
AcDbEntity
  8
D-STR
  6
CONTINUOUS
 62
       1
100
AcDbLine
 10
364.45
 20
202.765
 30
0.0
 11
400.5
 21
202.765
 31
0.0
  0
LINE
  5
15E
100
AcDbEntity
  8
D-BMK
  6
CENTER
 62
       2
100
AcDbLine
 10
382.475
 20
204.9
 30
0.0
 11
382.475
 21
104.9
 31
0.0
  0
LINE
  5
15F
100
AcDbEntity
  8
D-STR
  6
CONTINUOUS
 62
       7
100
AcDbLine
 10
373.828
 20
156.9
 30
0.0
 11
373.828
 21
104.9
 31
0.0
  0
LINE
  5
160
100
AcDbEntity
  8
D-STR
  6
CONTINUOUS
 62
       7
100
AcDbLine
 10
391.122
 20
156.9
 30
0.0
 11
391.122
 21
104.9
 31
0.0
  0
LINE
  5
161
100
AcDbEntity
  8
D-STR-HID
  6
DASHED2
 62
       1
100
AcDbLine
 10
389.40320323
 20
204.9
 30
0.0
 11
389.40320323
 21
199.3
 31
0.0
  0
LINE
  5
162
100
AcDbEntity
  8
D-STR-HID
  6
DASHED2
 62
       1
100
AcDbLine
 10
385.93910162
 20
204.9
 30
0.0
 11
385.93910162
 21
199.3
 31
0.0
  0
LINE
  5
163
100
AcDbEntity
  8
D-STR-HID
  6
DASHED2
 62
       1
100
AcDbLine
 10
379.01089838
 20
204.9
 30
0.0
 11
379.01089838
 21
199.3
 31
0.0
  0
LINE
  5
164
100
AcDbEntity
  8
D-STR-HID
  6
DASHED2
 62
       1
100
AcDbLine
 10
375.54679677
 20
204.9
 30
0.0
 11
375.54679677
 21
199.3
 31
0.0
  0
LINE
  5
165
100
AcDbEntity
  8
D-STR-HID
  6
DASHED2
 62
       1
100
AcDbLine
 10
375.54679677
 20
199.3
 30
0.0
 11
389.40320323
 21
199.3
 31
0.0
  0
LINE
  5
166
100
AcDbEntity
  8
D-STR-HID
  6
DASHED2
 62
       1
100
AcDbLine
 10
389.40320323
 20
199.3
 30
0.0
 11
382.475
 21
195.3
 31
0.0
  0
LINE
  5
167
100
AcDbEntity
  8
D-STR-HID
  6
DASHED2
 62
       1
100
AcDbLine
 10
375.54679677
 20
199.3
 30
0.0
 11
382.475
 21
195.3
 31
0.0
  0
ENDBLK
  5
168
100
AcDbEntity
  8
0
100
AcDbBlockEnd
  0
BLOCK
  5
169
100
AcDbEntity
  8
0
100
AcDbBlockBegin
  2
GROUP_11
 70
       0
 10
0.0
 20
0.0
 30
0.0
  3
GROUP_11
  1

  0
LINE
  5
16A
100
AcDbEntity
  8
D-BMK
  6
CENTER
 62
       2
100
AcDbLine
 10
131.54
 20
210.44
 30
0.0
 11
131.54
 21
215.98
 31
0.0
  0
LINE
  5
16B
100
AcDbEntity
  8
D-BMK
  6
CENTER
 62
       2
100
AcDbLine
 10
128.77
 20
213.21
 30
0.0
 11
134.31
 21
213.21
 31
0.0
  0
LINE
  5
16C
100
AcDbEntity
  8
D-STR
  6
CONTINUOUS
 62
       1
100
AcDbLine
 10
130.96264973
 20
214.21
 30
0.0
 11
132.11735027
 21
214.21
 31
0.0
  0
LINE
  5
16D
100
AcDbEntity
  8
D-STR
  6
CONTINUOUS
 62
       1
100
AcDbLine
 10
130.38529946
 20
213.21
 30
0.0
 11
130.96264973
 21
214.21
 31
0.0
  0
LINE
  5
16E
100
AcDbEntity
  8
D-STR
  6
CONTINUOUS
 62
       1
100
AcDbLine
 10
130.96264973
 20
212.21
 30
0.0
 11
130.38529946
 21
213.21
 31
0.0
  0
LINE
  5
16F
100
AcDbEntity
  8
D-STR
  6
CONTINUOUS
 62
       1
100
AcDbLine
 10
132.11735027
 20
212.21
 30
0.0
 11
130.96264973
 21
212.21
 31
0.0
  0
LINE
  5
170
100
AcDbEntity
  8
D-STR
  6
CONTINUOUS
 62
       1
100
AcDbLine
 10
132.69470054
 20
213.21
 30
0.0
 11
132.11735027
 21
212.21
 31
0.0
  0
LINE
  5
171
100
AcDbEntity
  8
D-STR
  6
CONTINUOUS
 62
       1
100
AcDbLine
 10
132.11735027
 20
214.21
 30
0.0
 11
132.69470054
 21
213.21
 31
0.0
  0
CIRCLE
  5
172
100
AcDbEntity
  8
D-STR
  6
CONTINUOUS
 62
       1
100
AcDbCircle
 10
131.54
 20
213.21
 30
0.0
 40
2.77
  0
ENDBLK
  5
173
100
AcDbEntity
  8
0
100
AcDbBlockEnd
  0
BLOCK
  5
174
100
AcDbEntity
  8
0
100
AcDbBlockBegin
  2
GROUP_12
 70
       0
 10
0.0
 20
0.0
 30
0.0
  3
GROUP_12
  1

  0
LINE
  5
175
100
AcDbEntity
  8
D-BMK
  6
CENTER
 62
       2
100
AcDbLine
 10
141.84
 20
212.43
 30
0.0
 11
141.84
 21
219.96
 31
0.0
  0
LINE
  5
176
100
AcDbEntity
  8
D-BMK
  6
CENTER
 62
       2
100
AcDbLine
 10
138.075
 20
216.195
 30
0.0
 11
145.605
 21
216.195
 31
0.0
  0
LINE
  5
177
100
AcDbEntity
  8
D-STR
  6
CONTINUOUS
 62
       1
100
AcDbLine
 10
141.11831216
 20
217.445
 30
0.0
 11
142.56168784
 21
217.445
 31
0.0
  0
LINE
  5
178
100
AcDbEntity
  8
D-STR
  6
CONTINUOUS
 62
       1
100
AcDbLine
 10
140.39662433
 20
216.195
 30
0.0
 11
141.11831216
 21
217.445
 31
0.0
  0
LINE
  5
179
100
AcDbEntity
  8
D-STR
  6
CONTINUOUS
 62
       1
100
AcDbLine
 10
141.11831216
 20
214.945
 30
0.0
 11
140.39662433
 21
216.195
 31
0.0
  0
LINE
  5
17A
100
AcDbEntity
  8
D-STR
  6
CONTINUOUS
 62
       1
100
AcDbLine
 10
142.56168784
 20
214.945
 30
0.0
 11
141.11831216
 21
214.945
 31
0.0
  0
LINE
  5
17B
100
AcDbEntity
  8
D-STR
  6
CONTINUOUS
 62
       1
100
AcDbLine
 10
143.28337567
 20
216.195
 30
0.0
 11
142.56168784
 21
214.945
 31
0.0
  0
LINE
  5
17C
100
AcDbEntity
  8
D-STR
  6
CONTINUOUS
 62
       1
100
AcDbLine
 10
142.56168784
 20
217.445
 30
0.0
 11
143.28337567
 21
216.195
 31
0.0
  0
CIRCLE
  5
17D
100
AcDbEntity
  8
D-STR
  6
CONTINUOUS
 62
       1
100
AcDbCircle
 10
141.84
 20
216.195
 30
0.0
 40
3.765
  0
ENDBLK
  5
17E
100
AcDbEntity
  8
0
100
AcDbBlockEnd
  0
BLOCK
  5
17F
100
AcDbEntity
  8
0
100
AcDbBlockBegin
  2
GROUP_13
 70
       0
 10
0.0
 20
0.0
 30
0.0
  3
GROUP_13
  1

  0
LINE
  5
180
100
AcDbEntity
  8
D-BMK
  6
CENTER
 62
       2
100
AcDbLine
 10
150.32
 20
219.045
 30
0.0
 11
159.75
 21
219.045
 31
0.0
  0
LINE
  5
181
100
AcDbEntity
  8
D-BMK
  6
CENTER
 62
       2
100
AcDbLine
 10
155.035
 20
214.33
 30
0.0
 11
155.035
 21
223.76
 31
0.0
  0
CIRCLE
  5
182
100
AcDbEntity
  8
D-STR
  6
CONTINUOUS
 62
       1
100
AcDbCircle
 10
155.035
 20
219.045
 30
0.0
 40
4.715
  0
LINE
  5
183
100
AcDbEntity
  8
D-STR
  6
CONTINUOUS
 62
       1
100
AcDbLine
 10
154.1689746
 20
220.545
 30
0.0
 11
155.9010254
 21
220.545
 31
0.0
  0
LINE
  5
184
100
AcDbEntity
  8
D-STR
  6
CONTINUOUS
 62
       1
100
AcDbLine
 10
153.30294919
 20
219.045
 30
0.0
 11
154.1689746
 21
220.545
 31
0.0
  0
LINE
  5
185
100
AcDbEntity
  8
D-STR
  6
CONTINUOUS
 62
       1
100
AcDbLine
 10
154.1689746
 20
217.545
 30
0.0
 11
153.30294919
 21
219.045
 31
0.0
  0
LINE
  5
186
100
AcDbEntity
  8
D-STR
  6
CONTINUOUS
 62
       1
100
AcDbLine
 10
155.9010254
 20
217.545
 30
0.0
 11
154.1689746
 21
217.545
 31
0.0
  0
LINE
  5
187
100
AcDbEntity
  8
D-STR
  6
CONTINUOUS
 62
       1
100
AcDbLine
 10
156.76705081
 20
219.045
 30
0.0
 11
155.9010254
 21
217.545
 31
0.0
  0
LINE
  5
188
100
AcDbEntity
  8
D-STR
  6
CONTINUOUS
 62
       1
100
AcDbLine
 10
155.9010254
 20
220.545
 30
0.0
 11
156.76705081
 21
219.045
 31
0.0
  0
ENDBLK
  5
189
100
AcDbEntity
  8
0
100
AcDbBlockEnd
  0
BLOCK
  5
18A
100
AcDbEntity
  8
0
100
AcDbBlockBegin
  2
GROUP_14
 70
       0
 10
0.0
 20
0.0
 30
0.0
  3
GROUP_14
  1

  0
LINE
  5
18B
100
AcDbEntity
  8
D-BMK
  6
CENTER
 62
       2
100
AcDbLine
 10
165.42
 20
221.91
 30
0.0
 11
176.76
 21
221.91
 31
0.0
  0
LINE
  5
18C
100
AcDbEntity
  8
D-BMK
  6
CENTER
 62
       2
100
AcDbLine
 10
171.09
 20
216.24
 30
0.0
 11
171.09
 21
227.58
 31
0.0
  0
CIRCLE
  5
18D
100
AcDbEntity
  8
D-STR
  6
CONTINUOUS
 62
       1
100
AcDbCircle
 10
171.09
 20
221.91
 30
0.0
 40
5.67
  0
LINE
  5
18E
100
AcDbEntity
  8
D-STR
  6
CONTINUOUS
 62
       1
100
AcDbLine
 10
169.93529946
 20
223.91
 30
0.0
 11
172.24470054
 21
223.91
 31
0.0
  0
LINE
  5
18F
100
AcDbEntity
  8
D-STR
  6
CONTINUOUS
 62
       1
100
AcDbLine
 10
168.78059892
 20
221.91
 30
0.0
 11
169.93529946
 21
223.91
 31
0.0
  0
LINE
  5
190
100
AcDbEntity
  8
D-STR
  6
CONTINUOUS
 62
       1
100
AcDbLine
 10
169.93529946
 20
219.91
 30
0.0
 11
168.78059892
 21
221.91
 31
0.0
  0
LINE
  5
191
100
AcDbEntity
  8
D-STR
  6
CONTINUOUS
 62
       1
100
AcDbLine
 10
172.24470054
 20
219.91
 30
0.0
 11
169.93529946
 21
219.91
 31
0.0
  0
LINE
  5
192
100
AcDbEntity
  8
D-STR
  6
CONTINUOUS
 62
       1
100
AcDbLine
 10
173.39940108
 20
221.91
 30
0.0
 11
172.24470054
 21
219.91
 31
0.0
  0
LINE
  5
193
100
AcDbEntity
  8
D-STR
  6
CONTINUOUS
 62
       1
100
AcDbLine
 10
172.24470054
 20
223.91
 30
0.0
 11
173.39940108
 21
221.91
 31
0.0
  0
ENDBLK
  5
194
100
AcDbEntity
  8
0
100
AcDbBlockEnd
  0
BLOCK
  5
195
100
AcDbEntity
  8
0
100
AcDbBlockBegin
  2
GROUP_15
 70
       0
 10
0.0
 20
0.0
 30
0.0
  3
GROUP_15
  1

  0
LINE
  5
196
100
AcDbEntity
  8
D-BMK
  6
CENTER
 62
       2
100
AcDbLine
 10
184.38
 20
227.76
 30
0.0
 11
199.62
 21
227.76
 31
0.0
  0
LINE
  5
197
100
AcDbEntity
  8
D-BMK
  6
CENTER
 62
       2
100
AcDbLine
 10
192.0
 20
220.14
 30
0.0
 11
192.0
 21
235.38
 31
0.0
  0
CIRCLE
  5
198
100
AcDbEntity
  8
D-STR
  6
CONTINUOUS
 62
       1
100
AcDbCircle
 10
192.0
 20
227.76
 30
0.0
 40
7.62
  0
LINE
  5
199
100
AcDbEntity
  8
D-STR
  6
CONTINUOUS
 62
       1
100
AcDbLine
 10
190.55662433
 20
230.26
 30
0.0
 11
193.44337567
 21
230.26
 31
0.0
  0
LINE
  5
19A
100
AcDbEntity
  8
D-STR
  6
CONTINUOUS
 62
       1
100
AcDbLine
 10
189.11324865
 20
227.76
 30
0.0
 11
190.55662433
 21
230.26
 31
0.0
  0
LINE
  5
19B
100
AcDbEntity
  8
D-STR
  6
CONTINUOUS
 62
       1
100
AcDbLine
 10
190.55662433
 20
225.26
 30
0.0
 11
189.11324865
 21
227.76
 31
0.0
  0
LINE
  5
19C
100
AcDbEntity
  8
D-STR
  6
CONTINUOUS
 62
       1
100
AcDbLine
 10
193.44337567
 20
225.26
 30
0.0
 11
190.55662433
 21
225.26
 31
0.0
  0
LINE
  5
19D
100
AcDbEntity
  8
D-STR
  6
CONTINUOUS
 62
       1
100
AcDbLine
 10
194.88675135
 20
227.76
 30
0.0
 11
193.44337567
 21
225.26
 31
0.0
  0
LINE
  5
19E
100
AcDbEntity
  8
D-STR
  6
CONTINUOUS
 62
       1
100
AcDbLine
 10
193.44337567
 20
230.26
 30
0.0
 11
194.88675135
 21
227.76
 31
0.0
  0
ENDBLK
  5
19F
100
AcDbEntity
  8
0
100
AcDbBlockEnd
  0
BLOCK
  5
1A0
100
AcDbEntity
  8
0
100
AcDbBlockBegin
  2
GROUP_16
 70
       0
 10
0.0
 20
0.0
 30
0.0
  3
GROUP_16
  1

  0
LINE
  5
1A1
100
AcDbEntity
  8
D-BMK
  6
CENTER
 62
       2
100
AcDbLine
 10
209.23
 20
233.73
 30
0.0
 11
228.45
 21
233.73
 31
0.0
  0
LINE
  5
1A2
100
AcDbEntity
  8
D-BMK
  6
CENTER
 62
       2
100
AcDbLine
 10
218.84
 20
224.12
 30
0.0
 11
218.84
 21
243.34
 31
0.0
  0
CIRCLE
  5
1A3
100
AcDbEntity
  8
D-STR
  6
CONTINUOUS
 62
       1
100
AcDbCircle
 10
218.84
 20
233.73
 30
0.0
 40
9.61
  0
LINE
  5
1A4
100
AcDbEntity
  8
D-STR
  6
CONTINUOUS
 62
       1
100
AcDbLine
 10
217.10794919
 20
236.73
 30
0.0
 11
220.57205081
 21
236.73
 31
0.0
  0
LINE
  5
1A5
100
AcDbEntity
  8
D-STR
  6
CONTINUOUS
 62
       1
100
AcDbLine
 10
215.37589838
 20
233.73
 30
0.0
 11
217.10794919
 21
236.73
 31
0.0
  0
LINE
  5
1A6
100
AcDbEntity
  8
D-STR
  6
CONTINUOUS
 62
       1
100
AcDbLine
 10
217.10794919
 20
230.73
 30
0.0
 11
215.37589838
 21
233.73
 31
0.0
  0
LINE
  5
1A7
100
AcDbEntity
  8
D-STR
  6
CONTINUOUS
 62
       1
100
AcDbLine
 10
220.57205081
 20
230.73
 30
0.0
 11
217.10794919
 21
230.73
 31
0.0
  0
LINE
  5
1A8
100
AcDbEntity
  8
D-STR
  6
CONTINUOUS
 62
       1
100
AcDbLine
 10
222.30410162
 20
233.73
 30
0.0
 11
220.57205081
 21
230.73
 31
0.0
  0
LINE
  5
1A9
100
AcDbEntity
  8
D-STR
  6
CONTINUOUS
 62
       1
100
AcDbLine
 10
220.57205081
 20
236.73
 30
0.0
 11
222.30410162
 21
233.73
 31
0.0
  0
ENDBLK
  5
1AA
100
AcDbEntity
  8
0
100
AcDbBlockEnd
  0
BLOCK
  5
1AB
100
AcDbEntity
  8
0
100
AcDbBlockBegin
  2
GROUP_17
 70
       0
 10
0.0
 20
0.0
 30
0.0
  3
GROUP_17
  1

  0
LINE
  5
1AC
100
AcDbEntity
  8
D-BMK
  6
CENTER
 62
       2
100
AcDbLine
 10
240.01
 20
239.58
 30
0.0
 11
263.13
 21
239.58
 31
0.0
  0
LINE
  5
1AD
100
AcDbEntity
  8
D-BMK
  6
CENTER
 62
       2
100
AcDbLine
 10
251.57
 20
228.02
 30
0.0
 11
251.57
 21
251.14
 31
0.0
  0
CIRCLE
  5
1AE
100
AcDbEntity
  8
D-STR
  6
CONTINUOUS
 62
       1
100
AcDbCircle
 10
251.57
 20
239.58
 30
0.0
 40
11.56
  0
LINE
  5
1AF
100
AcDbEntity
  8
D-STR
  6
CONTINUOUS
 62
       1
100
AcDbLine
 10
249.26059892
 20
243.58
 30
0.0
 11
253.87940108
 21
243.58
 31
0.0
  0
LINE
  5
1B0
100
AcDbEntity
  8
D-STR
  6
CONTINUOUS
 62
       1
100
AcDbLine
 10
246.95119785
 20
239.58
 30
0.0
 11
249.26059892
 21
243.58
 31
0.0
  0
LINE
  5
1B1
100
AcDbEntity
  8
D-STR
  6
CONTINUOUS
 62
       1
100
AcDbLine
 10
249.26059892
 20
235.58
 30
0.0
 11
246.95119785
 21
239.58
 31
0.0
  0
LINE
  5
1B2
100
AcDbEntity
  8
D-STR
  6
CONTINUOUS
 62
       1
100
AcDbLine
 10
253.87940108
 20
235.58
 30
0.0
 11
249.26059892
 21
235.58
 31
0.0
  0
LINE
  5
1B3
100
AcDbEntity
  8
D-STR
  6
CONTINUOUS
 62
       1
100
AcDbLine
 10
256.18880215
 20
239.58
 30
0.0
 11
253.87940108
 21
235.58
 31
0.0
  0
LINE
  5
1B4
100
AcDbEntity
  8
D-STR
  6
CONTINUOUS
 62
       1
100
AcDbLine
 10
253.87940108
 20
243.58
 30
0.0
 11
256.18880215
 21
239.58
 31
0.0
  0
ENDBLK
  5
1B5
100
AcDbEntity
  8
0
100
AcDbBlockEnd
  0
BLOCK
  5
1B6
100
AcDbEntity
  8
0
100
AcDbBlockBegin
  2
GROUP_18
 70
       0
 10
0.0
 20
0.0
 30
0.0
  3
GROUP_18
  1

  0
LINE
  5
1B7
100
AcDbEntity
  8
D-BMK
  6
CENTER
 62
       2
100
AcDbLine
 10
276.39
 20
244.68
 30
0.0
 11
302.91
 21
244.68
 31
0.0
  0
LINE
  5
1B8
100
AcDbEntity
  8
D-BMK
  6
CENTER
 62
       2
100
AcDbLine
 10
289.65
 20
231.42
 30
0.0
 11
289.65
 21
257.94
 31
0.0
  0
CIRCLE
  5
1B9
100
AcDbEntity
  8
D-STR
  6
CONTINUOUS
 62
       1
100
AcDbCircle
 10
289.65
 20
244.68
 30
0.0
 40
13.26
  0
LINE
  5
1BA
100
AcDbEntity
  8
D-STR
  6
CONTINUOUS
 62
       1
100
AcDbLine
 10
286.76324865
 20
249.68
 30
0.0
 11
292.53675135
 21
249.68
 31
0.0
  0
LINE
  5
1BB
100
AcDbEntity
  8
D-STR
  6
CONTINUOUS
 62
       1
100
AcDbLine
 10
283.87649731
 20
244.68
 30
0.0
 11
286.76324865
 21
249.68
 31
0.0
  0
LINE
  5
1BC
100
AcDbEntity
  8
D-STR
  6
CONTINUOUS
 62
       1
100
AcDbLine
 10
286.76324865
 20
239.68
 30
0.0
 11
283.87649731
 21
244.68
 31
0.0
  0
LINE
  5
1BD
100
AcDbEntity
  8
D-STR
  6
CONTINUOUS
 62
       1
100
AcDbLine
 10
292.53675135
 20
239.68
 30
0.0
 11
286.76324865
 21
239.68
 31
0.0
  0
LINE
  5
1BE
100
AcDbEntity
  8
D-STR
  6
CONTINUOUS
 62
       1
100
AcDbLine
 10
295.42350269
 20
244.68
 30
0.0
 11
292.53675135
 21
239.68
 31
0.0
  0
LINE
  5
1BF
100
AcDbEntity
  8
D-STR
  6
CONTINUOUS
 62
       1
100
AcDbLine
 10
292.53675135
 20
249.68
 30
0.0
 11
295.42350269
 21
244.68
 31
0.0
  0
ENDBLK
  5
1C0
100
AcDbEntity
  8
0
100
AcDbBlockEnd
  0
BLOCK
  5
1C1
100
AcDbEntity
  8
0
100
AcDbBlockBegin
  2
GROUP_19
 70
       0
 10
0.0
 20
0.0
 30
0.0
  3
GROUP_19
  1

  0
LINE
  5
1C2
100
AcDbEntity
  8
D-BMK
  6
CENTER
 62
       2
100
AcDbLine
 10
317.415
 20
248.415
 30
0.0
 11
346.425
 21
248.415
 31
0.0
  0
LINE
  5
1C3
100
AcDbEntity
  8
D-BMK
  6
CENTER
 62
       2
100
AcDbLine
 10
331.92
 20
233.91
 30
0.0
 11
331.92
 21
262.92
 31
0.0
  0
CIRCLE
  5
1C4
100
AcDbEntity
  8
D-STR
  6
CONTINUOUS
 62
       1
100
AcDbCircle
 10
331.92
 20
248.415
 30
0.0
 40
14.505
  0
LINE
  5
1C5
100
AcDbEntity
  8
D-STR
  6
CONTINUOUS
 62
       1
100
AcDbLine
 10
329.03324865
 20
253.415
 30
0.0
 11
334.80675135
 21
253.415
 31
0.0
  0
LINE
  5
1C6
100
AcDbEntity
  8
D-STR
  6
CONTINUOUS
 62
       1
100
AcDbLine
 10
326.14649731
 20
248.415
 30
0.0
 11
329.03324865
 21
253.415
 31
0.0
  0
LINE
  5
1C7
100
AcDbEntity
  8
D-STR
  6
CONTINUOUS
 62
       1
100
AcDbLine
 10
329.03324865
 20
243.415
 30
0.0
 11
326.14649731
 21
248.415
 31
0.0
  0
LINE
  5
1C8
100
AcDbEntity
  8
D-STR
  6
CONTINUOUS
 62
       1
100
AcDbLine
 10
334.80675135
 20
243.415
 30
0.0
 11
329.03324865
 21
243.415
 31
0.0
  0
LINE
  5
1C9
100
AcDbEntity
  8
D-STR
  6
CONTINUOUS
 62
       1
100
AcDbLine
 10
337.69350269
 20
248.415
 30
0.0
 11
334.80675135
 21
243.415
 31
0.0
  0
LINE
  5
1CA
100
AcDbEntity
  8
D-STR
  6
CONTINUOUS
 62
       1
100
AcDbLine
 10
334.80675135
 20
253.415
 30
0.0
 11
337.69350269
 21
248.415
 31
0.0
  0
ENDBLK
  5
1CB
100
AcDbEntity
  8
0
100
AcDbBlockEnd
  0
BLOCK
  5
1CC
100
AcDbEntity
  8
0
100
AcDbBlockBegin
  2
GROUP_20
 70
       0
 10
0.0
 20
0.0
 30
0.0
  3
GROUP_20
  1

  0
LINE
  5
1CD
100
AcDbEntity
  8
D-BMK
  6
CENTER
 62
       2
100
AcDbLine
 10
364.45
 20
258.975
 30
0.0
 11
400.5
 21
258.975
 31
0.0
  0
LINE
  5
1CE
100
AcDbEntity
  8
D-BMK
  6
CENTER
 62
       2
100
AcDbLine
 10
382.475
 20
240.95
 30
0.0
 11
382.475
 21
277.0
 31
0.0
  0
CIRCLE
  5
1CF
100
AcDbEntity
  8
D-STR
  6
CONTINUOUS
 62
       1
100
AcDbCircle
 10
382.475
 20
258.975
 30
0.0
 40
18.025
  0
LINE
  5
1D0
100
AcDbEntity
  8
D-STR
  6
CONTINUOUS
 62
       1
100
AcDbLine
 10
379.01089838
 20
264.975
 30
0.0
 11
385.93910162
 21
264.975
 31
0.0
  0
LINE
  5
1D1
100
AcDbEntity
  8
D-STR
  6
CONTINUOUS
 62
       1
100
AcDbLine
 10
375.54679677
 20
258.975
 30
0.0
 11
379.01089838
 21
264.975
 31
0.0
  0
LINE
  5
1D2
100
AcDbEntity
  8
D-STR
  6
CONTINUOUS
 62
       1
100
AcDbLine
 10
379.01089838
 20
252.975
 30
0.0
 11
375.54679677
 21
258.975
 31
0.0
  0
LINE
  5
1D3
100
AcDbEntity
  8
D-STR
  6
CONTINUOUS
 62
       1
100
AcDbLine
 10
385.93910162
 20
252.975
 30
0.0
 11
379.01089838
 21
252.975
 31
0.0
  0
LINE
  5
1D4
100
AcDbEntity
  8
D-STR
  6
CONTINUOUS
 62
       1
100
AcDbLine
 10
389.40320323
 20
258.975
 30
0.0
 11
385.93910162
 21
252.975
 31
0.0
  0
LINE
  5
1D5
100
AcDbEntity
  8
D-STR
  6
CONTINUOUS
 62
       1
100
AcDbLine
 10
385.93910162
 20
264.975
 30
0.0
 11
389.40320323
 21
258.975
 31
0.0
  0
ENDBLK
  5
1D6
100
AcDbEntity
  8
0
100
AcDbBlockEnd
  0
ENDSEC
  0
SECTION
  2
ENTITIES
  0
TEXT
  5
1D7
100
AcDbEntity
  8
D-STR-TXT
 62
       7
100
AcDbText
 10
-400.5
 20
273.5
 30
0.0
 40
3.5
  1
六角穴付き皿ボルト並目
 41
1.2
 72
       5
 11
-354.3
 21
273.5
 31
0.0
100
AcDbText
  0
TEXT
  5
1D8
100
AcDbEntity
  8
D-STR-TXT
 62
       7
100
AcDbText
 10
-400.5
 20
269.0
 30
0.0
 40
3.5
  1
M3,M4,M5,M6,M8,M10,M12,(M14,),M16,M20
 41
1.2
 72
       5
 11
-322.8
 21
269.0
 31
0.0
100
AcDbText
  0
INSERT
  5
1D9
100
AcDbEntity
  8
0
  6
CONTINUOUS
100
AcDbBlockReference
  2
GROUP_1
 10
0.0
 20
0.0
 30
0.0
  0
INSERT
  5
1DA
100
AcDbEntity
  8
0
  6
CONTINUOUS
100
AcDbBlockReference
  2
GROUP_2
 10
0.0
 20
0.0
 30
0.0
  0
INSERT
  5
1DB
100
AcDbEntity
  8
0
  6
CONTINUOUS
100
AcDbBlockReference
  2
GROUP_3
 10
0.0
 20
0.0
 30
0.0
  0
INSERT
  5
1DC
100
AcDbEntity
  8
0
  6
CONTINUOUS
100
AcDbBlockReference
  2
GROUP_4
 10
0.0
 20
0.0
 30
0.0
  0
INSERT
  5
1DD
100
AcDbEntity
  8
0
  6
CONTINUOUS
100
AcDbBlockReference
  2
GROUP_5
 10
0.0
 20
0.0
 30
0.0
  0
INSERT
  5
1DE
100
AcDbEntity
  8
0
  6
CONTINUOUS
100
AcDbBlockReference
  2
GROUP_6
 10
0.0
 20
0.0
 30
0.0
  0
INSERT
  5
1DF
100
AcDbEntity
  8
0
  6
CONTINUOUS
100
AcDbBlockReference
  2
GROUP_7
 10
0.0
 20
0.0
 30
0.0
  0
INSERT
  5
1E0
100
AcDbEntity
  8
0
  6
CONTINUOUS
100
AcDbBlockReference
  2
GROUP_8
 10
0.0
 20
0.0
 30
0.0
  0
INSERT
  5
1E1
100
AcDbEntity
  8
0
  6
CONTINUOUS
100
AcDbBlockReference
  2
GROUP_9
 10
0.0
 20
0.0
 30
0.0
  0
INSERT
  5
1E2
100
AcDbEntity
  8
0
  6
CONTINUOUS
100
AcDbBlockReference
  2
GROUP_10
 10
0.0
 20
0.0
 30
0.0
  0
INSERT
  5
1E3
100
AcDbEntity
  8
0
  6
CONTINUOUS
100
AcDbBlockReference
  2
GROUP_11
 10
0.0
 20
0.0
 30
0.0
  0
INSERT
  5
1E4
100
AcDbEntity
  8
0
  6
CONTINUOUS
100
AcDbBlockReference
  2
GROUP_12
 10
0.0
 20
0.0
 30
0.0
  0
INSERT
  5
1E5
100
AcDbEntity
  8
0
  6
CONTINUOUS
100
AcDbBlockReference
  2
GROUP_13
 10
0.0
 20
0.0
 30
0.0
  0
INSERT
  5
1E6
100
AcDbEntity
  8
0
  6
CONTINUOUS
100
AcDbBlockReference
  2
GROUP_14
 10
0.0
 20
0.0
 30
0.0
  0
INSERT
  5
1E7
100
AcDbEntity
  8
0
  6
CONTINUOUS
100
AcDbBlockReference
  2
GROUP_15
 10
0.0
 20
0.0
 30
0.0
  0
INSERT
  5
1E8
100
AcDbEntity
  8
0
  6
CONTINUOUS
100
AcDbBlockReference
  2
GROUP_16
 10
0.0
 20
0.0
 30
0.0
  0
INSERT
  5
1E9
100
AcDbEntity
  8
0
  6
CONTINUOUS
100
AcDbBlockReference
  2
GROUP_17
 10
0.0
 20
0.0
 30
0.0
  0
INSERT
  5
1EA
100
AcDbEntity
  8
0
  6
CONTINUOUS
100
AcDbBlockReference
  2
GROUP_18
 10
0.0
 20
0.0
 30
0.0
  0
INSERT
  5
1EB
100
AcDbEntity
  8
0
  6
CONTINUOUS
100
AcDbBlockReference
  2
GROUP_19
 10
0.0
 20
0.0
 30
0.0
  0
INSERT
  5
1EC
100
AcDbEntity
  8
0
  6
CONTINUOUS
100
AcDbBlockReference
  2
GROUP_20
 10
0.0
 20
0.0
 30
0.0
  0
ENDSEC
  0
SECTION
  2
OBJECTS
  0
DICTIONARY
  5
19
100
AcDbDictionary
  3
ACAD_GROUP
350
1A
  3
ACAD_MLINESTYLE
350
1B
  0
DICTIONARY
  5
1A
102
{ACAD_REACTORS
330
19
102
}
100
AcDbDictionary
  0
DICTIONARY
  5
1B
102
{ACAD_REACTORS
330
19
102
}
100
AcDbDictionary
  3
STANDARD
350
1C
  0
MLINESTYLE
  5
1C
102
{ACAD_REACTORS
330
1B
102
}
100
AcDbMlineStyle
  2
STANDARD
 70
       0
  3

 62
       0
 51
90.0
 52
90.0
 71
       2
 49
0.5
 62
     256
  6
BYLAYER
 49
-0.5
 62
     256
  6
BYLAYER
  0
ENDSEC
  0
EOF
