  0
SECTION
  2
HEADER
  9
$ACADVER
  1
AC1014
  9
$ACADMAINTVER
 70
       0
  9
$DWGCODEPAGE
  3
ANSI_932
  9
$INSBASE
 10
0.0
 20
0.0
 30
0.0
  9
$EXTMIN
 10
-416.52
 20
-288.08
 30
0.0
  9
$EXTMAX
 10
416.52
 20
288.08
 30
0.0
  9
$LIMMIN
 10
-442.5525
 20
-306.085
  9
$LIMMAX
 10
442.5525
 20
306.085
  9
$ORTHOMODE
 70
       0
  9
$REGENMODE
 70
       1
  9
$FILLMODE
 70
       1
  9
$QTEXTMODE
 70
       0
  9
$MIRRTEXT
 70
       1
  9
$DRAGMODE
 70
       2
  9
$LTSCALE
 40
1.0
  9
$OSMODE
 70
       0
  9
$ATTMODE
 70
       1
  9
$TEXTSIZE
 40
0.2
  9
$TRACEWID
 40
0.05
  9
$TEXTSTYLE
  7
STANDARD
  9
$CLAYER
  8
0
  9
$CELTYPE
  6
CONTINUOUS
  9
$CECOLOR
 62
     256
  9
$CELTSCALE
 40
1.0
  9
$DELOBJ
 70
       1
  9
$DISPSILH
 70
       0
  9
$DIMSCALE
 40
1.0
  9
$DIMASZ
 40
0.18
  9
$DIMEXO
 40
0.0625
  9
$DIMDLI
 40
0.38
  9
$DIMRND
 40
0.0
  9
$DIMDLE
 40
0.0
  9
$DIMEXE
 40
0.18
  9
$DIMTP
 40
0.0
  9
$DIMTM
 40
0.0
  9
$DIMTXT
 40
0.18
  9
$DIMCEN
 40
0.09
  9
$DIMTSZ
 40
0.0
  9
$DIMTOL
 70
       0
  9
$DIMLIM
 70
       0
  9
$DIMTIH
 70
       1
  9
$DIMTOH
 70
       1
  9
$DIMSE1
 70
       0
  9
$DIMSE2
 70
       0
  9
$DIMTAD
 70
       0
  9
$DIMZIN
 70
       0
  9
$DIMBLK
  1

  9
$DIMASO
 70
       1
  9
$DIMSHO
 70
       1
  9
$DIMPOST
  1

  9
$DIMAPOST
  1

  9
$DIMALT
 70
       0
  9
$DIMALTD
 70
       2
  9
$DIMALTF
 40
25.4
  9
$DIMLFAC
 40
1.0
  9
$DIMTOFL
 70
       0
  9
$DIMTVP
 40
0.0
  9
$DIMTIX
 70
       0
  9
$DIMSOXD
 70
       0
  9
$DIMSAH
 70
       0
  9
$DIMBLK1
  1

  9
$DIMBLK2
  1

  9
$DIMSTYLE
  2
STANDARD
  9
$DIMCLRD
 70
       0
  9
$DIMCLRE
 70
       0
  9
$DIMCLRT
 70
       0
  9
$DIMTFAC
 40
1.0
  9
$DIMGAP
 40
0.09
  9
$DIMJUST
 70
       0
  9
$DIMSD1
 70
       0
  9
$DIMSD2
 70
       0
  9
$DIMTOLJ
 70
       1
  9
$DIMTZIN
 70
       0
  9
$DIMALTZ
 70
       0
  9
$DIMALTTZ
 70
       0
  9
$DIMFIT
 70
       3
  9
$DIMUPT
 70
       0
  9
$DIMUNIT
 70
       2
  9
$DIMDEC
 70
       4
  9
$DIMTDEC
 70
       4
  9
$DIMALTU
 70
       2
  9
$DIMALTTD
 70
       2
  9
$DIMTXSTY
  7
STANDARD
  9
$DIMAUNIT
 70
       0
  9
$LUNITS
 70
       2
  9
$LUPREC
 70
       4
  9
$SKETCHINC
 40
0.1
  9
$FILLETRAD
 40
0.0
  9
$AUNITS
 70
       0
  9
$AUPREC
 70
       0
  9
$MENU
  1
acad
  9
$ELEVATION
 40
0.0
  9
$PELEVATION
 40
0.0
  9
$THICKNESS
 40
0.0
  9
$LIMCHECK
 70
       0
  9
$BLIPMODE
 70
       1
  9
$CHAMFERA
 40
0.0
  9
$CHAMFERB
 40
0.0
  9
$CHAMFERC
 40
0.0
  9
$CHAMFERD
 40
0.0
  9
$SKPOLY
 70
       0
  9
$TDCREATE
 40
0.000000000
  9
$TDUPDATE
 40
0.000000000
  9
$TDINDWG
 40
0.0000000000
  9
$TDUSRTIMER
 40
0.0000000000
  9
$USRTIMER
 70
       1
  9
$ANGBASE
 50
0.0
  9
$ANGDIR
 70
       0
  9
$PDMODE
 70
       0
  9
$PDSIZE
 40
1.0
  9
$PLINEWID
 40
0.0
  9
$COORDS
 70
       1
  9
$SPLFRAME
 70
       0
  9
$SPLINETYPE
 70
       6
  9
$SPLINESEGS
 70
       8
  9
$ATTDIA
 70
       0
  9
$ATTREQ
 70
       1
  9
$HANDLING
 70
       1
  9
$HANDSEED
  5
181
  9
$SURFTAB1
 70
       6
  9
$SURFTAB2
 70
       6
  9
$SURFTYPE
 70
       6
  9
$SURFU
 70
       6
  9
$SURFV
 70
       6
  9
$UCSNAME
  2

  9
$UCSORG
 10
0.0
 20
0.0
 30
0.0
  9
$UCSXDIR
 10
1.0
 20
0.0
 30
0.0
  9
$UCSYDIR
 10
0.0
 20
1.0
 30
0.0
  9
$PUCSNAME
  2

  9
$PUCSORG
 10
0.0
 20
0.0
 30
0.0
  9
$PUCSXDIR
 10
1.0
 20
0.0
 30
0.0
  9
$PUCSYDIR
 10
0.0
 20
1.0
 30
0.0
  9
$USERI1
 70
       0
  9
$USERI2
 70
       0
  9
$USERI3
 70
       0
  9
$USERI4
 70
       0
  9
$USERI5
 70
       0
  9
$USERR1
 40
0.0
  9
$USERR2
 40
0.0
  9
$USERR3
 40
0.0
  9
$USERR4
 40
0.0
  9
$USERR5
 40
0.0
  9
$WORLDVIEW
 70
       1
  9
$SHADEDGE
 70
       3
  9
$SHADEDIF
 70
      70
  9
$TILEMODE
 70
       1
  9
$MAXACTVP
 70
      16
  9
$PINSBASE
 10
0.0
 20
0.0
 30
0.0
  9
$PLIMCHECK
 70
       0
  9
$PEXTMIN
 10
1.00000000E+20
 20
1.00000000E+20
 30
1.00000000E+20
  9
$PEXTMAX
 10
-1.00000000E+20
 20
-1.00000000E+20
 30
-1.00000000E+20
  9
$PLIMMIN
 10
0.0
 20
0.0
  9
$PLIMMAX
 10
12.0
 20
9.0
  9
$UNITMODE
 70
       0
  9
$VISRETAIN
 70
       0
  9
$PLINEGEN
 70
       1
  9
$PSLTSCALE
 70
       0
  9
$TREEDEPTH
 70
    3020
  9
$PICKSTYLE
 70
       1
  9
$CMLSTYLE
  2
STANDARD
  9
$CMLJUST
 70
       0
  9
$CMLSCALE
 40
1.0
  9
$PROXYGRAPHICS
 70
       0
  9
$MEASUREMENT
 70
       0
  0
ENDSEC
  0
SECTION
  2
CLASSES
  0
CLASS
  1
LWPOLYLINE
  2
AcDbPolyline
  3
"AutoCAD"
 90
        0
280
       0
281
       1
  0
CLASS
  1
IMAGE
  2
AcDbRasterImage
  3
ISM
 90
      127
280
       0
281
       1
  0
CLASS
  1
OLE2FRAME
  2
AcDbOle2Frame
  3
""
 90
        0
280
       0
281
       1
  0
CLASS
  1
HATCH
  2
AcDbHatch
  3
"ACAD_SEDONA"
 90
        0
280
       0
281
       1
  0
CLASS
  1
DICTIONARYVAR
  2
AcDbDictionaryVar
  3
"AutoCAD"
 90
        0
280
       0
281
       0
  0
CLASS
  1
RASTERVARIABLES
  2
AcDbRasterVariables
  3
ISM
 90
        0
280
       0
281
       0
  0
CLASS
  1
IMAGEDEF
  2
AcDbRasterImageDef
  3
ISM
 90
        0
280
       0
281
       0
  0
CLASS
  1
IMAGEDEF_REACTOR
  2
AcDbRasterImageDefReactor
  3
ISM
 90
        1
280
       0
281
       0
  0
CLASS
  1
IDBUFFER
  2
AcDbIdBuffer
  3
"Acad"
 90
        0
280
       0
281
       0
  0
CLASS
  1
SPATIAL_FILTER
  2
AcDbSpatialFilter
  3
"Acad"
 90
        0
280
       0
281
       0
  0
CLASS
  1
XRECORD
  2
AcDbXrecord
  3
"<Built In>"
 90
        0
280
       0
281
       0
  0
CLASS
  1
SORTENTSTABLE
  2
AcDbSortentsTable
  3
"AutoCAD"
 90
        0
280
       0
281
       0
  0
CLASS
  1
LAYER_INDEX
  2
AcDbLayerIndex
  3
"Acad"
 90
        0
280
       0
281
       0
  0
CLASS
  1
SPATIAL_INDEX
  2
AcDbSpatialIndex
  3
"Acad"
 90
        0
280
       0
281
       0
  0
CLASS
  1
OBJECT_PTR
  2
CAseDLPNTableRecord
  3
"ASE-LPNTableRecord"
 90
        1
280
       0
281
       0
  0
CLASS
  1
LAYOUT
  2
AcDbLayout
  3
"AutoCAD 2000"
 90
        1
280
       0
281
       0
  0
CLASS
  1
PLOTSETTINGS
  2
AcDbPlotSettings
  3
"AutoCAD 2000"
 90
        1
280
       0
281
       0
  0
CLASS
  1
ACDBDICTIONARYWDFLT
  2
AcDbDictionaryWithDefault
  3
"AutoCAD 2000"
 90
        1
280
       0
281
       0
  0
CLASS
  1
ACDBPLACEHOLDER
  2
AcDbPlaceHolder
  3
"AutoCAD 2000"
 90
        1
280
       0
281
       0
  0
CLASS
  1
VBA_PROJECT
  2
AcDbVbaProject
  3
"acadvba"
 90
        1
280
       0
281
       0
  0
CLASS
  1
WIPEOUT
  2
AcDbWipeout
  3
WipeOut|AutoCAD Express Tool|expresstools@autodesk.com
 90
      127
280
       0
281
       1
  0
CLASS
  1
WIPEOUTVARIABLES
  2
AcDbWipeoutVariables
  3
WipeOut|AutoCAD Express Tool|expresstools@autodesk.com
 90
        0
280
       0
281
       0
  0
CLASS
  1
RTEXT
  2
RText
  3
RText|AutoCAD Express Tool|expresstools@autodesk.com
 90
        0
280
       0
281
       1
  0
CLASS
  1
ARCALIGNEDTEXT
  2
AcDbArcAlignedText
  3
ATEXT|AutoCAD Express Tool|expresstools@autodesk.com
 90
        0
280
       0
281
       1
  0
ENDSEC
  0
SECTION
  2
TABLES
  0
TABLE
  2
VPORT
  5
7
100
AcDbSymbolTable
 70
       1
  0
VPORT
  5
15
100
AcDbSymbolTableRecord
100
AcDbViewportTableRecord
  2
*ACTIVE
 70
       0
 10
0.0
 20
0.0
 11
1.0
 21
1.0
 12
0.0
 22
0.0
 13
0.0
 23
0.0
 14
1.0
 24
1.0
 15
0.0
 25
0.0
 16
0.0
 26
0.0
 36
1.0
 17
0.0
 27
0.0
 37
0.0
 40
612.17
 41
1.44584838
 42
50.0
 43
0.0
 44
0.0
 50
0.0
 51
0.0
 71
       0
 72
     100
 73
       1
 74
       1
 75
       0
 76
       0
 77
       0
 78
       0
  0
ENDTAB
  0
TABLE
  2
LTYPE
  5
4
100
AcDbSymbolTable
 70
      30
  0
LTYPE
  5
11
100
AcDbSymbolTableRecord
100
AcDbLinetypeTableRecord
  2
BYBLOCK
 70
      64
  3

 72
      65
 73
       0
 40
0.0
  0
LTYPE
  5
12
100
AcDbSymbolTableRecord
100
AcDbLinetypeTableRecord
  2
BYLAYER
 70
      64
  3

 72
      65
 73
       0
 40
0.0
  0
LTYPE
  5
13
100
AcDbSymbolTableRecord
100
AcDbLinetypeTableRecord
  2
CONTINUOUS
 70
      64
  3
Solid line
 72
      65
 73
       0
 40
0.0
  0
LTYPE
  5
1D
100
AcDbSymbolTableRecord
100
AcDbLinetypeTableRecord
  2
HIDDENX2
 70
      64
  3
CADPAC LINETYPE
 72
      65
 73
       2
 40
33.64
 49
25.23
 74
       0
 49
-8.41
 74
       0
  0
LTYPE
  5
1E
100
AcDbSymbolTableRecord
100
AcDbLinetypeTableRecord
  2
HIDDEN
 70
      64
  3
CADPAC LINETYPE
 72
      65
 73
       2
 40
25.23
 49
16.82
 74
       0
 49
-8.41
 74
       0
  0
LTYPE
  5
1F
100
AcDbSymbolTableRecord
100
AcDbLinetypeTableRecord
  2
HIDDEN2
 70
      64
  3
CADPAC LINETYPE
 72
      65
 73
       2
 40
21.025
 49
12.615
 74
       0
 49
-8.41
 74
       0
  0
LTYPE
  5
20
100
AcDbSymbolTableRecord
100
AcDbLinetypeTableRecord
  2
DASHED
 70
      64
  3
CADPAC LINETYPE
 72
      65
 73
       2
 40
25.23
 49
16.82
 74
       0
 49
-8.41
 74
       0
  0
LTYPE
  5
21
100
AcDbSymbolTableRecord
100
AcDbLinetypeTableRecord
  2
DASHED2
 70
      64
  3
CADPAC LINETYPE
 72
      65
 73
       2
 40
18.9225
 49
12.615
 74
       0
 49
-6.3075
 74
       0
  0
LTYPE
  5
22
100
AcDbSymbolTableRecord
100
AcDbLinetypeTableRecord
  2
DASHEDX2
 70
      64
  3
CADPAC LINETYPE
 72
      65
 73
       2
 40
37.845
 49
25.23
 74
       0
 49
-12.615
 74
       0
  0
LTYPE
  5
23
100
AcDbSymbolTableRecord
100
AcDbLinetypeTableRecord
  2
DOTX2
 70
      64
  3
CADPAC LINETYPE
 72
      65
 73
       2
 40
10.5125
 49
0.0
 74
       0
 49
-10.5125
 74
       0
  0
LTYPE
  5
24
100
AcDbSymbolTableRecord
100
AcDbLinetypeTableRecord
  2
DOT
 70
      64
  3
CADPAC LINETYPE
 72
      65
 73
       2
 40
8.41
 49
0.0
 74
       0
 49
-8.41
 74
       0
  0
LTYPE
  5
25
100
AcDbSymbolTableRecord
100
AcDbLinetypeTableRecord
  2
DOT2
 70
      64
  3
CADPAC LINETYPE
 72
      65
 73
       2
 40
6.3075
 49
0.0
 74
       0
 49
-6.3075
 74
       0
  0
LTYPE
  5
26
100
AcDbSymbolTableRecord
100
AcDbLinetypeTableRecord
  2
CENTERX2
 70
      64
  3
CADPAC LINETYPE
 72
      65
 73
       4
 40
50.46
 49
21.025
 74
       0
 49
-10.5125
 74
       0
 49
8.41
 74
       0
 49
-10.5125
 74
       0
  0
LTYPE
  5
27
100
AcDbSymbolTableRecord
100
AcDbLinetypeTableRecord
  2
CENTER
 70
      64
  3
CADPAC LINETYPE
 72
      65
 73
       4
 40
38.686
 49
16.82
 74
       0
 49
-8.41
 74
       0
 49
5.046
 74
       0
 49
-8.41
 74
       0
  0
LTYPE
  5
28
100
AcDbSymbolTableRecord
100
AcDbLinetypeTableRecord
  2
CENTER2
 70
      64
  3
CADPAC LINETYPE
 72
      65
 73
       4
 40
26.912
 49
12.615
 74
       0
 49
-6.3075
 74
       0
 49
1.682
 74
       0
 49
-6.3075
 74
       0
  0
LTYPE
  5
29
100
AcDbSymbolTableRecord
100
AcDbLinetypeTableRecord
  2
DASHDOTX2
 70
      64
  3
CADPAC LINETYPE
 72
      65
 73
       4
 40
42.05
 49
21.025
 74
       0
 49
-10.5125
 74
       0
 49
0.0
 74
       0
 49
-10.5125
 74
       0
  0
LTYPE
  5
2A
100
AcDbSymbolTableRecord
100
AcDbLinetypeTableRecord
  2
DASHDOT
 70
      64
  3
CADPAC LINETYPE
 72
      65
 73
       4
 40
33.64
 49
16.82
 74
       0
 49
-8.41
 74
       0
 49
0.0
 74
       0
 49
-8.41
 74
       0
  0
LTYPE
  5
2B
100
AcDbSymbolTableRecord
100
AcDbLinetypeTableRecord
  2
DASHDOT2
 70
      64
  3
CADPAC LINETYPE
 72
      65
 73
       4
 40
25.23
 49
12.615
 74
       0
 49
-6.3075
 74
       0
 49
0.0
 74
       0
 49
-6.3075
 74
       0
  0
LTYPE
  5
2C
100
AcDbSymbolTableRecord
100
AcDbLinetypeTableRecord
  2
DIVIDEX2
 70
      64
  3
CADPAC LINETYPE
 72
      65
 73
       6
 40
52.5625
 49
21.025
 74
       0
 49
-10.5125
 74
       0
 49
0.0
 74
       0
 49
-10.5125
 74
       0
 49
0.0
 74
       0
 49
-10.5125
 74
       0
  0
LTYPE
  5
2D
100
AcDbSymbolTableRecord
100
AcDbLinetypeTableRecord
  2
DIVIDE
 70
      64
  3
CADPAC LINETYPE
 72
      65
 73
       6
 40
42.05
 49
16.82
 74
       0
 49
-8.41
 74
       0
 49
0.0
 74
       0
 49
-8.41
 74
       0
 49
0.0
 74
       0
 49
-8.41
 74
       0
  0
LTYPE
  5
2E
100
AcDbSymbolTableRecord
100
AcDbLinetypeTableRecord
  2
DIVIDE2
 70
      64
  3
CADPAC LINETYPE
 72
      65
 73
       6
 40
31.5375
 49
12.615
 74
       0
 49
-6.3075
 74
       0
 49
0.0
 74
       0
 49
-6.3075
 74
       0
 49
0.0
 74
       0
 49
-6.3075
 74
       0
  0
LTYPE
  5
2F
100
AcDbSymbolTableRecord
100
AcDbLinetypeTableRecord
  2
BORDERX2
 70
      64
  3
CADPAC LINETYPE
 72
      65
 73
       6
 40
73.5875
 49
21.025
 74
       0
 49
-10.5125
 74
       0
 49
21.025
 74
       0
 49
-10.5125
 74
       0
 49
0.0
 74
       0
 49
-10.5125
 74
       0
  0
LTYPE
  5
30
100
AcDbSymbolTableRecord
100
AcDbLinetypeTableRecord
  2
BORDER
 70
      64
  3
CADPAC LINETYPE
 72
      65
 73
       6
 40
58.87
 49
16.82
 74
       0
 49
-8.41
 74
       0
 49
16.82
 74
       0
 49
-8.41
 74
       0
 49
0.0
 74
       0
 49
-8.41
 74
       0
  0
LTYPE
  5
31
100
AcDbSymbolTableRecord
100
AcDbLinetypeTableRecord
  2
BORDER2
 70
      64
  3
CADPAC LINETYPE
 72
      65
 73
       6
 40
44.1525
 49
12.615
 74
       0
 49
-6.3075
 74
       0
 49
12.615
 74
       0
 49
-6.3075
 74
       0
 49
0.0
 74
       0
 49
-6.3075
 74
       0
  0
LTYPE
  5
32
100
AcDbSymbolTableRecord
100
AcDbLinetypeTableRecord
  2
PHANTOMX2
 70
      64
  3
CADPAC LINETYPE
 72
      65
 73
       6
 40
63.075
 49
21.025
 74
       0
 49
-8.41
 74
       0
 49
8.41
 74
       0
 49
-8.41
 74
       0
 49
8.41
 74
       0
 49
-8.41
 74
       0
  0
LTYPE
  5
33
100
AcDbSymbolTableRecord
100
AcDbLinetypeTableRecord
  2
PHANTOM
 70
      64
  3
CADPAC LINETYPE
 72
      65
 73
       6
 40
52.142
 49
16.82
 74
       0
 49
-8.41
 74
       0
 49
5.046
 74
       0
 49
-8.41
 74
       0
 49
5.046
 74
       0
 49
-8.41
 74
       0
  0
LTYPE
  5
34
100
AcDbSymbolTableRecord
100
AcDbLinetypeTableRecord
  2
PHANTOM2
 70
      64
  3
CADPAC LINETYPE
 72
      65
 73
       6
 40
44.573
 49
12.615
 74
       0
 49
-8.41
 74
       0
 49
3.364
 74
       0
 49
-8.41
 74
       0
 49
3.364
 74
       0
 49
-8.41
 74
       0
  0
LTYPE
  5
35
100
AcDbSymbolTableRecord
100
AcDbLinetypeTableRecord
  2
ACAD_ISO06W100
 70
      64
  3
CADPAC LINETYPE
 72
      65
 73
       8
 40
56.7675
 49
21.025
 74
       0
 49
-10.5125
 74
       0
 49
0.0
 74
       0
 49
-8.41
 74
       0
 49
0.0
 74
       0
 49
-8.41
 74
       0
 49
0.0
 74
       0
 49
-8.41
 74
       0
  0
LTYPE
  5
36
100
AcDbSymbolTableRecord
100
AcDbLinetypeTableRecord
  2
ACAD_ISO13W100
 70
      64
  3
CADPAC LINETYPE
 72
      65
 73
       8
 40
67.28
 49
16.82
 74
       0
 49
-8.41
 74
       0
 49
16.82
 74
       0
 49
-8.41
 74
       0
 49
0.0
 74
       0
 49
-8.41
 74
       0
 49
0.0
 74
       0
 49
-8.41
 74
       0
  0
LTYPE
  5
37
100
AcDbSymbolTableRecord
100
AcDbLinetypeTableRecord
  2
ACAD_ISO14W100
 70
      64
  3
CADPAC LINETYPE
 72
      65
 73
       8
 40
50.46
 49
16.82
 74
       0
 49
-8.41
 74
       0
 49
0.0
 74
       0
 49
-8.41
 74
       0
 49
0.0
 74
       0
 49
-8.41
 74
       0
 49
0.0
 74
       0
 49
-8.41
 74
       0
  0
ENDTAB
  0
TABLE
  2
LAYER
  5
2
100
AcDbSymbolTable
 70
       4
  0
LAYER
  5
14
100
AcDbSymbolTableRecord
100
AcDbLayerTableRecord
  2
0
 70
       0
 62
       7
  6
CONTINUOUS
  0
LAYER
  5
38
100
AcDbSymbolTableRecord
100
AcDbLayerTableRecord
  2
D-BMK
 70
       0
 62
       7
  6
CONTINUOUS
  0
LAYER
  5
39
100
AcDbSymbolTableRecord
100
AcDbLayerTableRecord
  2
D-STR
 70
       0
 62
       7
  6
CONTINUOUS
  0
LAYER
  5
3A
100
AcDbSymbolTableRecord
100
AcDbLayerTableRecord
  2
D-STR-TXT
 70
       0
 62
       7
  6
CONTINUOUS
  0
ENDTAB
  0
TABLE
  2
STYLE
  5
3
100
AcDbSymbolTable
 70
       1
  0
STYLE
  5
17
100
AcDbSymbolTableRecord
100
AcDbTextStyleTableRecord
  2
STANDARD
 70
       0
 40
0.0
 41
1.2
 50
0.0
 71
       0
 42
3.5
  3
MS Gothic.ttf
  4

1001
ACAD
1000
MS Gothic
1071
    32786
  0
ENDTAB
  0
TABLE
  2
VIEW
  5
5
100
AcDbSymbolTable
 70
       1
  0
VIEW
  5
3B
100
AcDbSymbolTableRecord
100
AcDbViewTableRecord
  2
QQQQ
 70
       0
 40
612.17
 10
0.0
 20
0.0
 41
885.105
 11
0.0
 21
0.0
 31
1.0
 12
100.0
 22
100.0
 32
0.0
 42
50.0
 43
0.0
 44
0.0
 50
0.0
 71
       0
  0
ENDTAB
  0
TABLE
  2
UCS
  5
6
100
AcDbSymbolTable
 70
       0
  0
ENDTAB
  0
TABLE
  2
APPID
  5
8
100
AcDbSymbolTable
 70
       1
  0
APPID
  5
16
100
AcDbSymbolTableRecord
100
AcDbRegAppTableRecord
  2
ACAD
 70
       0
  0
ENDTAB
  0
TABLE
  2
DIMSTYLE
  5
9
100
AcDbSymbolTable
 70
       1
  0
DIMSTYLE
105
18
100
AcDbSymbolTableRecord
100
AcDbDimStyleTableRecord
  2
STANDARD
 70
       0
  3

  4

  5

  6

  7

 40
1.0
 41
0.18
 42
0.0625
 43
0.38
 44
0.18
 45
0.0
 46
0.0
 47
0.0
 48
0.0
 71
       0
 72
       0
 73
       1
 74
       1
 75
       0
 76
       0
 77
       0
 78
       0
140
0.18
141
0.09
142
0.0
143
25.4
144
1.0
145
0.0
146
1.0
147
0.09
170
       0
171
       2
172
       0
173
       0
174
       0
175
       0
176
       0
177
       0
178
       0
270
       2
271
       4
272
       4
273
       2
274
       2
275
       0
280
       0
281
       0
282
       0
283
       1
284
       0
285
       0
286
       0
287
       0
288
       0
340
17
  0
ENDTAB
  0
TABLE
  2
BLOCK_RECORD
  5
1
100
AcDbSymbolTable
 70
      38
  0
BLOCK_RECORD
  5
A
100
AcDbSymbolTableRecord
100
AcDbBlockTableRecord
  2
*MODEL_SPACE
  0
BLOCK_RECORD
  5
B
100
AcDbSymbolTableRecord
100
AcDbBlockTableRecord
  2
*PAPER_SPACE
  0
BLOCK_RECORD
  5
3C
100
AcDbSymbolTableRecord
100
AcDbBlockTableRecord
  2
GROUP_1
  0
BLOCK_RECORD
  5
3D
100
AcDbSymbolTableRecord
100
AcDbBlockTableRecord
  2
GROUP_2
  0
BLOCK_RECORD
  5
3E
100
AcDbSymbolTableRecord
100
AcDbBlockTableRecord
  2
GROUP_3
  0
BLOCK_RECORD
  5
3F
100
AcDbSymbolTableRecord
100
AcDbBlockTableRecord
  2
GROUP_4
  0
BLOCK_RECORD
  5
40
100
AcDbSymbolTableRecord
100
AcDbBlockTableRecord
  2
GROUP_5
  0
BLOCK_RECORD
  5
41
100
AcDbSymbolTableRecord
100
AcDbBlockTableRecord
  2
GROUP_6
  0
BLOCK_RECORD
  5
42
100
AcDbSymbolTableRecord
100
AcDbBlockTableRecord
  2
GROUP_7
  0
BLOCK_RECORD
  5
43
100
AcDbSymbolTableRecord
100
AcDbBlockTableRecord
  2
GROUP_8
  0
BLOCK_RECORD
  5
44
100
AcDbSymbolTableRecord
100
AcDbBlockTableRecord
  2
GROUP_9
  0
BLOCK_RECORD
  5
45
100
AcDbSymbolTableRecord
100
AcDbBlockTableRecord
  2
GROUP_10
  0
BLOCK_RECORD
  5
46
100
AcDbSymbolTableRecord
100
AcDbBlockTableRecord
  2
GROUP_11
  0
BLOCK_RECORD
  5
47
100
AcDbSymbolTableRecord
100
AcDbBlockTableRecord
  2
GROUP_12
  0
BLOCK_RECORD
  5
48
100
AcDbSymbolTableRecord
100
AcDbBlockTableRecord
  2
GROUP_13
  0
BLOCK_RECORD
  5
49
100
AcDbSymbolTableRecord
100
AcDbBlockTableRecord
  2
GROUP_14
  0
BLOCK_RECORD
  5
4A
100
AcDbSymbolTableRecord
100
AcDbBlockTableRecord
  2
GROUP_15
  0
BLOCK_RECORD
  5
4B
100
AcDbSymbolTableRecord
100
AcDbBlockTableRecord
  2
GROUP_16
  0
BLOCK_RECORD
  5
4C
100
AcDbSymbolTableRecord
100
AcDbBlockTableRecord
  2
GROUP_17
  0
BLOCK_RECORD
  5
4D
100
AcDbSymbolTableRecord
100
AcDbBlockTableRecord
  2
GROUP_18
  0
BLOCK_RECORD
  5
4E
100
AcDbSymbolTableRecord
100
AcDbBlockTableRecord
  2
GROUP_19
  0
BLOCK_RECORD
  5
4F
100
AcDbSymbolTableRecord
100
AcDbBlockTableRecord
  2
GROUP_20
  0
BLOCK_RECORD
  5
50
100
AcDbSymbolTableRecord
100
AcDbBlockTableRecord
  2
GROUP_21
  0
BLOCK_RECORD
  5
51
100
AcDbSymbolTableRecord
100
AcDbBlockTableRecord
  2
GROUP_22
  0
BLOCK_RECORD
  5
52
100
AcDbSymbolTableRecord
100
AcDbBlockTableRecord
  2
GROUP_23
  0
BLOCK_RECORD
  5
53
100
AcDbSymbolTableRecord
100
AcDbBlockTableRecord
  2
GROUP_24
  0
BLOCK_RECORD
  5
54
100
AcDbSymbolTableRecord
100
AcDbBlockTableRecord
  2
GROUP_25
  0
BLOCK_RECORD
  5
55
100
AcDbSymbolTableRecord
100
AcDbBlockTableRecord
  2
GROUP_26
  0
BLOCK_RECORD
  5
56
100
AcDbSymbolTableRecord
100
AcDbBlockTableRecord
  2
GROUP_27
  0
BLOCK_RECORD
  5
57
100
AcDbSymbolTableRecord
100
AcDbBlockTableRecord
  2
GROUP_28
  0
BLOCK_RECORD
  5
58
100
AcDbSymbolTableRecord
100
AcDbBlockTableRecord
  2
GROUP_29
  0
BLOCK_RECORD
  5
59
100
AcDbSymbolTableRecord
100
AcDbBlockTableRecord
  2
GROUP_30
  0
BLOCK_RECORD
  5
5A
100
AcDbSymbolTableRecord
100
AcDbBlockTableRecord
  2
GROUP_31
  0
BLOCK_RECORD
  5
5B
100
AcDbSymbolTableRecord
100
AcDbBlockTableRecord
  2
GROUP_32
  0
BLOCK_RECORD
  5
5C
100
AcDbSymbolTableRecord
100
AcDbBlockTableRecord
  2
GROUP_33
  0
BLOCK_RECORD
  5
5D
100
AcDbSymbolTableRecord
100
AcDbBlockTableRecord
  2
GROUP_34
  0
BLOCK_RECORD
  5
5E
100
AcDbSymbolTableRecord
100
AcDbBlockTableRecord
  2
GROUP_35
  0
BLOCK_RECORD
  5
5F
100
AcDbSymbolTableRecord
100
AcDbBlockTableRecord
  2
GROUP_36
  0
BLOCK_RECORD
  5
60
100
AcDbSymbolTableRecord
100
AcDbBlockTableRecord
  2
GROUP_37
  0
BLOCK_RECORD
  5
61
100
AcDbSymbolTableRecord
100
AcDbBlockTableRecord
  2
GROUP_38
  0
ENDTAB
  0
ENDSEC
  0
SECTION
  2
BLOCKS
  0
BLOCK
  5
D
100
AcDbEntity
  8
0
100
AcDbBlockBegin
  2
*MODEL_SPACE
 70
       0
 10
0.0
 20
0.0
 30
0.0
  3
*MODEL_SPACE
  1

  0
ENDBLK
  5
E
100
AcDbEntity
  8
0
100
AcDbBlockEnd
  0
BLOCK
  5
F
100
AcDbEntity
 67
       1
  8
0
100
AcDbBlockBegin
  2
*PAPER_SPACE
 70
       0
 10
0.0
 20
0.0
 30
0.0
  3
*PAPER_SPACE
  1

  0
ENDBLK
  5
10
100
AcDbEntity
 67
       1
  8
0
100
AcDbBlockEnd
  0
BLOCK
  5
62
100
AcDbEntity
  8
0
100
AcDbBlockBegin
  2
GROUP_1
 70
       0
 10
0.0
 20
0.0
 30
0.0
  3
GROUP_1
  1

  0
LINE
  5
63
100
AcDbEntity
  8
D-BMK
  6
CENTER
 62
       2
100
AcDbLine
 10
-398.5
 20
-277.0
 30
0.0
 11
-398.5
 21
-276.7
 31
0.0
  0
LINE
  5
64
100
AcDbEntity
  8
D-STR
  6
CONTINUOUS
 62
       1
100
AcDbLine
 10
-400.5
 20
-276.7
 30
0.0
 11
-396.5
 21
-276.7
 31
0.0
  0
LINE
  5
65
100
AcDbEntity
  8
D-STR
  6
CONTINUOUS
 62
       1
100
AcDbLine
 10
-396.5
 20
-277.0
 30
0.0
 11
-400.5
 21
-277.0
 31
0.0
  0
LINE
  5
66
100
AcDbEntity
  8
D-STR
  6
CONTINUOUS
 62
       1
100
AcDbLine
 10
-400.5
 20
-277.0
 30
0.0
 11
-400.5
 21
-276.7
 31
0.0
  0
LINE
  5
67
100
AcDbEntity
  8
D-STR
  6
CONTINUOUS
 62
       1
100
AcDbLine
 10
-396.5
 20
-276.7
 30
0.0
 11
-396.5
 21
-277.0
 31
0.0
  0
ENDBLK
  5
68
100
AcDbEntity
  8
0
100
AcDbBlockEnd
  0
BLOCK
  5
69
100
AcDbEntity
  8
0
100
AcDbBlockBegin
  2
GROUP_2
 70
       0
 10
0.0
 20
0.0
 30
0.0
  3
GROUP_2
  1

  0
LINE
  5
6A
100
AcDbEntity
  8
D-BMK
  6
CENTER
 62
       2
100
AcDbLine
 10
-392.03367699
 20
-277.0
 30
0.0
 11
-392.03367699
 21
-276.7
 31
0.0
  0
LINE
  5
6B
100
AcDbEntity
  8
D-STR
  6
CONTINUOUS
 62
       1
100
AcDbLine
 10
-394.53367699
 20
-276.7
 30
0.0
 11
-389.53367699
 21
-276.7
 31
0.0
  0
LINE
  5
6C
100
AcDbEntity
  8
D-STR
  6
CONTINUOUS
 62
       1
100
AcDbLine
 10
-389.53367699
 20
-277.0
 30
0.0
 11
-394.53367699
 21
-277.0
 31
0.0
  0
LINE
  5
6D
100
AcDbEntity
  8
D-STR
  6
CONTINUOUS
 62
       1
100
AcDbLine
 10
-394.53367699
 20
-277.0
 30
0.0
 11
-394.53367699
 21
-276.7
 31
0.0
  0
LINE
  5
6E
100
AcDbEntity
  8
D-STR
  6
CONTINUOUS
 62
       1
100
AcDbLine
 10
-389.53367699
 20
-276.7
 30
0.0
 11
-389.53367699
 21
-277.0
 31
0.0
  0
ENDBLK
  5
6F
100
AcDbEntity
  8
0
100
AcDbBlockEnd
  0
BLOCK
  5
70
100
AcDbEntity
  8
0
100
AcDbBlockBegin
  2
GROUP_3
 70
       0
 10
0.0
 20
0.0
 30
0.0
  3
GROUP_3
  1

  0
LINE
  5
71
100
AcDbEntity
  8
D-BMK
  6
CENTER
 62
       2
100
AcDbLine
 10
-383.95077322
 20
-277.0
 30
0.0
 11
-383.95077322
 21
-276.5
 31
0.0
  0
LINE
  5
72
100
AcDbEntity
  8
D-STR
  6
CONTINUOUS
 62
       1
100
AcDbLine
 10
-386.95077322
 20
-276.5
 30
0.0
 11
-380.95077322
 21
-276.5
 31
0.0
  0
LINE
  5
73
100
AcDbEntity
  8
D-STR
  6
CONTINUOUS
 62
       1
100
AcDbLine
 10
-380.95077322
 20
-277.0
 30
0.0
 11
-386.95077322
 21
-277.0
 31
0.0
  0
LINE
  5
74
100
AcDbEntity
  8
D-STR
  6
CONTINUOUS
 62
       1
100
AcDbLine
 10
-386.95077322
 20
-277.0
 30
0.0
 11
-386.95077322
 21
-276.5
 31
0.0
  0
LINE
  5
75
100
AcDbEntity
  8
D-STR
  6
CONTINUOUS
 62
       1
100
AcDbLine
 10
-380.95077322
 20
-276.5
 30
0.0
 11
-380.95077322
 21
-277.0
 31
0.0
  0
ENDBLK
  5
76
100
AcDbEntity
  8
0
100
AcDbBlockEnd
  0
BLOCK
  5
77
100
AcDbEntity
  8
0
100
AcDbBlockBegin
  2
GROUP_4
 70
       0
 10
0.0
 20
0.0
 30
0.0
  3
GROUP_4
  1

  0
LINE
  5
78
100
AcDbEntity
  8
D-BMK
  6
CENTER
 62
       2
100
AcDbLine
 10
-374.71316891
 20
-277.0
 30
0.0
 11
-374.71316891
 21
-276.5
 31
0.0
  0
LINE
  5
79
100
AcDbEntity
  8
D-STR
  6
CONTINUOUS
 62
       1
100
AcDbLine
 10
-378.21316891
 20
-276.5
 30
0.0
 11
-371.21316891
 21
-276.5
 31
0.0
  0
LINE
  5
7A
100
AcDbEntity
  8
D-STR
  6
CONTINUOUS
 62
       1
100
AcDbLine
 10
-371.21316891
 20
-277.0
 30
0.0
 11
-378.21316891
 21
-277.0
 31
0.0
  0
LINE
  5
7B
100
AcDbEntity
  8
D-STR
  6
CONTINUOUS
 62
       1
100
AcDbLine
 10
-378.21316891
 20
-277.0
 30
0.0
 11
-378.21316891
 21
-276.5
 31
0.0
  0
LINE
  5
7C
100
AcDbEntity
  8
D-STR
  6
CONTINUOUS
 62
       1
100
AcDbLine
 10
-371.21316891
 20
-276.5
 30
0.0
 11
-371.21316891
 21
-277.0
 31
0.0
  0
ENDBLK
  5
7D
100
AcDbEntity
  8
0
100
AcDbBlockEnd
  0
BLOCK
  5
7E
100
AcDbEntity
  8
0
100
AcDbBlockBegin
  2
GROUP_5
 70
       0
 10
0.0
 20
0.0
 30
0.0
  3
GROUP_5
  1

  0
LINE
  5
7F
100
AcDbEntity
  8
D-BMK
  6
CENTER
 62
       2
100
AcDbLine
 10
-363.45483866
 20
-277.0
 30
0.0
 11
-363.45483866
 21
-276.2
 31
0.0
  0
LINE
  5
80
100
AcDbEntity
  8
D-STR
  6
CONTINUOUS
 62
       1
100
AcDbLine
 10
-367.95483866
 20
-276.2
 30
0.0
 11
-358.95483866
 21
-276.2
 31
0.0
  0
LINE
  5
81
100
AcDbEntity
  8
D-STR
  6
CONTINUOUS
 62
       1
100
AcDbLine
 10
-358.95483866
 20
-277.0
 30
0.0
 11
-367.95483866
 21
-277.0
 31
0.0
  0
LINE
  5
82
100
AcDbEntity
  8
D-STR
  6
CONTINUOUS
 62
       1
100
AcDbLine
 10
-367.95483866
 20
-277.0
 30
0.0
 11
-367.95483866
 21
-276.2
 31
0.0
  0
LINE
  5
83
100
AcDbEntity
  8
D-STR
  6
CONTINUOUS
 62
       1
100
AcDbLine
 10
-358.95483866
 20
-276.2
 30
0.0
 11
-358.95483866
 21
-277.0
 31
0.0
  0
ENDBLK
  5
84
100
AcDbEntity
  8
0
100
AcDbBlockEnd
  0
BLOCK
  5
85
100
AcDbEntity
  8
0
100
AcDbBlockBegin
  2
GROUP_6
 70
       0
 10
0.0
 20
0.0
 30
0.0
  3
GROUP_6
  1

  0
LINE
  5
86
100
AcDbEntity
  8
D-BMK
  6
CENTER
 62
       2
100
AcDbLine
 10
-350.17578247
 20
-277.0
 30
0.0
 11
-350.17578247
 21
-276.0
 31
0.0
  0
LINE
  5
87
100
AcDbEntity
  8
D-STR
  6
CONTINUOUS
 62
       1
100
AcDbLine
 10
-355.17578247
 20
-276.0
 30
0.0
 11
-345.17578247
 21
-276.0
 31
0.0
  0
LINE
  5
88
100
AcDbEntity
  8
D-STR
  6
CONTINUOUS
 62
       1
100
AcDbLine
 10
-345.17578247
 20
-277.0
 30
0.0
 11
-355.17578247
 21
-277.0
 31
0.0
  0
LINE
  5
89
100
AcDbEntity
  8
D-STR
  6
CONTINUOUS
 62
       1
100
AcDbLine
 10
-355.17578247
 20
-277.0
 30
0.0
 11
-355.17578247
 21
-276.0
 31
0.0
  0
LINE
  5
8A
100
AcDbEntity
  8
D-STR
  6
CONTINUOUS
 62
       1
100
AcDbLine
 10
-345.17578247
 20
-276.0
 30
0.0
 11
-345.17578247
 21
-277.0
 31
0.0
  0
ENDBLK
  5
8B
100
AcDbEntity
  8
0
100
AcDbBlockEnd
  0
BLOCK
  5
8C
100
AcDbEntity
  8
0
100
AcDbBlockBegin
  2
GROUP_7
 70
       0
 10
0.0
 20
0.0
 30
0.0
  3
GROUP_7
  1

  0
LINE
  5
8D
100
AcDbEntity
  8
D-BMK
  6
CENTER
 62
       2
100
AcDbLine
 10
-334.00997493
 20
-277.0
 30
0.0
 11
-334.00997493
 21
-275.4
 31
0.0
  0
LINE
  5
8E
100
AcDbEntity
  8
D-STR
  6
CONTINUOUS
 62
       1
100
AcDbLine
 10
-340.00997493
 20
-275.4
 30
0.0
 11
-328.00997493
 21
-275.4
 31
0.0
  0
LINE
  5
8F
100
AcDbEntity
  8
D-STR
  6
CONTINUOUS
 62
       1
100
AcDbLine
 10
-328.00997493
 20
-277.0
 30
0.0
 11
-340.00997493
 21
-277.0
 31
0.0
  0
LINE
  5
90
100
AcDbEntity
  8
D-STR
  6
CONTINUOUS
 62
       1
100
AcDbLine
 10
-340.00997493
 20
-277.0
 30
0.0
 11
-340.00997493
 21
-275.4
 31
0.0
  0
LINE
  5
91
100
AcDbEntity
  8
D-STR
  6
CONTINUOUS
 62
       1
100
AcDbLine
 10
-328.00997493
 20
-275.4
 30
0.0
 11
-328.00997493
 21
-277.0
 31
0.0
  0
ENDBLK
  5
92
100
AcDbEntity
  8
0
100
AcDbBlockEnd
  0
BLOCK
  5
93
100
AcDbEntity
  8
0
100
AcDbBlockBegin
  2
GROUP_8
 70
       0
 10
0.0
 20
0.0
 30
0.0
  3
GROUP_8
  1

  0
LINE
  5
94
100
AcDbEntity
  8
D-BMK
  6
CENTER
 62
       2
100
AcDbLine
 10
-313.22536524
 20
-277.0
 30
0.0
 11
-313.22536524
 21
-275.4
 31
0.0
  0
LINE
  5
95
100
AcDbEntity
  8
D-STR
  6
CONTINUOUS
 62
       1
100
AcDbLine
 10
-321.22536524
 20
-275.4
 30
0.0
 11
-305.22536524
 21
-275.4
 31
0.0
  0
LINE
  5
96
100
AcDbEntity
  8
D-STR
  6
CONTINUOUS
 62
       1
100
AcDbLine
 10
-305.22536524
 20
-277.0
 30
0.0
 11
-321.22536524
 21
-277.0
 31
0.0
  0
LINE
  5
97
100
AcDbEntity
  8
D-STR
  6
CONTINUOUS
 62
       1
100
AcDbLine
 10
-321.22536524
 20
-277.0
 30
0.0
 11
-321.22536524
 21
-275.4
 31
0.0
  0
LINE
  5
98
100
AcDbEntity
  8
D-STR
  6
CONTINUOUS
 62
       1
100
AcDbLine
 10
-305.22536524
 20
-275.4
 30
0.0
 11
-305.22536524
 21
-277.0
 31
0.0
  0
ENDBLK
  5
99
100
AcDbEntity
  8
0
100
AcDbBlockEnd
  0
BLOCK
  5
9A
100
AcDbEntity
  8
0
100
AcDbBlockBegin
  2
GROUP_9
 70
       0
 10
0.0
 20
0.0
 30
0.0
  3
GROUP_9
  1

  0
LINE
  5
9B
100
AcDbEntity
  8
D-BMK
  6
CENTER
 62
       2
100
AcDbLine
 10
-287.24460313
 20
-277.0
 30
0.0
 11
-287.24460313
 21
-275.0
 31
0.0
  0
LINE
  5
9C
100
AcDbEntity
  8
D-STR
  6
CONTINUOUS
 62
       1
100
AcDbLine
 10
-297.24460313
 20
-275.0
 30
0.0
 11
-277.24460313
 21
-275.0
 31
0.0
  0
LINE
  5
9D
100
AcDbEntity
  8
D-STR
  6
CONTINUOUS
 62
       1
100
AcDbLine
 10
-277.24460313
 20
-277.0
 30
0.0
 11
-297.24460313
 21
-277.0
 31
0.0
  0
LINE
  5
9E
100
AcDbEntity
  8
D-STR
  6
CONTINUOUS
 62
       1
100
AcDbLine
 10
-297.24460313
 20
-277.0
 30
0.0
 11
-297.24460313
 21
-275.0
 31
0.0
  0
LINE
  5
9F
100
AcDbEntity
  8
D-STR
  6
CONTINUOUS
 62
       1
100
AcDbLine
 10
-277.24460313
 20
-275.0
 30
0.0
 11
-277.24460313
 21
-277.0
 31
0.0
  0
ENDBLK
  5
A0
100
AcDbEntity
  8
0
100
AcDbBlockEnd
  0
BLOCK
  5
A1
100
AcDbEntity
  8
0
100
AcDbBlockBegin
  2
GROUP_10
 70
       0
 10
0.0
 20
0.0
 30
0.0
  3
GROUP_10
  1

  0
LINE
  5
A2
100
AcDbEntity
  8
D-BMK
  6
CENTER
 62
       2
100
AcDbLine
 10
-257.22238913
 20
-277.0
 30
0.0
 11
-257.22238913
 21
-274.5
 31
0.0
  0
LINE
  5
A3
100
AcDbEntity
  8
D-STR
  6
CONTINUOUS
 62
       1
100
AcDbLine
 10
-269.22238913
 20
-274.5
 30
0.0
 11
-245.22238913
 21
-274.5
 31
0.0
  0
LINE
  5
A4
100
AcDbEntity
  8
D-STR
  6
CONTINUOUS
 62
       1
100
AcDbLine
 10
-245.22238913
 20
-277.0
 30
0.0
 11
-269.22238913
 21
-277.0
 31
0.0
  0
LINE
  5
A5
100
AcDbEntity
  8
D-STR
  6
CONTINUOUS
 62
       1
100
AcDbLine
 10
-269.22238913
 20
-277.0
 30
0.0
 11
-269.22238913
 21
-274.5
 31
0.0
  0
LINE
  5
A6
100
AcDbEntity
  8
D-STR
  6
CONTINUOUS
 62
       1
100
AcDbLine
 10
-245.22238913
 20
-274.5
 30
0.0
 11
-245.22238913
 21
-277.0
 31
0.0
  0
ENDBLK
  5
A7
100
AcDbEntity
  8
0
100
AcDbBlockEnd
  0
BLOCK
  5
A8
100
AcDbEntity
  8
0
100
AcDbBlockBegin
  2
GROUP_11
 70
       0
 10
0.0
 20
0.0
 30
0.0
  3
GROUP_11
  1

  0
LINE
  5
A9
100
AcDbEntity
  8
D-BMK
  6
CENTER
 62
       2
100
AcDbLine
 10
-219.11727136
 20
-277.0
 30
0.0
 11
-219.11727136
 21
-274.0
 31
0.0
  0
LINE
  5
AA
100
AcDbEntity
  8
D-STR
  6
CONTINUOUS
 62
       1
100
AcDbLine
 10
-234.11727136
 20
-274.0
 30
0.0
 11
-204.11727136
 21
-274.0
 31
0.0
  0
LINE
  5
AB
100
AcDbEntity
  8
D-STR
  6
CONTINUOUS
 62
       1
100
AcDbLine
 10
-204.11727136
 20
-277.0
 30
0.0
 11
-234.11727136
 21
-277.0
 31
0.0
  0
LINE
  5
AC
100
AcDbEntity
  8
D-STR
  6
CONTINUOUS
 62
       1
100
AcDbLine
 10
-234.11727136
 20
-277.0
 30
0.0
 11
-234.11727136
 21
-274.0
 31
0.0
  0
LINE
  5
AD
100
AcDbEntity
  8
D-STR
  6
CONTINUOUS
 62
       1
100
AcDbLine
 10
-204.11727136
 20
-274.0
 30
0.0
 11
-204.11727136
 21
-277.0
 31
0.0
  0
ENDBLK
  5
AE
100
AcDbEntity
  8
0
100
AcDbBlockEnd
  0
BLOCK
  5
AF
100
AcDbEntity
  8
0
100
AcDbBlockBegin
  2
GROUP_12
 70
       0
 10
0.0
 20
0.0
 30
0.0
  3
GROUP_12
  1

  0
LINE
  5
B0
100
AcDbEntity
  8
D-BMK
  6
CENTER
 62
       2
100
AcDbLine
 10
-170.61984875
 20
-277.0
 30
0.0
 11
-170.61984875
 21
-274.0
 31
0.0
  0
LINE
  5
B1
100
AcDbEntity
  8
D-STR
  6
CONTINUOUS
 62
       1
100
AcDbLine
 10
-189.11984875
 20
-274.0
 30
0.0
 11
-152.11984875
 21
-274.0
 31
0.0
  0
LINE
  5
B2
100
AcDbEntity
  8
D-STR
  6
CONTINUOUS
 62
       1
100
AcDbLine
 10
-152.11984875
 20
-277.0
 30
0.0
 11
-189.11984875
 21
-277.0
 31
0.0
  0
LINE
  5
B3
100
AcDbEntity
  8
D-STR
  6
CONTINUOUS
 62
       1
100
AcDbLine
 10
-189.11984875
 20
-277.0
 30
0.0
 11
-189.11984875
 21
-274.0
 31
0.0
  0
LINE
  5
B4
100
AcDbEntity
  8
D-STR
  6
CONTINUOUS
 62
       1
100
AcDbLine
 10
-152.11984875
 20
-274.0
 30
0.0
 11
-152.11984875
 21
-277.0
 31
0.0
  0
ENDBLK
  5
B5
100
AcDbEntity
  8
0
100
AcDbBlockEnd
  0
BLOCK
  5
B6
100
AcDbEntity
  8
0
100
AcDbBlockBegin
  2
GROUP_13
 70
       0
 10
0.0
 20
0.0
 30
0.0
  3
GROUP_13
  1

  0
LINE
  5
B7
100
AcDbEntity
  8
D-BMK
  6
CENTER
 62
       2
100
AcDbLine
 10
-352.1297241
 20
37.0
 30
0.0
 11
-352.1297241
 21
41.0
 31
0.0
  0
LINE
  5
B8
100
AcDbEntity
  8
D-STR
  6
CONTINUOUS
 62
       1
100
AcDbLine
 10
-374.1297241
 20
41.0
 30
0.0
 11
-330.1297241
 21
41.0
 31
0.0
  0
LINE
  5
B9
100
AcDbEntity
  8
D-STR
  6
CONTINUOUS
 62
       1
100
AcDbLine
 10
-330.1297241
 20
37.0
 30
0.0
 11
-374.1297241
 21
37.0
 31
0.0
  0
LINE
  5
BA
100
AcDbEntity
  8
D-STR
  6
CONTINUOUS
 62
       1
100
AcDbLine
 10
-374.1297241
 20
37.0
 30
0.0
 11
-374.1297241
 21
41.0
 31
0.0
  0
LINE
  5
BB
100
AcDbEntity
  8
D-STR
  6
CONTINUOUS
 62
       1
100
AcDbLine
 10
-330.1297241
 20
41.0
 30
0.0
 11
-330.1297241
 21
37.0
 31
0.0
  0
ENDBLK
  5
BC
100
AcDbEntity
  8
0
100
AcDbBlockEnd
  0
BLOCK
  5
BD
100
AcDbEntity
  8
0
100
AcDbBlockBegin
  2
GROUP_14
 70
       0
 10
0.0
 20
0.0
 30
0.0
  3
GROUP_14
  1

  0
LINE
  5
BE
100
AcDbEntity
  8
D-BMK
  6
CENTER
 62
       2
100
AcDbLine
 10
-278.22888965
 20
37.0
 30
0.0
 11
-278.22888965
 21
41.0
 31
0.0
  0
LINE
  5
BF
100
AcDbEntity
  8
D-STR
  6
CONTINUOUS
 62
       1
100
AcDbLine
 10
-306.22888965
 20
41.0
 30
0.0
 11
-250.22888965
 21
41.0
 31
0.0
  0
LINE
  5
C0
100
AcDbEntity
  8
D-STR
  6
CONTINUOUS
 62
       1
100
AcDbLine
 10
-250.22888965
 20
37.0
 30
0.0
 11
-306.22888965
 21
37.0
 31
0.0
  0
LINE
  5
C1
100
AcDbEntity
  8
D-STR
  6
CONTINUOUS
 62
       1
100
AcDbLine
 10
-306.22888965
 20
37.0
 30
0.0
 11
-306.22888965
 21
41.0
 31
0.0
  0
LINE
  5
C2
100
AcDbEntity
  8
D-STR
  6
CONTINUOUS
 62
       1
100
AcDbLine
 10
-250.22888965
 20
41.0
 30
0.0
 11
-250.22888965
 21
37.0
 31
0.0
  0
ENDBLK
  5
C3
100
AcDbEntity
  8
0
100
AcDbBlockEnd
  0
BLOCK
  5
C4
100
AcDbEntity
  8
0
100
AcDbBlockBegin
  2
GROUP_15
 70
       0
 10
0.0
 20
0.0
 30
0.0
  3
GROUP_15
  1

  0
LINE
  5
C5
100
AcDbEntity
  8
D-BMK
  6
CENTER
 62
       2
100
AcDbLine
 10
-188.16224765
 20
37.0
 30
0.0
 11
-188.16224765
 21
42.0
 31
0.0
  0
LINE
  5
C6
100
AcDbEntity
  8
D-STR
  6
CONTINUOUS
 62
       1
100
AcDbLine
 10
-221.16224765
 20
42.0
 30
0.0
 11
-155.16224765
 21
42.0
 31
0.0
  0
LINE
  5
C7
100
AcDbEntity
  8
D-STR
  6
CONTINUOUS
 62
       1
100
AcDbLine
 10
-155.16224765
 20
37.0
 30
0.0
 11
-221.16224765
 21
37.0
 31
0.0
  0
LINE
  5
C8
100
AcDbEntity
  8
D-STR
  6
CONTINUOUS
 62
       1
100
AcDbLine
 10
-221.16224765
 20
37.0
 30
0.0
 11
-221.16224765
 21
42.0
 31
0.0
  0
LINE
  5
C9
100
AcDbEntity
  8
D-STR
  6
CONTINUOUS
 62
       1
100
AcDbLine
 10
-155.16224765
 20
42.0
 30
0.0
 11
-155.16224765
 21
37.0
 31
0.0
  0
ENDBLK
  5
CA
100
AcDbEntity
  8
0
100
AcDbBlockEnd
  0
BLOCK
  5
CB
100
AcDbEntity
  8
0
100
AcDbBlockBegin
  2
GROUP_16
 70
       0
 10
0.0
 20
0.0
 30
0.0
  3
GROUP_16
  1

  0
LINE
  5
CC
100
AcDbEntity
  8
D-BMK
  6
CENTER
 62
       2
100
AcDbLine
 10
-81.35244785
 20
37.0
 30
0.0
 11
-81.35244785
 21
45.0
 31
0.0
  0
LINE
  5
CD
100
AcDbEntity
  8
D-STR
  6
CONTINUOUS
 62
       1
100
AcDbLine
 10
-120.35244785
 20
45.0
 30
0.0
 11
-42.35244785
 21
45.0
 31
0.0
  0
LINE
  5
CE
100
AcDbEntity
  8
D-STR
  6
CONTINUOUS
 62
       1
100
AcDbLine
 10
-42.35244785
 20
37.0
 30
0.0
 11
-120.35244785
 21
37.0
 31
0.0
  0
LINE
  5
CF
100
AcDbEntity
  8
D-STR
  6
CONTINUOUS
 62
       1
100
AcDbLine
 10
-120.35244785
 20
37.0
 30
0.0
 11
-120.35244785
 21
45.0
 31
0.0
  0
LINE
  5
D0
100
AcDbEntity
  8
D-STR
  6
CONTINUOUS
 62
       1
100
AcDbLine
 10
-42.35244785
 20
45.0
 30
0.0
 11
-42.35244785
 21
37.0
 31
0.0
  0
ENDBLK
  5
D1
100
AcDbEntity
  8
0
100
AcDbBlockEnd
  0
BLOCK
  5
D2
100
AcDbEntity
  8
0
100
AcDbBlockBegin
  2
GROUP_17
 70
       0
 10
0.0
 20
0.0
 30
0.0
  3
GROUP_17
  1

  0
LINE
  5
D3
100
AcDbEntity
  8
D-BMK
  6
CENTER
 62
       2
100
AcDbLine
 10
42.77786002
 20
37.0
 30
0.0
 11
42.77786002
 21
45.0
 31
0.0
  0
LINE
  5
D4
100
AcDbEntity
  8
D-STR
  6
CONTINUOUS
 62
       1
100
AcDbLine
 10
-3.22213998
 20
45.0
 30
0.0
 11
88.77786002
 21
45.0
 31
0.0
  0
LINE
  5
D5
100
AcDbEntity
  8
D-STR
  6
CONTINUOUS
 62
       1
100
AcDbLine
 10
88.77786002
 20
37.0
 30
0.0
 11
-3.22213998
 21
37.0
 31
0.0
  0
LINE
  5
D6
100
AcDbEntity
  8
D-STR
  6
CONTINUOUS
 62
       1
100
AcDbLine
 10
-3.22213998
 20
37.0
 30
0.0
 11
-3.22213998
 21
45.0
 31
0.0
  0
LINE
  5
D7
100
AcDbEntity
  8
D-STR
  6
CONTINUOUS
 62
       1
100
AcDbLine
 10
88.77786002
 20
45.0
 30
0.0
 11
88.77786002
 21
37.0
 31
0.0
  0
ENDBLK
  5
D8
100
AcDbEntity
  8
0
100
AcDbBlockEnd
  0
BLOCK
  5
D9
100
AcDbEntity
  8
0
100
AcDbBlockBegin
  2
GROUP_18
 70
       0
 10
0.0
 20
0.0
 30
0.0
  3
GROUP_18
  1

  0
LINE
  5
DA
100
AcDbEntity
  8
D-BMK
  6
CENTER
 62
       2
100
AcDbLine
 10
184.22867597
 20
37.0
 30
0.0
 11
184.22867597
 21
47.0
 31
0.0
  0
LINE
  5
DB
100
AcDbEntity
  8
D-STR
  6
CONTINUOUS
 62
       1
100
AcDbLine
 10
131.72867597
 20
47.0
 30
0.0
 11
236.72867597
 21
47.0
 31
0.0
  0
LINE
  5
DC
100
AcDbEntity
  8
D-STR
  6
CONTINUOUS
 62
       1
100
AcDbLine
 10
236.72867597
 20
37.0
 30
0.0
 11
131.72867597
 21
37.0
 31
0.0
  0
LINE
  5
DD
100
AcDbEntity
  8
D-STR
  6
CONTINUOUS
 62
       1
100
AcDbLine
 10
131.72867597
 20
37.0
 30
0.0
 11
131.72867597
 21
47.0
 31
0.0
  0
LINE
  5
DE
100
AcDbEntity
  8
D-STR
  6
CONTINUOUS
 62
       1
100
AcDbLine
 10
236.72867597
 20
47.0
 30
0.0
 11
236.72867597
 21
37.0
 31
0.0
  0
ENDBLK
  5
DF
100
AcDbEntity
  8
0
100
AcDbBlockEnd
  0
BLOCK
  5
E0
100
AcDbEntity
  8
0
100
AcDbBlockBegin
  2
GROUP_19
 70
       0
 10
0.0
 20
0.0
 30
0.0
  3
GROUP_19
  1

  0
LINE
  5
E1
100
AcDbEntity
  8
D-BMK
  6
CENTER
 62
       2
100
AcDbLine
 10
343.0
 20
37.0
 30
0.0
 11
343.0
 21
47.0
 31
0.0
  0
LINE
  5
E2
100
AcDbEntity
  8
D-STR
  6
CONTINUOUS
 62
       1
100
AcDbLine
 10
285.5
 20
47.0
 30
0.0
 11
400.5
 21
47.0
 31
0.0
  0
LINE
  5
E3
100
AcDbEntity
  8
D-STR
  6
CONTINUOUS
 62
       1
100
AcDbLine
 10
400.5
 20
37.0
 30
0.0
 11
285.5
 21
37.0
 31
0.0
  0
LINE
  5
E4
100
AcDbEntity
  8
D-STR
  6
CONTINUOUS
 62
       1
100
AcDbLine
 10
285.5
 20
37.0
 30
0.0
 11
285.5
 21
47.0
 31
0.0
  0
LINE
  5
E5
100
AcDbEntity
  8
D-STR
  6
CONTINUOUS
 62
       1
100
AcDbLine
 10
400.5
 20
47.0
 30
0.0
 11
400.5
 21
37.0
 31
0.0
  0
ENDBLK
  5
E6
100
AcDbEntity
  8
0
100
AcDbBlockEnd
  0
BLOCK
  5
E7
100
AcDbEntity
  8
0
100
AcDbBlockBegin
  2
GROUP_20
 70
       0
 10
0.0
 20
0.0
 30
0.0
  3
GROUP_20
  1

  0
CIRCLE
  5
E8
100
AcDbEntity
  8
D-STR
  6
CONTINUOUS
 62
       1
100
AcDbCircle
 10
-398.5
 20
-270.7
 30
0.0
 40
0.85
  0
CIRCLE
  5
E9
100
AcDbEntity
  8
D-STR
  6
CONTINUOUS
 62
       1
100
AcDbCircle
 10
-398.5
 20
-270.7
 30
0.0
 40
2.0
  0
LINE
  5
EA
100
AcDbEntity
  8
D-BMK
  6
CENTER
 62
       2
100
AcDbLine
 10
-396.5
 20
-270.7
 30
0.0
 11
-400.5
 21
-270.7
 31
0.0
  0
LINE
  5
EB
100
AcDbEntity
  8
D-BMK
  6
CENTER
 62
       2
100
AcDbLine
 10
-398.5
 20
-272.7
 30
0.0
 11
-398.5
 21
-268.7
 31
0.0
  0
ENDBLK
  5
EC
100
AcDbEntity
  8
0
100
AcDbBlockEnd
  0
BLOCK
  5
ED
100
AcDbEntity
  8
0
100
AcDbBlockBegin
  2
GROUP_21
 70
       0
 10
0.0
 20
0.0
 30
0.0
  3
GROUP_21
  1

  0
CIRCLE
  5
EE
100
AcDbEntity
  8
D-STR
  6
CONTINUOUS
 62
       1
100
AcDbCircle
 10
-392.03367699
 20
-269.2
 30
0.0
 40
1.1
  0
CIRCLE
  5
EF
100
AcDbEntity
  8
D-STR
  6
CONTINUOUS
 62
       1
100
AcDbCircle
 10
-392.03367699
 20
-269.2
 30
0.0
 40
2.5
  0
LINE
  5
F0
100
AcDbEntity
  8
D-BMK
  6
CENTER
 62
       2
100
AcDbLine
 10
-392.03367699
 20
-271.7
 30
0.0
 11
-392.03367699
 21
-266.7
 31
0.0
  0
LINE
  5
F1
100
AcDbEntity
  8
D-BMK
  6
CENTER
 62
       2
100
AcDbLine
 10
-389.53367699
 20
-269.2
 30
0.0
 11
-394.53367699
 21
-269.2
 31
0.0
  0
ENDBLK
  5
F2
100
AcDbEntity
  8
0
100
AcDbBlockEnd
  0
BLOCK
  5
F3
100
AcDbEntity
  8
0
100
AcDbBlockBegin
  2
GROUP_22
 70
       0
 10
0.0
 20
0.0
 30
0.0
  3
GROUP_22
  1

  0
CIRCLE
  5
F4
100
AcDbEntity
  8
D-STR
  6
CONTINUOUS
 62
       1
100
AcDbCircle
 10
-383.95077322
 20
-267.5
 30
0.0
 40
1.35
  0
CIRCLE
  5
F5
100
AcDbEntity
  8
D-STR
  6
CONTINUOUS
 62
       1
100
AcDbCircle
 10
-383.95077322
 20
-267.5
 30
0.0
 40
3.0
  0
LINE
  5
F6
100
AcDbEntity
  8
D-BMK
  6
CENTER
 62
       2
100
AcDbLine
 10
-380.95077322
 20
-267.5
 30
0.0
 11
-386.95077322
 21
-267.5
 31
0.0
  0
LINE
  5
F7
100
AcDbEntity
  8
D-BMK
  6
CENTER
 62
       2
100
AcDbLine
 10
-383.95077322
 20
-270.5
 30
0.0
 11
-383.95077322
 21
-264.5
 31
0.0
  0
ENDBLK
  5
F8
100
AcDbEntity
  8
0
100
AcDbBlockEnd
  0
BLOCK
  5
F9
100
AcDbEntity
  8
0
100
AcDbBlockBegin
  2
GROUP_23
 70
       0
 10
0.0
 20
0.0
 30
0.0
  3
GROUP_23
  1

  0
CIRCLE
  5
FA
100
AcDbEntity
  8
D-STR
  6
CONTINUOUS
 62
       1
100
AcDbCircle
 10
-374.71316891
 20
-266.0
 30
0.0
 40
1.6
  0
CIRCLE
  5
FB
100
AcDbEntity
  8
D-STR
  6
CONTINUOUS
 62
       1
100
AcDbCircle
 10
-374.71316891
 20
-266.0
 30
0.0
 40
3.5
  0
LINE
  5
FC
100
AcDbEntity
  8
D-BMK
  6
CENTER
 62
       2
100
AcDbLine
 10
-374.71316891
 20
-269.5
 30
0.0
 11
-374.71316891
 21
-262.5
 31
0.0
  0
LINE
  5
FD
100
AcDbEntity
  8
D-BMK
  6
CENTER
 62
       2
100
AcDbLine
 10
-371.21316891
 20
-266.0
 30
0.0
 11
-378.21316891
 21
-266.0
 31
0.0
  0
ENDBLK
  5
FE
100
AcDbEntity
  8
0
100
AcDbBlockEnd
  0
BLOCK
  5
FF
100
AcDbEntity
  8
0
100
AcDbBlockBegin
  2
GROUP_24
 70
       0
 10
0.0
 20
0.0
 30
0.0
  3
GROUP_24
  1

  0
CIRCLE
  5
100
100
AcDbEntity
  8
D-STR
  6
CONTINUOUS
 62
       1
100
AcDbCircle
 10
-363.45483866
 20
-262.7
 30
0.0
 40
2.15
  0
CIRCLE
  5
101
100
AcDbEntity
  8
D-STR
  6
CONTINUOUS
 62
       1
100
AcDbCircle
 10
-363.45483866
 20
-262.7
 30
0.0
 40
4.5
  0
LINE
  5
102
100
AcDbEntity
  8
D-BMK
  6
CENTER
 62
       2
100
AcDbLine
 10
-358.95483866
 20
-262.7
 30
0.0
 11
-367.95483866
 21
-262.7
 31
0.0
  0
LINE
  5
103
100
AcDbEntity
  8
D-BMK
  6
CENTER
 62
       2
100
AcDbLine
 10
-363.45483866
 20
-267.2
 30
0.0
 11
-363.45483866
 21
-258.2
 31
0.0
  0
ENDBLK
  5
104
100
AcDbEntity
  8
0
100
AcDbBlockEnd
  0
BLOCK
  5
105
100
AcDbEntity
  8
0
100
AcDbBlockBegin
  2
GROUP_25
 70
       0
 10
0.0
 20
0.0
 30
0.0
  3
GROUP_25
  1

  0
CIRCLE
  5
106
100
AcDbEntity
  8
D-STR
  6
CONTINUOUS
 62
       1
100
AcDbCircle
 10
-350.17578247
 20
-261.0
 30
0.0
 40
2.65
  0
CIRCLE
  5
107
100
AcDbEntity
  8
D-STR
  6
CONTINUOUS
 62
       1
100
AcDbCircle
 10
-350.17578247
 20
-261.0
 30
0.0
 40
5.0
  0
LINE
  5
108
100
AcDbEntity
  8
D-BMK
  6
CENTER
 62
       2
100
AcDbLine
 10
-345.17578247
 20
-261.0
 30
0.0
 11
-355.17578247
 21
-261.0
 31
0.0
  0
LINE
  5
109
100
AcDbEntity
  8
D-BMK
  6
CENTER
 62
       2
100
AcDbLine
 10
-350.17578247
 20
-266.0
 30
0.0
 11
-350.17578247
 21
-256.0
 31
0.0
  0
ENDBLK
  5
10A
100
AcDbEntity
  8
0
100
AcDbBlockEnd
  0
BLOCK
  5
10B
100
AcDbEntity
  8
0
100
AcDbBlockBegin
  2
GROUP_26
 70
       0
 10
0.0
 20
0.0
 30
0.0
  3
GROUP_26
  1

  0
CIRCLE
  5
10C
100
AcDbEntity
  8
D-STR
  6
CONTINUOUS
 62
       1
100
AcDbCircle
 10
-334.00997493
 20
-257.4
 30
0.0
 40
3.2
  0
CIRCLE
  5
10D
100
AcDbEntity
  8
D-STR
  6
CONTINUOUS
 62
       1
100
AcDbCircle
 10
-334.00997493
 20
-257.4
 30
0.0
 40
6.0
  0
LINE
  5
10E
100
AcDbEntity
  8
D-BMK
  6
CENTER
 62
       2
100
AcDbLine
 10
-328.00997493
 20
-257.4
 30
0.0
 11
-340.00997493
 21
-257.4
 31
0.0
  0
LINE
  5
10F
100
AcDbEntity
  8
D-BMK
  6
CENTER
 62
       2
100
AcDbLine
 10
-334.00997493
 20
-263.4
 30
0.0
 11
-334.00997493
 21
-251.4
 31
0.0
  0
ENDBLK
  5
110
100
AcDbEntity
  8
0
100
AcDbBlockEnd
  0
BLOCK
  5
111
100
AcDbEntity
  8
0
100
AcDbBlockBegin
  2
GROUP_27
 70
       0
 10
0.0
 20
0.0
 30
0.0
  3
GROUP_27
  1

  0
CIRCLE
  5
112
100
AcDbEntity
  8
D-STR
  6
CONTINUOUS
 62
       1
100
AcDbCircle
 10
-313.22536524
 20
-251.4
 30
0.0
 40
4.2
  0
CIRCLE
  5
113
100
AcDbEntity
  8
D-STR
  6
CONTINUOUS
 62
       1
100
AcDbCircle
 10
-313.22536524
 20
-251.4
 30
0.0
 40
8.0
  0
LINE
  5
114
100
AcDbEntity
  8
D-BMK
  6
CENTER
 62
       2
100
AcDbLine
 10
-313.22536524
 20
-259.4
 30
0.0
 11
-313.22536524
 21
-243.4
 31
0.0
  0
LINE
  5
115
100
AcDbEntity
  8
D-BMK
  6
CENTER
 62
       2
100
AcDbLine
 10
-305.22536524
 20
-251.4
 30
0.0
 11
-321.22536524
 21
-251.4
 31
0.0
  0
ENDBLK
  5
116
100
AcDbEntity
  8
0
100
AcDbBlockEnd
  0
BLOCK
  5
117
100
AcDbEntity
  8
0
100
AcDbBlockBegin
  2
GROUP_28
 70
       0
 10
0.0
 20
0.0
 30
0.0
  3
GROUP_28
  1

  0
CIRCLE
  5
118
100
AcDbEntity
  8
D-STR
  6
CONTINUOUS
 62
       1
100
AcDbCircle
 10
-287.24460313
 20
-245.0
 30
0.0
 40
5.25
  0
CIRCLE
  5
119
100
AcDbEntity
  8
D-STR
  6
CONTINUOUS
 62
       1
100
AcDbCircle
 10
-287.24460313
 20
-245.0
 30
0.0
 40
10.0
  0
LINE
  5
11A
100
AcDbEntity
  8
D-BMK
  6
CENTER
 62
       2
100
AcDbLine
 10
-277.24460313
 20
-245.0
 30
0.0
 11
-297.24460313
 21
-245.0
 31
0.0
  0
LINE
  5
11B
100
AcDbEntity
  8
D-BMK
  6
CENTER
 62
       2
100
AcDbLine
 10
-287.24460313
 20
-255.0
 30
0.0
 11
-287.24460313
 21
-235.0
 31
0.0
  0
ENDBLK
  5
11C
100
AcDbEntity
  8
0
100
AcDbBlockEnd
  0
BLOCK
  5
11D
100
AcDbEntity
  8
0
100
AcDbBlockBegin
  2
GROUP_29
 70
       0
 10
0.0
 20
0.0
 30
0.0
  3
GROUP_29
  1

  0
CIRCLE
  5
11E
100
AcDbEntity
  8
D-STR
  6
CONTINUOUS
 62
       1
100
AcDbCircle
 10
-257.22238913
 20
-238.5
 30
0.0
 40
6.5
  0
CIRCLE
  5
11F
100
AcDbEntity
  8
D-STR
  6
CONTINUOUS
 62
       1
100
AcDbCircle
 10
-257.22238913
 20
-238.5
 30
0.0
 40
12.0
  0
LINE
  5
120
100
AcDbEntity
  8
D-BMK
  6
CENTER
 62
       2
100
AcDbLine
 10
-257.22238913
 20
-250.5
 30
0.0
 11
-257.22238913
 21
-226.5
 31
0.0
  0
LINE
  5
121
100
AcDbEntity
  8
D-BMK
  6
CENTER
 62
       2
100
AcDbLine
 10
-245.22238913
 20
-238.5
 30
0.0
 11
-269.22238913
 21
-238.5
 31
0.0
  0
ENDBLK
  5
122
100
AcDbEntity
  8
0
100
AcDbBlockEnd
  0
BLOCK
  5
123
100
AcDbEntity
  8
0
100
AcDbBlockBegin
  2
GROUP_30
 70
       0
 10
0.0
 20
0.0
 30
0.0
  3
GROUP_30
  1

  0
CIRCLE
  5
124
100
AcDbEntity
  8
D-STR
  6
CONTINUOUS
 62
       1
100
AcDbCircle
 10
-219.11727136
 20
-229.0
 30
0.0
 40
8.5
  0
CIRCLE
  5
125
100
AcDbEntity
  8
D-STR
  6
CONTINUOUS
 62
       1
100
AcDbCircle
 10
-219.11727136
 20
-229.0
 30
0.0
 40
15.0
  0
LINE
  5
126
100
AcDbEntity
  8
D-BMK
  6
CENTER
 62
       2
100
AcDbLine
 10
-204.11727136
 20
-229.0
 30
0.0
 11
-234.11727136
 21
-229.0
 31
0.0
  0
LINE
  5
127
100
AcDbEntity
  8
D-BMK
  6
CENTER
 62
       2
100
AcDbLine
 10
-219.11727136
 20
-244.0
 30
0.0
 11
-219.11727136
 21
-214.0
 31
0.0
  0
ENDBLK
  5
128
100
AcDbEntity
  8
0
100
AcDbBlockEnd
  0
BLOCK
  5
129
100
AcDbEntity
  8
0
100
AcDbBlockBegin
  2
GROUP_31
 70
       0
 10
0.0
 20
0.0
 30
0.0
  3
GROUP_31
  1

  0
CIRCLE
  5
12A
100
AcDbEntity
  8
D-STR
  6
CONTINUOUS
 62
       1
100
AcDbCircle
 10
-170.61984875
 20
-218.5
 30
0.0
 40
10.5
  0
CIRCLE
  5
12B
100
AcDbEntity
  8
D-STR
  6
CONTINUOUS
 62
       1
100
AcDbCircle
 10
-170.61984875
 20
-218.5
 30
0.0
 40
18.5
  0
LINE
  5
12C
100
AcDbEntity
  8
D-BMK
  6
CENTER
 62
       2
100
AcDbLine
 10
-152.11984875
 20
-218.5
 30
0.0
 11
-189.11984875
 21
-218.5
 31
0.0
  0
LINE
  5
12D
100
AcDbEntity
  8
D-BMK
  6
CENTER
 62
       2
100
AcDbLine
 10
-170.61984875
 20
-237.0
 30
0.0
 11
-170.61984875
 21
-200.0
 31
0.0
  0
ENDBLK
  5
12E
100
AcDbEntity
  8
0
100
AcDbBlockEnd
  0
BLOCK
  5
12F
100
AcDbEntity
  8
0
100
AcDbBlockBegin
  2
GROUP_32
 70
       0
 10
0.0
 20
0.0
 30
0.0
  3
GROUP_32
  1

  0
CIRCLE
  5
130
100
AcDbEntity
  8
D-STR
  6
CONTINUOUS
 62
       1
100
AcDbCircle
 10
-352.1297241
 20
107.0
 30
0.0
 40
12.5
  0
CIRCLE
  5
131
100
AcDbEntity
  8
D-STR
  6
CONTINUOUS
 62
       1
100
AcDbCircle
 10
-352.1297241
 20
107.0
 30
0.0
 40
22.0
  0
LINE
  5
132
100
AcDbEntity
  8
D-BMK
  6
CENTER
 62
       2
100
AcDbLine
 10
-330.1297241
 20
107.0
 30
0.0
 11
-374.1297241
 21
107.0
 31
0.0
  0
LINE
  5
133
100
AcDbEntity
  8
D-BMK
  6
CENTER
 62
       2
100
AcDbLine
 10
-352.1297241
 20
85.0
 30
0.0
 11
-352.1297241
 21
129.0
 31
0.0
  0
ENDBLK
  5
134
100
AcDbEntity
  8
0
100
AcDbBlockEnd
  0
BLOCK
  5
135
100
AcDbEntity
  8
0
100
AcDbBlockBegin
  2
GROUP_33
 70
       0
 10
0.0
 20
0.0
 30
0.0
  3
GROUP_33
  1

  0
CIRCLE
  5
136
100
AcDbEntity
  8
D-STR
  6
CONTINUOUS
 62
       1
100
AcDbCircle
 10
-278.22888965
 20
125.0
 30
0.0
 40
15.5
  0
CIRCLE
  5
137
100
AcDbEntity
  8
D-STR
  6
CONTINUOUS
 62
       1
100
AcDbCircle
 10
-278.22888965
 20
125.0
 30
0.0
 40
28.0
  0
LINE
  5
138
100
AcDbEntity
  8
D-BMK
  6
CENTER
 62
       2
100
AcDbLine
 10
-250.22888965
 20
125.0
 30
0.0
 11
-306.22888965
 21
125.0
 31
0.0
  0
LINE
  5
139
100
AcDbEntity
  8
D-BMK
  6
CENTER
 62
       2
100
AcDbLine
 10
-278.22888965
 20
97.0
 30
0.0
 11
-278.22888965
 21
153.0
 31
0.0
  0
ENDBLK
  5
13A
100
AcDbEntity
  8
0
100
AcDbBlockEnd
  0
BLOCK
  5
13B
100
AcDbEntity
  8
0
100
AcDbBlockBegin
  2
GROUP_34
 70
       0
 10
0.0
 20
0.0
 30
0.0
  3
GROUP_34
  1

  0
CIRCLE
  5
13C
100
AcDbEntity
  8
D-STR
  6
CONTINUOUS
 62
       1
100
AcDbCircle
 10
-188.16224765
 20
141.0
 30
0.0
 40
18.5
  0
CIRCLE
  5
13D
100
AcDbEntity
  8
D-STR
  6
CONTINUOUS
 62
       1
100
AcDbCircle
 10
-188.16224765
 20
141.0
 30
0.0
 40
33.0
  0
LINE
  5
13E
100
AcDbEntity
  8
D-BMK
  6
CENTER
 62
       2
100
AcDbLine
 10
-188.16224765
 20
108.0
 30
0.0
 11
-188.16224765
 21
174.0
 31
0.0
  0
LINE
  5
13F
100
AcDbEntity
  8
D-BMK
  6
CENTER
 62
       2
100
AcDbLine
 10
-155.16224765
 20
141.0
 30
0.0
 11
-221.16224765
 21
141.0
 31
0.0
  0
ENDBLK
  5
140
100
AcDbEntity
  8
0
100
AcDbBlockEnd
  0
BLOCK
  5
141
100
AcDbEntity
  8
0
100
AcDbBlockBegin
  2
GROUP_35
 70
       0
 10
0.0
 20
0.0
 30
0.0
  3
GROUP_35
  1

  0
CIRCLE
  5
142
100
AcDbEntity
  8
D-STR
  6
CONTINUOUS
 62
       1
100
AcDbCircle
 10
-81.35244785
 20
162.0
 30
0.0
 40
22.5
  0
CIRCLE
  5
143
100
AcDbEntity
  8
D-STR
  6
CONTINUOUS
 62
       1
100
AcDbCircle
 10
-81.35244785
 20
162.0
 30
0.0
 40
39.0
  0
LINE
  5
144
100
AcDbEntity
  8
D-BMK
  6
CENTER
 62
       2
100
AcDbLine
 10
-42.35244785
 20
162.0
 30
0.0
 11
-120.35244785
 21
162.0
 31
0.0
  0
LINE
  5
145
100
AcDbEntity
  8
D-BMK
  6
CENTER
 62
       2
100
AcDbLine
 10
-81.35244785
 20
123.0
 30
0.0
 11
-81.35244785
 21
201.0
 31
0.0
  0
ENDBLK
  5
146
100
AcDbEntity
  8
0
100
AcDbBlockEnd
  0
BLOCK
  5
147
100
AcDbEntity
  8
0
100
AcDbBlockBegin
  2
GROUP_36
 70
       0
 10
0.0
 20
0.0
 30
0.0
  3
GROUP_36
  1

  0
CIRCLE
  5
148
100
AcDbEntity
  8
D-STR
  6
CONTINUOUS
 62
       1
100
AcDbCircle
 10
42.77786002
 20
183.0
 30
0.0
 40
26.0
  0
CIRCLE
  5
149
100
AcDbEntity
  8
D-STR
  6
CONTINUOUS
 62
       1
100
AcDbCircle
 10
42.77786002
 20
183.0
 30
0.0
 40
46.0
  0
LINE
  5
14A
100
AcDbEntity
  8
D-BMK
  6
CENTER
 62
       2
100
AcDbLine
 10
42.77786002
 20
137.0
 30
0.0
 11
42.77786002
 21
229.0
 31
0.0
  0
LINE
  5
14B
100
AcDbEntity
  8
D-BMK
  6
CENTER
 62
       2
100
AcDbLine
 10
88.77786002
 20
183.0
 30
0.0
 11
-3.22213998
 21
183.0
 31
0.0
  0
ENDBLK
  5
14C
100
AcDbEntity
  8
0
100
AcDbBlockEnd
  0
BLOCK
  5
14D
100
AcDbEntity
  8
0
100
AcDbBlockBegin
  2
GROUP_37
 70
       0
 10
0.0
 20
0.0
 30
0.0
  3
GROUP_37
  1

  0
CIRCLE
  5
14E
100
AcDbEntity
  8
D-STR
  6
CONTINUOUS
 62
       1
100
AcDbCircle
 10
184.22867597
 20
204.5
 30
0.0
 40
31.0
  0
CIRCLE
  5
14F
100
AcDbEntity
  8
D-STR
  6
CONTINUOUS
 62
       1
100
AcDbCircle
 10
184.22867597
 20
204.5
 30
0.0
 40
52.5
  0
LINE
  5
150
100
AcDbEntity
  8
D-BMK
  6
CENTER
 62
       2
100
AcDbLine
 10
184.22867597
 20
152.0
 30
0.0
 11
184.22867597
 21
257.0
 31
0.0
  0
LINE
  5
151
100
AcDbEntity
  8
D-BMK
  6
CENTER
 62
       2
100
AcDbLine
 10
236.72867597
 20
204.5
 30
0.0
 11
131.72867597
 21
204.5
 31
0.0
  0
ENDBLK
  5
152
100
AcDbEntity
  8
0
100
AcDbBlockEnd
  0
BLOCK
  5
153
100
AcDbEntity
  8
0
100
AcDbBlockBegin
  2
GROUP_38
 70
       0
 10
0.0
 20
0.0
 30
0.0
  3
GROUP_38
  1

  0
LINE
  5
154
100
AcDbEntity
  8
D-BMK
  6
CENTER
 62
       2
100
AcDbLine
 10
343.0
 20
162.0
 30
0.0
 11
343.0
 21
277.0
 31
0.0
  0
LINE
  5
155
100
AcDbEntity
  8
D-BMK
  6
CENTER
 62
       2
100
AcDbLine
 10
400.5
 20
219.5
 30
0.0
 11
285.5
 21
219.5
 31
0.0
  0
CIRCLE
  5
156
100
AcDbEntity
  8
D-STR
  6
CONTINUOUS
 62
       1
100
AcDbCircle
 10
343.0
 20
219.5
 30
0.0
 40
35.0
  0
CIRCLE
  5
157
100
AcDbEntity
  8
D-STR
  6
CONTINUOUS
 62
       1
100
AcDbCircle
 10
343.0
 20
219.5
 30
0.0
 40
57.5
  0
ENDBLK
  5
158
100
AcDbEntity
  8
0
100
AcDbBlockEnd
  0
ENDSEC
  0
SECTION
  2
ENTITIES
  0
INSERT
  5
159
100
AcDbEntity
  8
0
  6
CONTINUOUS
100
AcDbBlockReference
  2
GROUP_1
 10
0.0
 20
0.0
 30
0.0
  0
INSERT
  5
15A
100
AcDbEntity
  8
0
  6
CONTINUOUS
100
AcDbBlockReference
  2
GROUP_2
 10
0.0
 20
0.0
 30
0.0
  0
INSERT
  5
15B
100
AcDbEntity
  8
0
  6
CONTINUOUS
100
AcDbBlockReference
  2
GROUP_3
 10
0.0
 20
0.0
 30
0.0
  0
INSERT
  5
15C
100
AcDbEntity
  8
0
  6
CONTINUOUS
100
AcDbBlockReference
  2
GROUP_4
 10
0.0
 20
0.0
 30
0.0
  0
INSERT
  5
15D
100
AcDbEntity
  8
0
  6
CONTINUOUS
100
AcDbBlockReference
  2
GROUP_5
 10
0.0
 20
0.0
 30
0.0
  0
INSERT
  5
15E
100
AcDbEntity
  8
0
  6
CONTINUOUS
100
AcDbBlockReference
  2
GROUP_6
 10
0.0
 20
0.0
 30
0.0
  0
INSERT
  5
15F
100
AcDbEntity
  8
0
  6
CONTINUOUS
100
AcDbBlockReference
  2
GROUP_7
 10
0.0
 20
0.0
 30
0.0
  0
INSERT
  5
160
100
AcDbEntity
  8
0
  6
CONTINUOUS
100
AcDbBlockReference
  2
GROUP_8
 10
0.0
 20
0.0
 30
0.0
  0
INSERT
  5
161
100
AcDbEntity
  8
0
  6
CONTINUOUS
100
AcDbBlockReference
  2
GROUP_9
 10
0.0
 20
0.0
 30
0.0
  0
INSERT
  5
162
100
AcDbEntity
  8
0
  6
CONTINUOUS
100
AcDbBlockReference
  2
GROUP_10
 10
0.0
 20
0.0
 30
0.0
  0
INSERT
  5
163
100
AcDbEntity
  8
0
  6
CONTINUOUS
100
AcDbBlockReference
  2
GROUP_11
 10
0.0
 20
0.0
 30
0.0
  0
INSERT
  5
164
100
AcDbEntity
  8
0
  6
CONTINUOUS
100
AcDbBlockReference
  2
GROUP_12
 10
0.0
 20
0.0
 30
0.0
  0
INSERT
  5
165
100
AcDbEntity
  8
0
  6
CONTINUOUS
100
AcDbBlockReference
  2
GROUP_13
 10
0.0
 20
0.0
 30
0.0
  0
INSERT
  5
166
100
AcDbEntity
  8
0
  6
CONTINUOUS
100
AcDbBlockReference
  2
GROUP_14
 10
0.0
 20
0.0
 30
0.0
  0
INSERT
  5
167
100
AcDbEntity
  8
0
  6
CONTINUOUS
100
AcDbBlockReference
  2
GROUP_15
 10
0.0
 20
0.0
 30
0.0
  0
INSERT
  5
168
100
AcDbEntity
  8
0
  6
CONTINUOUS
100
AcDbBlockReference
  2
GROUP_16
 10
0.0
 20
0.0
 30
0.0
  0
INSERT
  5
169
100
AcDbEntity
  8
0
  6
CONTINUOUS
100
AcDbBlockReference
  2
GROUP_17
 10
0.0
 20
0.0
 30
0.0
  0
INSERT
  5
16A
100
AcDbEntity
  8
0
  6
CONTINUOUS
100
AcDbBlockReference
  2
GROUP_18
 10
0.0
 20
0.0
 30
0.0
  0
INSERT
  5
16B
100
AcDbEntity
  8
0
  6
CONTINUOUS
100
AcDbBlockReference
  2
GROUP_19
 10
0.0
 20
0.0
 30
0.0
  0
INSERT
  5
16C
100
AcDbEntity
  8
0
  6
CONTINUOUS
100
AcDbBlockReference
  2
GROUP_20
 10
0.0
 20
0.0
 30
0.0
  0
INSERT
  5
16D
100
AcDbEntity
  8
0
  6
CONTINUOUS
100
AcDbBlockReference
  2
GROUP_21
 10
0.0
 20
0.0
 30
0.0
  0
INSERT
  5
16E
100
AcDbEntity
  8
0
  6
CONTINUOUS
100
AcDbBlockReference
  2
GROUP_22
 10
0.0
 20
0.0
 30
0.0
  0
INSERT
  5
16F
100
AcDbEntity
  8
0
  6
CONTINUOUS
100
AcDbBlockReference
  2
GROUP_23
 10
0.0
 20
0.0
 30
0.0
  0
INSERT
  5
170
100
AcDbEntity
  8
0
  6
CONTINUOUS
100
AcDbBlockReference
  2
GROUP_24
 10
0.0
 20
0.0
 30
0.0
  0
INSERT
  5
171
100
AcDbEntity
  8
0
  6
CONTINUOUS
100
AcDbBlockReference
  2
GROUP_25
 10
0.0
 20
0.0
 30
0.0
  0
INSERT
  5
172
100
AcDbEntity
  8
0
  6
CONTINUOUS
100
AcDbBlockReference
  2
GROUP_26
 10
0.0
 20
0.0
 30
0.0
  0
INSERT
  5
173
100
AcDbEntity
  8
0
  6
CONTINUOUS
100
AcDbBlockReference
  2
GROUP_27
 10
0.0
 20
0.0
 30
0.0
  0
INSERT
  5
174
100
AcDbEntity
  8
0
  6
CONTINUOUS
100
AcDbBlockReference
  2
GROUP_28
 10
0.0
 20
0.0
 30
0.0
  0
INSERT
  5
175
100
AcDbEntity
  8
0
  6
CONTINUOUS
100
AcDbBlockReference
  2
GROUP_29
 10
0.0
 20
0.0
 30
0.0
  0
INSERT
  5
176
100
AcDbEntity
  8
0
  6
CONTINUOUS
100
AcDbBlockReference
  2
GROUP_30
 10
0.0
 20
0.0
 30
0.0
  0
INSERT
  5
177
100
AcDbEntity
  8
0
  6
CONTINUOUS
100
AcDbBlockReference
  2
GROUP_31
 10
0.0
 20
0.0
 30
0.0
  0
INSERT
  5
178
100
AcDbEntity
  8
0
  6
CONTINUOUS
100
AcDbBlockReference
  2
GROUP_32
 10
0.0
 20
0.0
 30
0.0
  0
INSERT
  5
179
100
AcDbEntity
  8
0
  6
CONTINUOUS
100
AcDbBlockReference
  2
GROUP_33
 10
0.0
 20
0.0
 30
0.0
  0
INSERT
  5
17A
100
AcDbEntity
  8
0
  6
CONTINUOUS
100
AcDbBlockReference
  2
GROUP_34
 10
0.0
 20
0.0
 30
0.0
  0
INSERT
  5
17B
100
AcDbEntity
  8
0
  6
CONTINUOUS
100
AcDbBlockReference
  2
GROUP_35
 10
0.0
 20
0.0
 30
0.0
  0
INSERT
  5
17C
100
AcDbEntity
  8
0
  6
CONTINUOUS
100
AcDbBlockReference
  2
GROUP_36
 10
0.0
 20
0.0
 30
0.0
  0
INSERT
  5
17D
100
AcDbEntity
  8
0
  6
CONTINUOUS
100
AcDbBlockReference
  2
GROUP_37
 10
0.0
 20
0.0
 30
0.0
  0
INSERT
  5
17E
100
AcDbEntity
  8
0
  6
CONTINUOUS
100
AcDbBlockReference
  2
GROUP_38
 10
0.0
 20
0.0
 30
0.0
  0
TEXT
  5
17F
100
AcDbEntity
  8
D-STR-TXT
 62
       7
100
AcDbText
 10
-400.5
 20
273.5
 30
0.0
 40
3.5
  1
平座金並形第1選択
 41
1.2
 72
       5
 11
-364.8
 21
273.5
 31
0.0
100
AcDbText
  0
TEXT
  5
180
100
AcDbEntity
  8
D-STR-TXT
 62
       7
100
AcDbText
 10
-400.5
 20
269.0
 30
0.0
 40
3.5
  1
M1.6,M2,M2.5,M3,M4,M5,M6,M8,M10,M12,M16,M20,M24,M30,M36,M42,M48,M56,M64
 41
1.2
 72
       5
 11
-251.4
 21
269.0
 31
0.0
100
AcDbText
  0
ENDSEC
  0
SECTION
  2
OBJECTS
  0
DICTIONARY
  5
19
100
AcDbDictionary
  3
ACAD_GROUP
350
1A
  3
ACAD_MLINESTYLE
350
1B
  0
DICTIONARY
  5
1A
102
{ACAD_REACTORS
330
19
102
}
100
AcDbDictionary
  0
DICTIONARY
  5
1B
102
{ACAD_REACTORS
330
19
102
}
100
AcDbDictionary
  3
STANDARD
350
1C
  0
MLINESTYLE
  5
1C
102
{ACAD_REACTORS
330
1B
102
}
100
AcDbMlineStyle
  2
STANDARD
 70
       0
  3

 62
       0
 51
90.0
 52
90.0
 71
       2
 49
0.5
 62
     256
  6
BYLAYER
 49
-0.5
 62
     256
  6
BYLAYER
  0
ENDSEC
  0
EOF
