  0
SECTION
  2
HEADER
  9
$ACADVER
  1
AC1014
  9
$ACADMAINTVER
 70
       0
  9
$DWGCODEPAGE
  3
ANSI_932
  9
$INSBASE
 10
0.0
 20
0.0
 30
0.0
  9
$EXTMIN
 10
-11178.38604934
 20
-186931.74075799
 30
0.0
  9
$EXTMAX
 10
111241.41574925
 20
187455.74070405
 30
0.0
  9
$LIMMIN
 10
-15004.00485555
 20
-198631.34955368
  9
$LIMMAX
 10
115067.03455546
 20
199155.34949974
  9
$ORTHOMODE
 70
       0
  9
$REGENMODE
 70
       1
  9
$FILLMODE
 70
       1
  9
$QTEXTMODE
 70
       0
  9
$MIRRTEXT
 70
       1
  9
$DRAGMODE
 70
       2
  9
$LTSCALE
 40
1.0
  9
$OSMODE
 70
       0
  9
$ATTMODE
 70
       1
  9
$TEXTSIZE
 40
0.2
  9
$TRACEWID
 40
0.05
  9
$TEXTSTYLE
  7
STANDARD
  9
$CLAYER
  8
0
  9
$CELTYPE
  6
CONTINUOUS
  9
$CECOLOR
 62
     256
  9
$CELTSCALE
 40
1.0
  9
$DELOBJ
 70
       1
  9
$DISPSILH
 70
       0
  9
$DIMSCALE
 40
1.0
  9
$DIMASZ
 40
0.18
  9
$DIMEXO
 40
0.0625
  9
$DIMDLI
 40
0.38
  9
$DIMRND
 40
0.0
  9
$DIMDLE
 40
0.0
  9
$DIMEXE
 40
0.18
  9
$DIMTP
 40
0.0
  9
$DIMTM
 40
0.0
  9
$DIMTXT
 40
0.18
  9
$DIMCEN
 40
0.09
  9
$DIMTSZ
 40
0.0
  9
$DIMTOL
 70
       0
  9
$DIMLIM
 70
       0
  9
$DIMTIH
 70
       1
  9
$DIMTOH
 70
       1
  9
$DIMSE1
 70
       0
  9
$DIMSE2
 70
       0
  9
$DIMTAD
 70
       0
  9
$DIMZIN
 70
       0
  9
$DIMBLK
  1

  9
$DIMASO
 70
       1
  9
$DIMSHO
 70
       1
  9
$DIMPOST
  1

  9
$DIMAPOST
  1

  9
$DIMALT
 70
       0
  9
$DIMALTD
 70
       2
  9
$DIMALTF
 40
25.4
  9
$DIMLFAC
 40
1.0
  9
$DIMTOFL
 70
       0
  9
$DIMTVP
 40
0.0
  9
$DIMTIX
 70
       0
  9
$DIMSOXD
 70
       0
  9
$DIMSAH
 70
       0
  9
$DIMBLK1
  1

  9
$DIMBLK2
  1

  9
$DIMSTYLE
  2
STANDARD
  9
$DIMCLRD
 70
       0
  9
$DIMCLRE
 70
       0
  9
$DIMCLRT
 70
       0
  9
$DIMTFAC
 40
1.0
  9
$DIMGAP
 40
0.09
  9
$DIMJUST
 70
       0
  9
$DIMSD1
 70
       0
  9
$DIMSD2
 70
       0
  9
$DIMTOLJ
 70
       1
  9
$DIMTZIN
 70
       0
  9
$DIMALTZ
 70
       0
  9
$DIMALTTZ
 70
       0
  9
$DIMFIT
 70
       3
  9
$DIMUPT
 70
       0
  9
$DIMUNIT
 70
       2
  9
$DIMDEC
 70
       4
  9
$DIMTDEC
 70
       4
  9
$DIMALTU
 70
       2
  9
$DIMALTTD
 70
       2
  9
$DIMTXSTY
  7
STANDARD
  9
$DIMAUNIT
 70
       0
  9
$LUNITS
 70
       2
  9
$LUPREC
 70
       4
  9
$SKETCHINC
 40
0.1
  9
$FILLETRAD
 40
0.0
  9
$AUNITS
 70
       0
  9
$AUPREC
 70
       0
  9
$MENU
  1
acad
  9
$ELEVATION
 40
0.0
  9
$PELEVATION
 40
0.0
  9
$THICKNESS
 40
0.0
  9
$LIMCHECK
 70
       0
  9
$BLIPMODE
 70
       1
  9
$CHAMFERA
 40
0.0
  9
$CHAMFERB
 40
0.0
  9
$CHAMFERC
 40
0.0
  9
$CHAMFERD
 40
0.0
  9
$SKPOLY
 70
       0
  9
$TDCREATE
 40
0.000000000
  9
$TDUPDATE
 40
0.000000000
  9
$TDINDWG
 40
0.0000000000
  9
$TDUSRTIMER
 40
0.0000000000
  9
$USRTIMER
 70
       1
  9
$ANGBASE
 50
0.0
  9
$ANGDIR
 70
       0
  9
$PDMODE
 70
       0
  9
$PDSIZE
 40
1.0
  9
$PLINEWID
 40
0.0
  9
$COORDS
 70
       1
  9
$SPLFRAME
 70
       0
  9
$SPLINETYPE
 70
       6
  9
$SPLINESEGS
 70
       8
  9
$ATTDIA
 70
       0
  9
$ATTREQ
 70
       1
  9
$HANDLING
 70
       1
  9
$HANDSEED
  5
4A9
  9
$SURFTAB1
 70
       6
  9
$SURFTAB2
 70
       6
  9
$SURFTYPE
 70
       6
  9
$SURFU
 70
       6
  9
$SURFV
 70
       6
  9
$UCSNAME
  2

  9
$UCSORG
 10
0.0
 20
0.0
 30
0.0
  9
$UCSXDIR
 10
1.0
 20
0.0
 30
0.0
  9
$UCSYDIR
 10
0.0
 20
1.0
 30
0.0
  9
$PUCSNAME
  2

  9
$PUCSORG
 10
0.0
 20
0.0
 30
0.0
  9
$PUCSXDIR
 10
1.0
 20
0.0
 30
0.0
  9
$PUCSYDIR
 10
0.0
 20
1.0
 30
0.0
  9
$USERI1
 70
       0
  9
$USERI2
 70
       0
  9
$USERI3
 70
       0
  9
$USERI4
 70
       0
  9
$USERI5
 70
       0
  9
$USERR1
 40
0.0
  9
$USERR2
 40
0.0
  9
$USERR3
 40
0.0
  9
$USERR4
 40
0.0
  9
$USERR5
 40
0.0
  9
$WORLDVIEW
 70
       1
  9
$SHADEDGE
 70
       3
  9
$SHADEDIF
 70
      70
  9
$TILEMODE
 70
       1
  9
$MAXACTVP
 70
      16
  9
$PINSBASE
 10
0.0
 20
0.0
 30
0.0
  9
$PLIMCHECK
 70
       0
  9
$PEXTMIN
 10
1.00000000E+20
 20
1.00000000E+20
 30
1.00000000E+20
  9
$PEXTMAX
 10
-1.00000000E+20
 20
-1.00000000E+20
 30
-1.00000000E+20
  9
$PLIMMIN
 10
0.0
 20
0.0
  9
$PLIMMAX
 10
12.0
 20
9.0
  9
$UNITMODE
 70
       0
  9
$VISRETAIN
 70
       0
  9
$PLINEGEN
 70
       1
  9
$PSLTSCALE
 70
       0
  9
$TREEDEPTH
 70
    3020
  9
$PICKSTYLE
 70
       1
  9
$CMLSTYLE
  2
STANDARD
  9
$CMLJUST
 70
       0
  9
$CMLSCALE
 40
1.0
  9
$PROXYGRAPHICS
 70
       0
  9
$MEASUREMENT
 70
       0
  0
ENDSEC
  0
SECTION
  2
CLASSES
  0
CLASS
  1
LWPOLYLINE
  2
AcDbPolyline
  3
"AutoCAD"
 90
        0
280
       0
281
       1
  0
CLASS
  1
IMAGE
  2
AcDbRasterImage
  3
ISM
 90
      127
280
       0
281
       1
  0
CLASS
  1
OLE2FRAME
  2
AcDbOle2Frame
  3
""
 90
        0
280
       0
281
       1
  0
CLASS
  1
HATCH
  2
AcDbHatch
  3
"ACAD_SEDONA"
 90
        0
280
       0
281
       1
  0
CLASS
  1
DICTIONARYVAR
  2
AcDbDictionaryVar
  3
"AutoCAD"
 90
        0
280
       0
281
       0
  0
CLASS
  1
RASTERVARIABLES
  2
AcDbRasterVariables
  3
ISM
 90
        0
280
       0
281
       0
  0
CLASS
  1
IMAGEDEF
  2
AcDbRasterImageDef
  3
ISM
 90
        0
280
       0
281
       0
  0
CLASS
  1
IMAGEDEF_REACTOR
  2
AcDbRasterImageDefReactor
  3
ISM
 90
        1
280
       0
281
       0
  0
CLASS
  1
IDBUFFER
  2
AcDbIdBuffer
  3
"Acad"
 90
        0
280
       0
281
       0
  0
CLASS
  1
SPATIAL_FILTER
  2
AcDbSpatialFilter
  3
"Acad"
 90
        0
280
       0
281
       0
  0
CLASS
  1
XRECORD
  2
AcDbXrecord
  3
"<Built In>"
 90
        0
280
       0
281
       0
  0
CLASS
  1
SORTENTSTABLE
  2
AcDbSortentsTable
  3
"AutoCAD"
 90
        0
280
       0
281
       0
  0
CLASS
  1
LAYER_INDEX
  2
AcDbLayerIndex
  3
"Acad"
 90
        0
280
       0
281
       0
  0
CLASS
  1
SPATIAL_INDEX
  2
AcDbSpatialIndex
  3
"Acad"
 90
        0
280
       0
281
       0
  0
CLASS
  1
OBJECT_PTR
  2
CAseDLPNTableRecord
  3
"ASE-LPNTableRecord"
 90
        1
280
       0
281
       0
  0
CLASS
  1
LAYOUT
  2
AcDbLayout
  3
"AutoCAD 2000"
 90
        1
280
       0
281
       0
  0
CLASS
  1
PLOTSETTINGS
  2
AcDbPlotSettings
  3
"AutoCAD 2000"
 90
        1
280
       0
281
       0
  0
CLASS
  1
ACDBDICTIONARYWDFLT
  2
AcDbDictionaryWithDefault
  3
"AutoCAD 2000"
 90
        1
280
       0
281
       0
  0
CLASS
  1
ACDBPLACEHOLDER
  2
AcDbPlaceHolder
  3
"AutoCAD 2000"
 90
        1
280
       0
281
       0
  0
CLASS
  1
VBA_PROJECT
  2
AcDbVbaProject
  3
"acadvba"
 90
        1
280
       0
281
       0
  0
CLASS
  1
WIPEOUT
  2
AcDbWipeout
  3
WipeOut|AutoCAD Express Tool|expresstools@autodesk.com
 90
      127
280
       0
281
       1
  0
CLASS
  1
WIPEOUTVARIABLES
  2
AcDbWipeoutVariables
  3
WipeOut|AutoCAD Express Tool|expresstools@autodesk.com
 90
        0
280
       0
281
       0
  0
CLASS
  1
RTEXT
  2
RText
  3
RText|AutoCAD Express Tool|expresstools@autodesk.com
 90
        0
280
       0
281
       1
  0
CLASS
  1
ARCALIGNEDTEXT
  2
AcDbArcAlignedText
  3
ATEXT|AutoCAD Express Tool|expresstools@autodesk.com
 90
        0
280
       0
281
       1
  0
ENDSEC
  0
SECTION
  2
TABLES
  0
TABLE
  2
VPORT
  5
7
100
AcDbSymbolTable
 70
       1
  0
VPORT
  5
15
100
AcDbSymbolTableRecord
100
AcDbViewportTableRecord
  2
*ACTIVE
 70
       0
 10
0.0
 20
0.0
 11
1.0
 21
1.0
 12
50031.51484995
 22
261.99997303
 13
0.0
 23
0.0
 14
1.0
 24
1.0
 15
0.0
 25
0.0
 16
0.0
 26
0.0
 36
1.0
 17
0.0
 27
0.0
 37
0.0
 40
397786.69905341
 41
0.3269869
 42
50.0
 43
0.0
 44
0.0
 50
0.0
 51
0.0
 71
       0
 72
     100
 73
       1
 74
       1
 75
       0
 76
       0
 77
       0
 78
       0
  0
ENDTAB
  0
TABLE
  2
LTYPE
  5
4
100
AcDbSymbolTable
 70
      30
  0
LTYPE
  5
11
100
AcDbSymbolTableRecord
100
AcDbLinetypeTableRecord
  2
BYBLOCK
 70
      64
  3

 72
      65
 73
       0
 40
0.0
  0
LTYPE
  5
12
100
AcDbSymbolTableRecord
100
AcDbLinetypeTableRecord
  2
BYLAYER
 70
      64
  3

 72
      65
 73
       0
 40
0.0
  0
LTYPE
  5
13
100
AcDbSymbolTableRecord
100
AcDbLinetypeTableRecord
  2
CONTINUOUS
 70
      64
  3
Solid line
 72
      65
 73
       0
 40
0.0
  0
LTYPE
  5
1D
100
AcDbSymbolTableRecord
100
AcDbLinetypeTableRecord
  2
HIDDENX2
 70
      64
  3
CADPAC LINETYPE
 72
      65
 73
       2
 40
705.09432742
 49
528.82074557
 74
       0
 49
-176.27358186
 74
       0
  0
LTYPE
  5
1E
100
AcDbSymbolTableRecord
100
AcDbLinetypeTableRecord
  2
HIDDEN
 70
      64
  3
CADPAC LINETYPE
 72
      65
 73
       2
 40
528.82074557
 49
352.54716371
 74
       0
 49
-176.27358186
 74
       0
  0
LTYPE
  5
1F
100
AcDbSymbolTableRecord
100
AcDbLinetypeTableRecord
  2
HIDDEN2
 70
      64
  3
CADPAC LINETYPE
 72
      65
 73
       2
 40
440.68395464
 49
264.41037278
 74
       0
 49
-176.27358186
 74
       0
  0
LTYPE
  5
20
100
AcDbSymbolTableRecord
100
AcDbLinetypeTableRecord
  2
DASHED
 70
      64
  3
CADPAC LINETYPE
 72
      65
 73
       2
 40
528.82074557
 49
352.54716371
 74
       0
 49
-176.27358186
 74
       0
  0
LTYPE
  5
21
100
AcDbSymbolTableRecord
100
AcDbLinetypeTableRecord
  2
DASHED2
 70
      64
  3
CADPAC LINETYPE
 72
      65
 73
       2
 40
396.61555917
 49
264.41037278
 74
       0
 49
-132.20518639
 74
       0
  0
LTYPE
  5
22
100
AcDbSymbolTableRecord
100
AcDbLinetypeTableRecord
  2
DASHEDX2
 70
      64
  3
CADPAC LINETYPE
 72
      65
 73
       2
 40
793.23111835
 49
528.82074557
 74
       0
 49
-264.41037278
 74
       0
  0
LTYPE
  5
23
100
AcDbSymbolTableRecord
100
AcDbLinetypeTableRecord
  2
DOTX2
 70
      64
  3
CADPAC LINETYPE
 72
      65
 73
       2
 40
220.34197732
 49
0.0
 74
       0
 49
-220.34197732
 74
       0
  0
LTYPE
  5
24
100
AcDbSymbolTableRecord
100
AcDbLinetypeTableRecord
  2
DOT
 70
      64
  3
CADPAC LINETYPE
 72
      65
 73
       2
 40
176.27358186
 49
0.0
 74
       0
 49
-176.27358186
 74
       0
  0
LTYPE
  5
25
100
AcDbSymbolTableRecord
100
AcDbLinetypeTableRecord
  2
DOT2
 70
      64
  3
CADPAC LINETYPE
 72
      65
 73
       2
 40
132.20518639
 49
0.0
 74
       0
 49
-132.20518639
 74
       0
  0
LTYPE
  5
26
100
AcDbSymbolTableRecord
100
AcDbLinetypeTableRecord
  2
CENTERX2
 70
      64
  3
CADPAC LINETYPE
 72
      65
 73
       4
 40
1057.64149113
 49
440.68395464
 74
       0
 49
-220.34197732
 74
       0
 49
176.27358186
 74
       0
 49
-220.34197732
 74
       0
  0
LTYPE
  5
27
100
AcDbSymbolTableRecord
100
AcDbLinetypeTableRecord
  2
CENTER
 70
      64
  3
CADPAC LINETYPE
 72
      65
 73
       4
 40
810.85847653
 49
352.54716371
 74
       0
 49
-176.27358186
 74
       0
 49
105.76414911
 74
       0
 49
-176.27358186
 74
       0
  0
LTYPE
  5
28
100
AcDbSymbolTableRecord
100
AcDbLinetypeTableRecord
  2
CENTER2
 70
      64
  3
CADPAC LINETYPE
 72
      65
 73
       4
 40
564.07546194
 49
264.41037278
 74
       0
 49
-132.20518639
 74
       0
 49
35.25471637
 74
       0
 49
-132.20518639
 74
       0
  0
LTYPE
  5
29
100
AcDbSymbolTableRecord
100
AcDbLinetypeTableRecord
  2
DASHDOTX2
 70
      64
  3
CADPAC LINETYPE
 72
      65
 73
       4
 40
881.36790928
 49
440.68395464
 74
       0
 49
-220.34197732
 74
       0
 49
0.0
 74
       0
 49
-220.34197732
 74
       0
  0
LTYPE
  5
2A
100
AcDbSymbolTableRecord
100
AcDbLinetypeTableRecord
  2
DASHDOT
 70
      64
  3
CADPAC LINETYPE
 72
      65
 73
       4
 40
705.09432742
 49
352.54716371
 74
       0
 49
-176.27358186
 74
       0
 49
0.0
 74
       0
 49
-176.27358186
 74
       0
  0
LTYPE
  5
2B
100
AcDbSymbolTableRecord
100
AcDbLinetypeTableRecord
  2
DASHDOT2
 70
      64
  3
CADPAC LINETYPE
 72
      65
 73
       4
 40
528.82074557
 49
264.41037278
 74
       0
 49
-132.20518639
 74
       0
 49
0.0
 74
       0
 49
-132.20518639
 74
       0
  0
LTYPE
  5
2C
100
AcDbSymbolTableRecord
100
AcDbLinetypeTableRecord
  2
DIVIDEX2
 70
      64
  3
CADPAC LINETYPE
 72
      65
 73
       6
 40
1101.70988659
 49
440.68395464
 74
       0
 49
-220.34197732
 74
       0
 49
0.0
 74
       0
 49
-220.34197732
 74
       0
 49
0.0
 74
       0
 49
-220.34197732
 74
       0
  0
LTYPE
  5
2D
100
AcDbSymbolTableRecord
100
AcDbLinetypeTableRecord
  2
DIVIDE
 70
      64
  3
CADPAC LINETYPE
 72
      65
 73
       6
 40
881.36790928
 49
352.54716371
 74
       0
 49
-176.27358186
 74
       0
 49
0.0
 74
       0
 49
-176.27358186
 74
       0
 49
0.0
 74
       0
 49
-176.27358186
 74
       0
  0
LTYPE
  5
2E
100
AcDbSymbolTableRecord
100
AcDbLinetypeTableRecord
  2
DIVIDE2
 70
      64
  3
CADPAC LINETYPE
 72
      65
 73
       6
 40
661.02593196
 49
264.41037278
 74
       0
 49
-132.20518639
 74
       0
 49
0.0
 74
       0
 49
-132.20518639
 74
       0
 49
0.0
 74
       0
 49
-132.20518639
 74
       0
  0
LTYPE
  5
2F
100
AcDbSymbolTableRecord
100
AcDbLinetypeTableRecord
  2
BORDERX2
 70
      64
  3
CADPAC LINETYPE
 72
      65
 73
       6
 40
1542.39384123
 49
440.68395464
 74
       0
 49
-220.34197732
 74
       0
 49
440.68395464
 74
       0
 49
-220.34197732
 74
       0
 49
0.0
 74
       0
 49
-220.34197732
 74
       0
  0
LTYPE
  5
30
100
AcDbSymbolTableRecord
100
AcDbLinetypeTableRecord
  2
BORDER
 70
      64
  3
CADPAC LINETYPE
 72
      65
 73
       6
 40
1233.91507299
 49
352.54716371
 74
       0
 49
-176.27358186
 74
       0
 49
352.54716371
 74
       0
 49
-176.27358186
 74
       0
 49
0.0
 74
       0
 49
-176.27358186
 74
       0
  0
LTYPE
  5
31
100
AcDbSymbolTableRecord
100
AcDbLinetypeTableRecord
  2
BORDER2
 70
      64
  3
CADPAC LINETYPE
 72
      65
 73
       6
 40
925.43630474
 49
264.41037278
 74
       0
 49
-132.20518639
 74
       0
 49
264.41037278
 74
       0
 49
-132.20518639
 74
       0
 49
0.0
 74
       0
 49
-132.20518639
 74
       0
  0
LTYPE
  5
32
100
AcDbSymbolTableRecord
100
AcDbLinetypeTableRecord
  2
PHANTOMX2
 70
      64
  3
CADPAC LINETYPE
 72
      65
 73
       6
 40
1322.05186391
 49
440.68395464
 74
       0
 49
-176.27358186
 74
       0
 49
176.27358186
 74
       0
 49
-176.27358186
 74
       0
 49
176.27358186
 74
       0
 49
-176.27358186
 74
       0
  0
LTYPE
  5
33
100
AcDbSymbolTableRecord
100
AcDbLinetypeTableRecord
  2
PHANTOM
 70
      64
  3
CADPAC LINETYPE
 72
      65
 73
       6
 40
1092.8962075
 49
352.54716371
 74
       0
 49
-176.27358186
 74
       0
 49
105.76414911
 74
       0
 49
-176.27358186
 74
       0
 49
105.76414911
 74
       0
 49
-176.27358186
 74
       0
  0
LTYPE
  5
34
100
AcDbSymbolTableRecord
100
AcDbLinetypeTableRecord
  2
PHANTOM2
 70
      64
  3
CADPAC LINETYPE
 72
      65
 73
       6
 40
934.24998383
 49
264.41037278
 74
       0
 49
-176.27358186
 74
       0
 49
70.50943274
 74
       0
 49
-176.27358186
 74
       0
 49
70.50943274
 74
       0
 49
-176.27358186
 74
       0
  0
LTYPE
  5
35
100
AcDbSymbolTableRecord
100
AcDbLinetypeTableRecord
  2
ACAD_ISO06W100
 70
      64
  3
CADPAC LINETYPE
 72
      65
 73
       8
 40
1189.84667752
 49
440.68395464
 74
       0
 49
-220.34197732
 74
       0
 49
0.0
 74
       0
 49
-176.27358186
 74
       0
 49
0.0
 74
       0
 49
-176.27358186
 74
       0
 49
0.0
 74
       0
 49
-176.27358186
 74
       0
  0
LTYPE
  5
36
100
AcDbSymbolTableRecord
100
AcDbLinetypeTableRecord
  2
ACAD_ISO13W100
 70
      64
  3
CADPAC LINETYPE
 72
      65
 73
       8
 40
1410.18865484
 49
352.54716371
 74
       0
 49
-176.27358186
 74
       0
 49
352.54716371
 74
       0
 49
-176.27358186
 74
       0
 49
0.0
 74
       0
 49
-176.27358186
 74
       0
 49
0.0
 74
       0
 49
-176.27358186
 74
       0
  0
LTYPE
  5
37
100
AcDbSymbolTableRecord
100
AcDbLinetypeTableRecord
  2
ACAD_ISO14W100
 70
      64
  3
CADPAC LINETYPE
 72
      65
 73
       8
 40
1057.64149113
 49
352.54716371
 74
       0
 49
-176.27358186
 74
       0
 49
0.0
 74
       0
 49
-176.27358186
 74
       0
 49
0.0
 74
       0
 49
-176.27358186
 74
       0
 49
0.0
 74
       0
 49
-176.27358186
 74
       0
  0
ENDTAB
  0
TABLE
  2
LAYER
  5
2
100
AcDbSymbolTable
 70
       3
  0
LAYER
  5
14
100
AcDbSymbolTableRecord
100
AcDbLayerTableRecord
  2
0
 70
       0
 62
       7
  6
CONTINUOUS
  0
LAYER
  5
38
100
AcDbSymbolTableRecord
100
AcDbLayerTableRecord
  2
D-STR
 70
       0
 62
       7
  6
CONTINUOUS
  0
LAYER
  5
39
100
AcDbSymbolTableRecord
100
AcDbLayerTableRecord
  2
D-STR-TXT
 70
       0
 62
       7
  6
CONTINUOUS
  0
ENDTAB
  0
TABLE
  2
STYLE
  5
3
100
AcDbSymbolTable
 70
       1
  0
STYLE
  5
17
100
AcDbSymbolTableRecord
100
AcDbTextStyleTableRecord
  2
STANDARD
 70
       0
 40
0.0
 41
1.0
 50
0.0
 71
       0
 42
523.99994606
  3
MS Gothic.ttf
  4

1001
ACAD
1000
MS Gothic
1071
    32786
  0
ENDTAB
  0
TABLE
  2
VIEW
  5
5
100
AcDbSymbolTable
 70
       1
  0
VIEW
  5
3A
100
AcDbSymbolTableRecord
100
AcDbViewTableRecord
  2
QQQQ
 70
       0
 40
397786.69905341
 10
50031.51484995
 20
261.99997303
 41
130071.039411
 11
0.0
 21
0.0
 31
1.0
 12
100.0
 22
100.0
 32
0.0
 42
50.0
 43
0.0
 44
0.0
 50
0.0
 71
       0
  0
ENDTAB
  0
TABLE
  2
UCS
  5
6
100
AcDbSymbolTable
 70
       0
  0
ENDTAB
  0
TABLE
  2
APPID
  5
8
100
AcDbSymbolTable
 70
       1
  0
APPID
  5
16
100
AcDbSymbolTableRecord
100
AcDbRegAppTableRecord
  2
ACAD
 70
       0
  0
ENDTAB
  0
TABLE
  2
DIMSTYLE
  5
9
100
AcDbSymbolTable
 70
       1
  0
DIMSTYLE
105
18
100
AcDbSymbolTableRecord
100
AcDbDimStyleTableRecord
  2
STANDARD
 70
       0
  3

  4

  5

  6

  7

 40
1.0
 41
0.18
 42
0.0625
 43
0.38
 44
0.18
 45
0.0
 46
0.0
 47
0.0
 48
0.0
 71
       0
 72
       0
 73
       1
 74
       1
 75
       0
 76
       0
 77
       0
 78
       0
140
0.18
141
0.09
142
0.0
143
25.4
144
1.0
145
0.0
146
1.0
147
0.09
170
       0
171
       2
172
       0
173
       0
174
       0
175
       0
176
       0
177
       0
178
       0
270
       2
271
       4
272
       4
273
       2
274
       2
275
       0
280
       0
281
       0
282
       0
283
       1
284
       0
285
       0
286
       0
287
       0
288
       0
340
17
  0
ENDTAB
  0
TABLE
  2
BLOCK_RECORD
  5
1
100
AcDbSymbolTable
 70
      54
  0
BLOCK_RECORD
  5
A
100
AcDbSymbolTableRecord
100
AcDbBlockTableRecord
  2
*MODEL_SPACE
  0
BLOCK_RECORD
  5
B
100
AcDbSymbolTableRecord
100
AcDbBlockTableRecord
  2
*PAPER_SPACE
  0
BLOCK_RECORD
  5
3B
100
AcDbSymbolTableRecord
100
AcDbBlockTableRecord
  2
GROUP_1
  0
BLOCK_RECORD
  5
3C
100
AcDbSymbolTableRecord
100
AcDbBlockTableRecord
  2
GROUP_2
  0
BLOCK_RECORD
  5
3D
100
AcDbSymbolTableRecord
100
AcDbBlockTableRecord
  2
GROUP_3
  0
BLOCK_RECORD
  5
3E
100
AcDbSymbolTableRecord
100
AcDbBlockTableRecord
  2
GROUP_4
  0
BLOCK_RECORD
  5
3F
100
AcDbSymbolTableRecord
100
AcDbBlockTableRecord
  2
GROUP_5
  0
BLOCK_RECORD
  5
40
100
AcDbSymbolTableRecord
100
AcDbBlockTableRecord
  2
GROUP_6
  0
BLOCK_RECORD
  5
41
100
AcDbSymbolTableRecord
100
AcDbBlockTableRecord
  2
GROUP_7
  0
BLOCK_RECORD
  5
42
100
AcDbSymbolTableRecord
100
AcDbBlockTableRecord
  2
GROUP_8
  0
BLOCK_RECORD
  5
43
100
AcDbSymbolTableRecord
100
AcDbBlockTableRecord
  2
GROUP_9
  0
BLOCK_RECORD
  5
44
100
AcDbSymbolTableRecord
100
AcDbBlockTableRecord
  2
GROUP_10
  0
BLOCK_RECORD
  5
45
100
AcDbSymbolTableRecord
100
AcDbBlockTableRecord
  2
GROUP_11
  0
BLOCK_RECORD
  5
46
100
AcDbSymbolTableRecord
100
AcDbBlockTableRecord
  2
GROUP_12
  0
BLOCK_RECORD
  5
47
100
AcDbSymbolTableRecord
100
AcDbBlockTableRecord
  2
GROUP_13
  0
BLOCK_RECORD
  5
48
100
AcDbSymbolTableRecord
100
AcDbBlockTableRecord
  2
GROUP_14
  0
BLOCK_RECORD
  5
49
100
AcDbSymbolTableRecord
100
AcDbBlockTableRecord
  2
GROUP_15
  0
BLOCK_RECORD
  5
4A
100
AcDbSymbolTableRecord
100
AcDbBlockTableRecord
  2
GROUP_16
  0
BLOCK_RECORD
  5
4B
100
AcDbSymbolTableRecord
100
AcDbBlockTableRecord
  2
GROUP_17
  0
BLOCK_RECORD
  5
4C
100
AcDbSymbolTableRecord
100
AcDbBlockTableRecord
  2
GROUP_18
  0
BLOCK_RECORD
  5
4D
100
AcDbSymbolTableRecord
100
AcDbBlockTableRecord
  2
GROUP_19
  0
BLOCK_RECORD
  5
4E
100
AcDbSymbolTableRecord
100
AcDbBlockTableRecord
  2
GROUP_20
  0
BLOCK_RECORD
  5
4F
100
AcDbSymbolTableRecord
100
AcDbBlockTableRecord
  2
GROUP_21
  0
BLOCK_RECORD
  5
50
100
AcDbSymbolTableRecord
100
AcDbBlockTableRecord
  2
GROUP_22
  0
BLOCK_RECORD
  5
51
100
AcDbSymbolTableRecord
100
AcDbBlockTableRecord
  2
GROUP_23
  0
BLOCK_RECORD
  5
52
100
AcDbSymbolTableRecord
100
AcDbBlockTableRecord
  2
GROUP_24
  0
BLOCK_RECORD
  5
53
100
AcDbSymbolTableRecord
100
AcDbBlockTableRecord
  2
GROUP_25
  0
BLOCK_RECORD
  5
54
100
AcDbSymbolTableRecord
100
AcDbBlockTableRecord
  2
GROUP_26
  0
BLOCK_RECORD
  5
55
100
AcDbSymbolTableRecord
100
AcDbBlockTableRecord
  2
GROUP_27
  0
BLOCK_RECORD
  5
56
100
AcDbSymbolTableRecord
100
AcDbBlockTableRecord
  2
GROUP_28
  0
BLOCK_RECORD
  5
57
100
AcDbSymbolTableRecord
100
AcDbBlockTableRecord
  2
GROUP_29
  0
BLOCK_RECORD
  5
58
100
AcDbSymbolTableRecord
100
AcDbBlockTableRecord
  2
GROUP_30
  0
BLOCK_RECORD
  5
59
100
AcDbSymbolTableRecord
100
AcDbBlockTableRecord
  2
GROUP_31
  0
BLOCK_RECORD
  5
5A
100
AcDbSymbolTableRecord
100
AcDbBlockTableRecord
  2
GROUP_32
  0
BLOCK_RECORD
  5
5B
100
AcDbSymbolTableRecord
100
AcDbBlockTableRecord
  2
GROUP_33
  0
BLOCK_RECORD
  5
5C
100
AcDbSymbolTableRecord
100
AcDbBlockTableRecord
  2
GROUP_34
  0
BLOCK_RECORD
  5
5D
100
AcDbSymbolTableRecord
100
AcDbBlockTableRecord
  2
GROUP_35
  0
BLOCK_RECORD
  5
5E
100
AcDbSymbolTableRecord
100
AcDbBlockTableRecord
  2
GROUP_36
  0
BLOCK_RECORD
  5
5F
100
AcDbSymbolTableRecord
100
AcDbBlockTableRecord
  2
GROUP_37
  0
BLOCK_RECORD
  5
60
100
AcDbSymbolTableRecord
100
AcDbBlockTableRecord
  2
GROUP_38
  0
BLOCK_RECORD
  5
61
100
AcDbSymbolTableRecord
100
AcDbBlockTableRecord
  2
GROUP_39
  0
BLOCK_RECORD
  5
62
100
AcDbSymbolTableRecord
100
AcDbBlockTableRecord
  2
GROUP_40
  0
BLOCK_RECORD
  5
63
100
AcDbSymbolTableRecord
100
AcDbBlockTableRecord
  2
GROUP_41
  0
BLOCK_RECORD
  5
64
100
AcDbSymbolTableRecord
100
AcDbBlockTableRecord
  2
GROUP_42
  0
BLOCK_RECORD
  5
65
100
AcDbSymbolTableRecord
100
AcDbBlockTableRecord
  2
GROUP_43
  0
BLOCK_RECORD
  5
66
100
AcDbSymbolTableRecord
100
AcDbBlockTableRecord
  2
GROUP_44
  0
BLOCK_RECORD
  5
67
100
AcDbSymbolTableRecord
100
AcDbBlockTableRecord
  2
GROUP_45
  0
BLOCK_RECORD
  5
68
100
AcDbSymbolTableRecord
100
AcDbBlockTableRecord
  2
GROUP_46
  0
BLOCK_RECORD
  5
69
100
AcDbSymbolTableRecord
100
AcDbBlockTableRecord
  2
GROUP_47
  0
BLOCK_RECORD
  5
6A
100
AcDbSymbolTableRecord
100
AcDbBlockTableRecord
  2
GROUP_48
  0
BLOCK_RECORD
  5
6B
100
AcDbSymbolTableRecord
100
AcDbBlockTableRecord
  2
GROUP_49
  0
BLOCK_RECORD
  5
6C
100
AcDbSymbolTableRecord
100
AcDbBlockTableRecord
  2
GROUP_50
  0
BLOCK_RECORD
  5
6D
100
AcDbSymbolTableRecord
100
AcDbBlockTableRecord
  2
GROUP_51
  0
BLOCK_RECORD
  5
6E
100
AcDbSymbolTableRecord
100
AcDbBlockTableRecord
  2
GROUP_52
  0
BLOCK_RECORD
  5
6F
100
AcDbSymbolTableRecord
100
AcDbBlockTableRecord
  2
GROUP_53
  0
BLOCK_RECORD
  5
70
100
AcDbSymbolTableRecord
100
AcDbBlockTableRecord
  2
GROUP_54
  0
ENDTAB
  0
ENDSEC
  0
SECTION
  2
BLOCKS
  0
BLOCK
  5
D
100
AcDbEntity
  8
0
100
AcDbBlockBegin
  2
*MODEL_SPACE
 70
       0
 10
0.0
 20
0.0
 30
0.0
  3
*MODEL_SPACE
  1

  0
ENDBLK
  5
E
100
AcDbEntity
  8
0
100
AcDbBlockEnd
  0
BLOCK
  5
F
100
AcDbEntity
 67
       1
  8
0
100
AcDbBlockBegin
  2
*PAPER_SPACE
 70
       0
 10
0.0
 20
0.0
 30
0.0
  3
*PAPER_SPACE
  1

  0
ENDBLK
  5
10
100
AcDbEntity
 67
       1
  8
0
100
AcDbBlockEnd
  0
BLOCK
  5
71
100
AcDbEntity
  8
0
100
AcDbBlockBegin
  2
GROUP_1
 70
       0
 10
0.0
 20
0.0
 30
0.0
  3
GROUP_1
  1

  0
LINE
  5
72
100
AcDbEntity
  8
D-STR
  6
CONTINUOUS
 62
       1
100
AcDbLine
 10
-5627.7594207
 20
177929.42168465
 30
0.0
 11
-5627.7594207
 21
179438.54152931
 31
0.0
  0
LINE
  5
73
100
AcDbEntity
  8
D-STR
  6
CONTINUOUS
 62
       1
100
AcDbLine
 10
-5732.55940991
 20
177929.42168465
 30
0.0
 11
-5732.55940991
 21
179438.54152931
 31
0.0
  0
LINE
  5
74
100
AcDbEntity
  8
D-STR
  6
CONTINUOUS
 62
       1
100
AcDbLine
 10
-5156.15946925
 20
177635.98171486
 30
0.0
 11
-6204.15936137
 21
177635.98171486
 31
0.0
  0
LINE
  5
75
100
AcDbEntity
  8
D-STR
  6
CONTINUOUS
 62
       1
100
AcDbLine
 10
-5879.27939481
 20
177782.70169975
 30
0.0
 11
-6204.15936137
 21
177782.70169975
 31
0.0
  0
LINE
  5
76
100
AcDbEntity
  8
D-STR
  6
CONTINUOUS
 62
       1
100
AcDbLine
 10
-5156.15946925
 20
177782.70169975
 30
0.0
 11
-5481.0394358
 21
177782.70169975
 31
0.0
  0
LINE
  5
77
100
AcDbEntity
  8
D-STR
  6
CONTINUOUS
 62
       1
100
AcDbLine
 10
-5156.15946925
 20
177635.98171486
 30
0.0
 11
-5156.15946925
 21
177782.70169975
 31
0.0
  0
ARC
  5
78
100
AcDbEntity
  8
D-STR
  6
CONTINUOUS
 62
       1
100
AcDbCircle
 10
-5481.0394358
 20
177929.42168465
 30
0.0
 40
146.7199849
100
AcDbArc
 50
180.0
 51
270.0
  0
ARC
  5
79
100
AcDbEntity
  8
D-STR
  6
CONTINUOUS
 62
       1
100
AcDbCircle
 10
-5879.27939481
 20
177929.42168465
 30
0.0
 40
146.7199849
100
AcDbArc
 50
270.0
 51
360.0
  0
LINE
  5
7A
100
AcDbEntity
  8
D-STR
  6
CONTINUOUS
 62
       1
100
AcDbLine
 10
-6204.15936137
 20
177635.98171486
 30
0.0
 11
-6204.15936137
 21
177782.70169975
 31
0.0
  0
LINE
  5
7B
100
AcDbEntity
  8
D-STR
  6
CONTINUOUS
 62
       1
100
AcDbLine
 10
-5156.15946925
 20
179731.9814991
 30
0.0
 11
-6204.15936137
 21
179731.9814991
 31
0.0
  0
LINE
  5
7C
100
AcDbEntity
  8
D-STR
  6
CONTINUOUS
 62
       1
100
AcDbLine
 10
-5879.27939481
 20
179585.2615142
 30
0.0
 11
-6204.15936137
 21
179585.2615142
 31
0.0
  0
LINE
  5
7D
100
AcDbEntity
  8
D-STR
  6
CONTINUOUS
 62
       1
100
AcDbLine
 10
-5156.15946925
 20
179585.2615142
 30
0.0
 11
-5481.0394358
 21
179585.2615142
 31
0.0
  0
LINE
  5
7E
100
AcDbEntity
  8
D-STR
  6
CONTINUOUS
 62
       1
100
AcDbLine
 10
-5156.15946925
 20
179585.2615142
 30
0.0
 11
-5156.15946925
 21
179731.9814991
 31
0.0
  0
ARC
  5
7F
100
AcDbEntity
  8
D-STR
  6
CONTINUOUS
 62
       1
100
AcDbCircle
 10
-5481.0394358
 20
179438.54152931
 30
0.0
 40
146.7199849
100
AcDbArc
 50
90.0
 51
180.0
  0
ARC
  5
80
100
AcDbEntity
  8
D-STR
  6
CONTINUOUS
 62
       1
100
AcDbCircle
 10
-5879.27939481
 20
179438.54152931
 30
0.0
 40
146.7199849
100
AcDbArc
 50
0.0
 51
90.0
  0
LINE
  5
81
100
AcDbEntity
  8
D-STR
  6
CONTINUOUS
 62
       1
100
AcDbLine
 10
-6204.15936137
 20
179585.2615142
 30
0.0
 11
-6204.15936137
 21
179731.9814991
 31
0.0
  0
ENDBLK
  5
82
100
AcDbEntity
  8
0
100
AcDbBlockEnd
  0
BLOCK
  5
83
100
AcDbEntity
  8
0
100
AcDbBlockBegin
  2
GROUP_2
 70
       0
 10
0.0
 20
0.0
 30
0.0
  3
GROUP_2
  1

  0
LINE
  5
84
100
AcDbEntity
  8
D-STR
  6
CONTINUOUS
 62
       1
100
AcDbLine
 10
-5051.35948003
 20
176158.30186696
 30
0.0
 11
-5449.59943904
 21
176158.30186696
 31
0.0
  0
LINE
  5
85
100
AcDbEntity
  8
D-STR
  6
CONTINUOUS
 62
       1
100
AcDbLine
 10
-5051.35948003
 20
176325.9818497
 30
0.0
 11
-6308.95935058
 21
176325.9818497
 31
0.0
  0
LINE
  5
86
100
AcDbEntity
  8
D-STR
  6
CONTINUOUS
 62
       1
100
AcDbLine
 10
-5051.35948003
 20
173873.66210213
 30
0.0
 11
-5449.59943904
 21
173873.66210213
 31
0.0
  0
LINE
  5
87
100
AcDbEntity
  8
D-STR
  6
CONTINUOUS
 62
       1
100
AcDbLine
 10
-5051.35948003
 20
173705.98211939
 30
0.0
 11
-6308.95935058
 21
173705.98211939
 31
0.0
  0
LINE
  5
88
100
AcDbEntity
  8
D-STR
  6
CONTINUOUS
 62
       1
100
AcDbLine
 10
-5051.35948003
 20
173873.66210213
 30
0.0
 11
-5051.35948003
 21
173705.98211939
 31
0.0
  0
LINE
  5
89
100
AcDbEntity
  8
D-STR
  6
CONTINUOUS
 62
       1
100
AcDbLine
 10
-5051.35948003
 20
176325.9818497
 30
0.0
 11
-5051.35948003
 21
176158.30186696
 31
0.0
  0
LINE
  5
8A
100
AcDbEntity
  8
D-STR
  6
CONTINUOUS
 62
       1
100
AcDbLine
 10
-5617.27942178
 20
175990.62188422
 30
0.0
 11
-5617.27942178
 21
174041.34208487
 31
0.0
  0
LINE
  5
8B
100
AcDbEntity
  8
D-STR
  6
CONTINUOUS
 62
       1
100
AcDbLine
 10
-5743.03940883
 20
175990.62188422
 30
0.0
 11
-5743.03940883
 21
174041.34208487
 31
0.0
  0
LINE
  5
8C
100
AcDbEntity
  8
D-STR
  6
CONTINUOUS
 62
       1
100
AcDbLine
 10
-5910.71939157
 20
173873.66210213
 30
0.0
 11
-6308.95935058
 21
173873.66210213
 31
0.0
  0
LINE
  5
8D
100
AcDbEntity
  8
D-STR
  6
CONTINUOUS
 62
       1
100
AcDbLine
 10
-6308.95935058
 20
173873.66210213
 30
0.0
 11
-6308.95935058
 21
173705.98211939
 31
0.0
  0
ARC
  5
8E
100
AcDbEntity
  8
D-STR
  6
CONTINUOUS
 62
       1
100
AcDbCircle
 10
-5449.59943904
 20
174041.34208487
 30
0.0
 40
167.67998274
100
AcDbArc
 50
180.0
 51
270.0
  0
ARC
  5
8F
100
AcDbEntity
  8
D-STR
  6
CONTINUOUS
 62
       1
100
AcDbCircle
 10
-5910.71939157
 20
174041.34208487
 30
0.0
 40
167.67998274
100
AcDbArc
 50
270.0
 51
360.0
  0
LINE
  5
90
100
AcDbEntity
  8
D-STR
  6
CONTINUOUS
 62
       1
100
AcDbLine
 10
-5910.71939157
 20
176158.30186696
 30
0.0
 11
-6308.95935058
 21
176158.30186696
 31
0.0
  0
LINE
  5
91
100
AcDbEntity
  8
D-STR
  6
CONTINUOUS
 62
       1
100
AcDbLine
 10
-6308.95935058
 20
176325.9818497
 30
0.0
 11
-6308.95935058
 21
176158.30186696
 31
0.0
  0
ARC
  5
92
100
AcDbEntity
  8
D-STR
  6
CONTINUOUS
 62
       1
100
AcDbCircle
 10
-5449.59943904
 20
175990.62188422
 30
0.0
 40
167.67998274
100
AcDbArc
 50
90.0
 51
180.0
  0
ARC
  5
93
100
AcDbEntity
  8
D-STR
  6
CONTINUOUS
 62
       1
100
AcDbCircle
 10
-5910.71939157
 20
175990.62188422
 30
0.0
 40
167.67998274
100
AcDbArc
 50
0.0
 51
90.0
  0
ENDBLK
  5
94
100
AcDbEntity
  8
0
100
AcDbBlockEnd
  0
BLOCK
  5
95
100
AcDbEntity
  8
0
100
AcDbBlockBegin
  2
GROUP_3
 70
       0
 10
0.0
 20
0.0
 30
0.0
  3
GROUP_3
  1

  0
LINE
  5
96
100
AcDbEntity
  8
D-STR
  6
CONTINUOUS
 62
       1
100
AcDbLine
 10
-6466.1593344
 20
168989.98260484
 30
0.0
 11
-6466.1593344
 21
169136.70258974
 31
0.0
  0
LINE
  5
97
100
AcDbEntity
  8
D-STR
  6
CONTINUOUS
 62
       1
100
AcDbLine
 10
-4894.15949621
 20
168989.98260484
 30
0.0
 11
-4894.15949621
 21
169136.70258974
 31
0.0
  0
LINE
  5
98
100
AcDbEntity
  8
D-STR
  6
CONTINUOUS
 62
       1
100
AcDbLine
 10
-4894.15949621
 20
168989.98260484
 30
0.0
 11
-6466.1593344
 21
168989.98260484
 31
0.0
  0
ARC
  5
99
100
AcDbEntity
  8
D-STR
  6
CONTINUOUS
 62
       1
100
AcDbCircle
 10
-5481.0394358
 20
171840.54231142
 30
0.0
 40
146.7199849
100
AcDbArc
 50
90.0
 51
180.0
  0
LINE
  5
9A
100
AcDbEntity
  8
D-STR
  6
CONTINUOUS
 62
       1
100
AcDbLine
 10
-4894.15949621
 20
172133.98228121
 30
0.0
 11
-6466.1593344
 21
172133.98228121
 31
0.0
  0
ARC
  5
9B
100
AcDbEntity
  8
D-STR
  6
CONTINUOUS
 62
       1
100
AcDbCircle
 10
-5481.0394358
 20
169283.42257463
 30
0.0
 40
146.7199849
100
AcDbArc
 50
180.0
 51
270.0
  0
LINE
  5
9C
100
AcDbEntity
  8
D-STR
  6
CONTINUOUS
 62
       1
100
AcDbLine
 10
-4894.15949621
 20
169136.70258974
 30
0.0
 11
-5481.0394358
 21
169136.70258974
 31
0.0
  0
LINE
  5
9D
100
AcDbEntity
  8
D-STR
  6
CONTINUOUS
 62
       1
100
AcDbLine
 10
-4894.15949621
 20
171987.26229631
 30
0.0
 11
-5481.0394358
 21
171987.26229631
 31
0.0
  0
LINE
  5
9E
100
AcDbEntity
  8
D-STR
  6
CONTINUOUS
 62
       1
100
AcDbLine
 10
-4894.15949621
 20
171987.26229631
 30
0.0
 11
-4894.15949621
 21
172133.98228121
 31
0.0
  0
LINE
  5
9F
100
AcDbEntity
  8
D-STR
  6
CONTINUOUS
 62
       1
100
AcDbLine
 10
-5627.7594207
 20
169283.42257463
 30
0.0
 11
-5627.7594207
 21
171840.54231142
 31
0.0
  0
LINE
  5
A0
100
AcDbEntity
  8
D-STR
  6
CONTINUOUS
 62
       1
100
AcDbLine
 10
-5732.55940991
 20
169283.42257463
 30
0.0
 11
-5732.55940991
 21
171840.54231142
 31
0.0
  0
ARC
  5
A1
100
AcDbEntity
  8
D-STR
  6
CONTINUOUS
 62
       1
100
AcDbCircle
 10
-5879.27939481
 20
169283.42257463
 30
0.0
 40
146.7199849
100
AcDbArc
 50
270.0
 51
360.0
  0
LINE
  5
A2
100
AcDbEntity
  8
D-STR
  6
CONTINUOUS
 62
       1
100
AcDbLine
 10
-5879.27939481
 20
169136.70258974
 30
0.0
 11
-6466.1593344
 21
169136.70258974
 31
0.0
  0
LINE
  5
A3
100
AcDbEntity
  8
D-STR
  6
CONTINUOUS
 62
       1
100
AcDbLine
 10
-6466.1593344
 20
171987.26229631
 30
0.0
 11
-6466.1593344
 21
172133.98228121
 31
0.0
  0
ARC
  5
A4
100
AcDbEntity
  8
D-STR
  6
CONTINUOUS
 62
       1
100
AcDbCircle
 10
-5879.27939481
 20
171840.54231142
 30
0.0
 40
146.7199849
100
AcDbArc
 50
0.0
 51
90.0
  0
LINE
  5
A5
100
AcDbEntity
  8
D-STR
  6
CONTINUOUS
 62
       1
100
AcDbLine
 10
-5879.27939481
 20
171987.26229631
 30
0.0
 11
-6466.1593344
 21
171987.26229631
 31
0.0
  0
ENDBLK
  5
A6
100
AcDbEntity
  8
0
100
AcDbBlockEnd
  0
BLOCK
  5
A7
100
AcDbEntity
  8
0
100
AcDbBlockBegin
  2
GROUP_4
 70
       0
 10
0.0
 20
0.0
 30
0.0
  3
GROUP_4
  1

  0
ARC
  5
A8
100
AcDbEntity
  8
D-STR
  6
CONTINUOUS
 62
       1
100
AcDbCircle
 10
-5439.11944012
 20
163844.30313452
 30
0.0
 40
188.63998058
100
AcDbArc
 50
180.0
 51
270.0
  0
ARC
  5
A9
100
AcDbEntity
  8
D-STR
  6
CONTINUOUS
 62
       1
100
AcDbCircle
 10
-5921.1993905
 20
163844.30313452
 30
0.0
 40
188.63998058
100
AcDbArc
 50
270.0
 51
360.0
  0
LINE
  5
AA
100
AcDbEntity
  8
D-STR
  6
CONTINUOUS
 62
       1
100
AcDbLine
 10
-6623.35931822
 20
163487.98317119
 30
0.0
 11
-4736.9595124
 21
163487.98317119
 31
0.0
  0
LINE
  5
AB
100
AcDbEntity
  8
D-STR
  6
CONTINUOUS
 62
       1
100
AcDbLine
 10
-4736.9595124
 20
163655.66315393
 30
0.0
 11
-5439.11944012
 21
163655.66315393
 31
0.0
  0
LINE
  5
AC
100
AcDbEntity
  8
D-STR
  6
CONTINUOUS
 62
       1
100
AcDbLine
 10
-4736.9595124
 20
163487.98317119
 30
0.0
 11
-4736.9595124
 21
163655.66315393
 31
0.0
  0
LINE
  5
AD
100
AcDbEntity
  8
D-STR
  6
CONTINUOUS
 62
       1
100
AcDbLine
 10
-6623.35931822
 20
163655.66315393
 30
0.0
 11
-5921.1993905
 21
163655.66315393
 31
0.0
  0
LINE
  5
AE
100
AcDbEntity
  8
D-STR
  6
CONTINUOUS
 62
       1
100
AcDbLine
 10
-6623.35931822
 20
163487.98317119
 30
0.0
 11
-6623.35931822
 21
163655.66315393
 31
0.0
  0
ARC
  5
AF
100
AcDbEntity
  8
D-STR
  6
CONTINUOUS
 62
       1
100
AcDbCircle
 10
-5921.1993905
 20
166799.6628303
 30
0.0
 40
188.63998058
100
AcDbArc
 50
0.0
 51
90.0
  0
LINE
  5
B0
100
AcDbEntity
  8
D-STR
  6
CONTINUOUS
 62
       1
100
AcDbLine
 10
-6623.35931822
 20
167155.98279363
 30
0.0
 11
-4736.9595124
 21
167155.98279363
 31
0.0
  0
LINE
  5
B1
100
AcDbEntity
  8
D-STR
  6
CONTINUOUS
 62
       1
100
AcDbLine
 10
-5732.55940991
 20
163844.30313452
 30
0.0
 11
-5732.55940991
 21
166799.6628303
 31
0.0
  0
LINE
  5
B2
100
AcDbEntity
  8
D-STR
  6
CONTINUOUS
 62
       1
100
AcDbLine
 10
-5627.7594207
 20
163844.30313452
 30
0.0
 11
-5627.7594207
 21
166799.6628303
 31
0.0
  0
LINE
  5
B3
100
AcDbEntity
  8
D-STR
  6
CONTINUOUS
 62
       1
100
AcDbLine
 10
-4736.9595124
 20
166988.30281089
 30
0.0
 11
-5439.11944012
 21
166988.30281089
 31
0.0
  0
ARC
  5
B4
100
AcDbEntity
  8
D-STR
  6
CONTINUOUS
 62
       1
100
AcDbCircle
 10
-5439.11944012
 20
166799.6628303
 30
0.0
 40
188.63998058
100
AcDbArc
 50
90.0
 51
180.0
  0
LINE
  5
B5
100
AcDbEntity
  8
D-STR
  6
CONTINUOUS
 62
       1
100
AcDbLine
 10
-4736.9595124
 20
166988.30281089
 30
0.0
 11
-4736.9595124
 21
167155.98279363
 31
0.0
  0
LINE
  5
B6
100
AcDbEntity
  8
D-STR
  6
CONTINUOUS
 62
       1
100
AcDbLine
 10
-6623.35931822
 20
166988.30281089
 30
0.0
 11
-5921.1993905
 21
166988.30281089
 31
0.0
  0
LINE
  5
B7
100
AcDbEntity
  8
D-STR
  6
CONTINUOUS
 62
       1
100
AcDbLine
 10
-6623.35931822
 20
166988.30281089
 30
0.0
 11
-6623.35931822
 21
167155.98279363
 31
0.0
  0
ENDBLK
  5
B8
100
AcDbEntity
  8
0
100
AcDbBlockEnd
  0
BLOCK
  5
B9
100
AcDbEntity
  8
0
100
AcDbBlockBegin
  2
GROUP_5
 70
       0
 10
0.0
 20
0.0
 30
0.0
  3
GROUP_5
  1

  0
LINE
  5
BA
100
AcDbEntity
  8
D-STR
  6
CONTINUOUS
 62
       1
100
AcDbLine
 10
-5727.31941045
 20
157640.14377315
 30
0.0
 11
-5727.31941045
 21
161035.66342363
 31
0.0
  0
LINE
  5
BB
100
AcDbEntity
  8
D-STR
  6
CONTINUOUS
 62
       1
100
AcDbLine
 10
-5632.99942016
 20
157640.14377315
 30
0.0
 11
-5632.99942016
 21
161035.66342363
 31
0.0
  0
LINE
  5
BC
100
AcDbEntity
  8
D-STR
  6
CONTINUOUS
 62
       1
100
AcDbLine
 10
-6717.67930851
 20
157409.58379688
 30
0.0
 11
-5957.87938672
 21
157409.58379688
 31
0.0
  0
LINE
  5
BD
100
AcDbEntity
  8
D-STR
  6
CONTINUOUS
 62
       1
100
AcDbLine
 10
-6717.67930851
 20
157262.86381198
 30
0.0
 11
-4642.63952211
 21
157262.86381198
 31
0.0
  0
LINE
  5
BE
100
AcDbEntity
  8
D-STR
  6
CONTINUOUS
 62
       1
100
AcDbLine
 10
-5402.43944389
 20
157409.58379688
 30
0.0
 11
-4642.63952211
 21
157409.58379688
 31
0.0
  0
LINE
  5
BF
100
AcDbEntity
  8
D-STR
  6
CONTINUOUS
 62
       1
100
AcDbLine
 10
-4642.63952211
 20
157262.86381198
 30
0.0
 11
-4642.63952211
 21
157409.58379688
 31
0.0
  0
ARC
  5
C0
100
AcDbEntity
  8
D-STR
  6
CONTINUOUS
 62
       1
100
AcDbCircle
 10
-5402.43944389
 20
157640.14377315
 30
0.0
 40
230.55997627
100
AcDbArc
 50
180.0
 51
270.0
  0
ARC
  5
C1
100
AcDbEntity
  8
D-STR
  6
CONTINUOUS
 62
       1
100
AcDbCircle
 10
-5957.87938672
 20
157640.14377315
 30
0.0
 40
230.55997627
100
AcDbArc
 50
270.0
 51
360.0
  0
LINE
  5
C2
100
AcDbEntity
  8
D-STR
  6
CONTINUOUS
 62
       1
100
AcDbLine
 10
-6717.67930851
 20
157262.86381198
 30
0.0
 11
-6717.67930851
 21
157409.58379688
 31
0.0
  0
ARC
  5
C3
100
AcDbEntity
  8
D-STR
  6
CONTINUOUS
 62
       1
100
AcDbCircle
 10
-5402.43944389
 20
161035.66342363
 30
0.0
 40
230.55997627
100
AcDbArc
 50
90.0
 51
180.0
  0
ARC
  5
C4
100
AcDbEntity
  8
D-STR
  6
CONTINUOUS
 62
       1
100
AcDbCircle
 10
-5957.87938672
 20
161035.66342363
 30
0.0
 40
230.55997627
100
AcDbArc
 50
0.0
 51
90.0
  0
LINE
  5
C5
100
AcDbEntity
  8
D-STR
  6
CONTINUOUS
 62
       1
100
AcDbLine
 10
-6717.67930851
 20
161266.22339989
 30
0.0
 11
-6717.67930851
 21
161412.94338479
 31
0.0
  0
LINE
  5
C6
100
AcDbEntity
  8
D-STR
  6
CONTINUOUS
 62
       1
100
AcDbLine
 10
-4642.63952211
 20
161266.22339989
 30
0.0
 11
-4642.63952211
 21
161412.94338479
 31
0.0
  0
LINE
  5
C7
100
AcDbEntity
  8
D-STR
  6
CONTINUOUS
 62
       1
100
AcDbLine
 10
-6717.67930851
 20
161266.22339989
 30
0.0
 11
-5957.87938672
 21
161266.22339989
 31
0.0
  0
LINE
  5
C8
100
AcDbEntity
  8
D-STR
  6
CONTINUOUS
 62
       1
100
AcDbLine
 10
-5402.43944389
 20
161266.22339989
 30
0.0
 11
-4642.63952211
 21
161266.22339989
 31
0.0
  0
LINE
  5
C9
100
AcDbEntity
  8
D-STR
  6
CONTINUOUS
 62
       1
100
AcDbLine
 10
-6717.67930851
 20
161412.94338479
 30
0.0
 11
-4642.63952211
 21
161412.94338479
 31
0.0
  0
ENDBLK
  5
CA
100
AcDbEntity
  8
0
100
AcDbBlockEnd
  0
BLOCK
  5
CB
100
AcDbEntity
  8
0
100
AcDbBlockBegin
  2
GROUP_6
 70
       0
 10
0.0
 20
0.0
 30
0.0
  3
GROUP_6
  1

  0
LINE
  5
CC
100
AcDbEntity
  8
D-STR
  6
CONTINUOUS
 62
       1
100
AcDbLine
 10
-5732.55940991
 20
149884.94457144
 30
0.0
 11
-5732.55940991
 21
154244.62412267
 31
0.0
  0
LINE
  5
CD
100
AcDbEntity
  8
D-STR
  6
CONTINUOUS
 62
       1
100
AcDbLine
 10
-5627.7594207
 20
149884.94457144
 30
0.0
 11
-5627.7594207
 21
154244.62412267
 31
0.0
  0
LINE
  5
CE
100
AcDbEntity
  8
D-STR
  6
CONTINUOUS
 62
       1
100
AcDbLine
 10
-6979.67928154
 20
149633.42459733
 30
0.0
 11
-5984.07938402
 21
149633.42459733
 31
0.0
  0
LINE
  5
CF
100
AcDbEntity
  8
D-STR
  6
CONTINUOUS
 62
       1
100
AcDbLine
 10
-6979.67928154
 20
149465.74461459
 30
0.0
 11
-4380.63954907
 21
149465.74461459
 31
0.0
  0
LINE
  5
D0
100
AcDbEntity
  8
D-STR
  6
CONTINUOUS
 62
       1
100
AcDbLine
 10
-5376.23944659
 20
149633.42459733
 30
0.0
 11
-4380.63954907
 21
149633.42459733
 31
0.0
  0
LINE
  5
D1
100
AcDbEntity
  8
D-STR
  6
CONTINUOUS
 62
       1
100
AcDbLine
 10
-4380.63954907
 20
149465.74461459
 30
0.0
 11
-4380.63954907
 21
149633.42459733
 31
0.0
  0
ARC
  5
D2
100
AcDbEntity
  8
D-STR
  6
CONTINUOUS
 62
       1
100
AcDbCircle
 10
-5376.23944659
 20
149884.94457144
 30
0.0
 40
251.51997411
100
AcDbArc
 50
180.0
 51
270.0
  0
ARC
  5
D3
100
AcDbEntity
  8
D-STR
  6
CONTINUOUS
 62
       1
100
AcDbCircle
 10
-5984.07938402
 20
149884.94457144
 30
0.0
 40
251.51997411
100
AcDbArc
 50
270.0
 51
360.0
  0
LINE
  5
D4
100
AcDbEntity
  8
D-STR
  6
CONTINUOUS
 62
       1
100
AcDbLine
 10
-6979.67928154
 20
149465.74461459
 30
0.0
 11
-6979.67928154
 21
149633.42459733
 31
0.0
  0
LINE
  5
D5
100
AcDbEntity
  8
D-STR
  6
CONTINUOUS
 62
       1
100
AcDbLine
 10
-6979.67928154
 20
154496.14409678
 30
0.0
 11
-5984.07938402
 21
154496.14409678
 31
0.0
  0
LINE
  5
D6
100
AcDbEntity
  8
D-STR
  6
CONTINUOUS
 62
       1
100
AcDbLine
 10
-6979.67928154
 20
154663.82407952
 30
0.0
 11
-4380.63954907
 21
154663.82407952
 31
0.0
  0
LINE
  5
D7
100
AcDbEntity
  8
D-STR
  6
CONTINUOUS
 62
       1
100
AcDbLine
 10
-5376.23944659
 20
154496.14409678
 30
0.0
 11
-4380.63954907
 21
154496.14409678
 31
0.0
  0
LINE
  5
D8
100
AcDbEntity
  8
D-STR
  6
CONTINUOUS
 62
       1
100
AcDbLine
 10
-4380.63954907
 20
154496.14409678
 30
0.0
 11
-4380.63954907
 21
154663.82407952
 31
0.0
  0
ARC
  5
D9
100
AcDbEntity
  8
D-STR
  6
CONTINUOUS
 62
       1
100
AcDbCircle
 10
-5376.23944659
 20
154244.62412267
 30
0.0
 40
251.51997411
100
AcDbArc
 50
90.0
 51
180.0
  0
ARC
  5
DA
100
AcDbEntity
  8
D-STR
  6
CONTINUOUS
 62
       1
100
AcDbCircle
 10
-5984.07938402
 20
154244.62412267
 30
0.0
 40
251.51997411
100
AcDbArc
 50
0.0
 51
90.0
  0
LINE
  5
DB
100
AcDbEntity
  8
D-STR
  6
CONTINUOUS
 62
       1
100
AcDbLine
 10
-6979.67928154
 20
154496.14409678
 30
0.0
 11
-6979.67928154
 21
154663.82407952
 31
0.0
  0
ENDBLK
  5
DC
100
AcDbEntity
  8
0
100
AcDbBlockEnd
  0
BLOCK
  5
DD
100
AcDbEntity
  8
0
100
AcDbBlockBegin
  2
GROUP_7
 70
       0
 10
0.0
 20
0.0
 30
0.0
  3
GROUP_7
  1

  0
LINE
  5
DE
100
AcDbEntity
  8
D-STR
  6
CONTINUOUS
 62
       1
100
AcDbLine
 10
-5737.79940937
 20
140536.7855337
 30
0.0
 11
-5737.79940937
 21
145902.54498137
 31
0.0
  0
LINE
  5
DF
100
AcDbEntity
  8
D-STR
  6
CONTINUOUS
 62
       1
100
AcDbLine
 10
-5622.51942124
 20
140536.7855337
 30
0.0
 11
-5622.51942124
 21
145902.54498137
 31
0.0
  0
LINE
  5
E0
100
AcDbEntity
  8
D-STR
  6
CONTINUOUS
 62
       1
100
AcDbLine
 10
-5350.03944929
 20
140264.30556175
 30
0.0
 11
-4118.63957604
 21
140264.30556175
 31
0.0
  0
LINE
  5
E1
100
AcDbEntity
  8
D-STR
  6
CONTINUOUS
 62
       1
100
AcDbLine
 10
-7241.67925457
 20
140096.62557901
 30
0.0
 11
-4118.63957604
 21
140096.62557901
 31
0.0
  0
LINE
  5
E2
100
AcDbEntity
  8
D-STR
  6
CONTINUOUS
 62
       1
100
AcDbLine
 10
-4118.63957604
 20
140096.62557901
 30
0.0
 11
-4118.63957604
 21
140264.30556175
 31
0.0
  0
LINE
  5
E3
100
AcDbEntity
  8
D-STR
  6
CONTINUOUS
 62
       1
100
AcDbLine
 10
-6010.27938133
 20
140264.30556175
 30
0.0
 11
-7241.67925457
 21
140264.30556175
 31
0.0
  0
ARC
  5
E4
100
AcDbEntity
  8
D-STR
  6
CONTINUOUS
 62
       1
100
AcDbCircle
 10
-6010.27938133
 20
140536.7855337
 30
0.0
 40
272.47997195
100
AcDbArc
 50
270.0
 51
360.0
  0
ARC
  5
E5
100
AcDbEntity
  8
D-STR
  6
CONTINUOUS
 62
       1
100
AcDbCircle
 10
-5350.03944929
 20
140536.7855337
 30
0.0
 40
272.47997195
100
AcDbArc
 50
180.0
 51
270.0
  0
LINE
  5
E6
100
AcDbEntity
  8
D-STR
  6
CONTINUOUS
 62
       1
100
AcDbLine
 10
-7241.67925457
 20
140096.62557901
 30
0.0
 11
-7241.67925457
 21
140264.30556175
 31
0.0
  0
LINE
  5
E7
100
AcDbEntity
  8
D-STR
  6
CONTINUOUS
 62
       1
100
AcDbLine
 10
-5350.03944929
 20
146175.02495332
 30
0.0
 11
-4118.63957604
 21
146175.02495332
 31
0.0
  0
LINE
  5
E8
100
AcDbEntity
  8
D-STR
  6
CONTINUOUS
 62
       1
100
AcDbLine
 10
-7241.67925457
 20
146342.70493606
 30
0.0
 11
-4118.63957604
 21
146342.70493606
 31
0.0
  0
LINE
  5
E9
100
AcDbEntity
  8
D-STR
  6
CONTINUOUS
 62
       1
100
AcDbLine
 10
-4118.63957604
 20
146175.02495332
 30
0.0
 11
-4118.63957604
 21
146342.70493606
 31
0.0
  0
LINE
  5
EA
100
AcDbEntity
  8
D-STR
  6
CONTINUOUS
 62
       1
100
AcDbLine
 10
-6010.27938133
 20
146175.02495332
 30
0.0
 11
-7241.67925457
 21
146175.02495332
 31
0.0
  0
ARC
  5
EB
100
AcDbEntity
  8
D-STR
  6
CONTINUOUS
 62
       1
100
AcDbCircle
 10
-6010.27938133
 20
145902.54498137
 30
0.0
 40
272.47997195
100
AcDbArc
 50
0.0
 51
90.0
  0
ARC
  5
EC
100
AcDbEntity
  8
D-STR
  6
CONTINUOUS
 62
       1
100
AcDbCircle
 10
-5350.03944929
 20
145902.54498137
 30
0.0
 40
272.47997195
100
AcDbArc
 50
90.0
 51
180.0
  0
LINE
  5
ED
100
AcDbEntity
  8
D-STR
  6
CONTINUOUS
 62
       1
100
AcDbLine
 10
-7241.67925457
 20
146175.02495332
 30
0.0
 11
-7241.67925457
 21
146342.70493606
 31
0.0
  0
ENDBLK
  5
EE
100
AcDbEntity
  8
0
100
AcDbBlockEnd
  0
BLOCK
  5
EF
100
AcDbEntity
  8
0
100
AcDbBlockBegin
  2
GROUP_8
 70
       0
 10
0.0
 20
0.0
 30
0.0
  3
GROUP_8
  1

  0
LINE
  5
F0
100
AcDbEntity
  8
D-STR
  6
CONTINUOUS
 62
       1
100
AcDbLine
 10
-5743.03940883
 20
129700.46664915
 30
0.0
 11
-5743.03940883
 21
135988.46600189
 31
0.0
  0
LINE
  5
F1
100
AcDbEntity
  8
D-STR
  6
CONTINUOUS
 62
       1
100
AcDbLine
 10
-5617.27942178
 20
129700.46664915
 30
0.0
 11
-5617.27942178
 21
135988.46600189
 31
0.0
  0
LINE
  5
F2
100
AcDbEntity
  8
D-STR
  6
CONTINUOUS
 62
       1
100
AcDbLine
 10
-5323.83945199
 20
129407.02667935
 30
0.0
 11
-3856.63960301
 21
129407.02667935
 31
0.0
  0
LINE
  5
F3
100
AcDbEntity
  8
D-STR
  6
CONTINUOUS
 62
       1
100
AcDbLine
 10
-7503.6792276
 20
129218.38669877
 30
0.0
 11
-3856.63960301
 21
129218.38669877
 31
0.0
  0
LINE
  5
F4
100
AcDbEntity
  8
D-STR
  6
CONTINUOUS
 62
       1
100
AcDbLine
 10
-3856.63960301
 20
129218.38669877
 30
0.0
 11
-3856.63960301
 21
129407.02667935
 31
0.0
  0
LINE
  5
F5
100
AcDbEntity
  8
D-STR
  6
CONTINUOUS
 62
       1
100
AcDbLine
 10
-6036.47937863
 20
129407.02667935
 30
0.0
 11
-7503.6792276
 21
129407.02667935
 31
0.0
  0
ARC
  5
F6
100
AcDbEntity
  8
D-STR
  6
CONTINUOUS
 62
       1
100
AcDbCircle
 10
-5323.83945199
 20
129700.46664915
 30
0.0
 40
293.43996979
100
AcDbArc
 50
180.0
 51
270.0
  0
ARC
  5
F7
100
AcDbEntity
  8
D-STR
  6
CONTINUOUS
 62
       1
100
AcDbCircle
 10
-6036.47937863
 20
129700.46664915
 30
0.0
 40
293.43996979
100
AcDbArc
 50
270.0
 51
360.0
  0
LINE
  5
F8
100
AcDbEntity
  8
D-STR
  6
CONTINUOUS
 62
       1
100
AcDbLine
 10
-7503.6792276
 20
129218.38669877
 30
0.0
 11
-7503.6792276
 21
129407.02667935
 31
0.0
  0
LINE
  5
F9
100
AcDbEntity
  8
D-STR
  6
CONTINUOUS
 62
       1
100
AcDbLine
 10
-5323.83945199
 20
136281.90597168
 30
0.0
 11
-3856.63960301
 21
136281.90597168
 31
0.0
  0
LINE
  5
FA
100
AcDbEntity
  8
D-STR
  6
CONTINUOUS
 62
       1
100
AcDbLine
 10
-7503.6792276
 20
136470.54595226
 30
0.0
 11
-3856.63960301
 21
136470.54595226
 31
0.0
  0
LINE
  5
FB
100
AcDbEntity
  8
D-STR
  6
CONTINUOUS
 62
       1
100
AcDbLine
 10
-3856.63960301
 20
136281.90597168
 30
0.0
 11
-3856.63960301
 21
136470.54595226
 31
0.0
  0
LINE
  5
FC
100
AcDbEntity
  8
D-STR
  6
CONTINUOUS
 62
       1
100
AcDbLine
 10
-6036.47937863
 20
136281.90597168
 30
0.0
 11
-7503.6792276
 21
136281.90597168
 31
0.0
  0
ARC
  5
FD
100
AcDbEntity
  8
D-STR
  6
CONTINUOUS
 62
       1
100
AcDbCircle
 10
-5323.83945199
 20
135988.46600189
 30
0.0
 40
293.43996979
100
AcDbArc
 50
90.0
 51
180.0
  0
ARC
  5
FE
100
AcDbEntity
  8
D-STR
  6
CONTINUOUS
 62
       1
100
AcDbCircle
 10
-6036.47937863
 20
135988.46600189
 30
0.0
 40
293.43996979
100
AcDbArc
 50
0.0
 51
90.0
  0
LINE
  5
FF
100
AcDbEntity
  8
D-STR
  6
CONTINUOUS
 62
       1
100
AcDbLine
 10
-7503.6792276
 20
136281.90597168
 30
0.0
 11
-7503.6792276
 21
136470.54595226
 31
0.0
  0
ENDBLK
  5
100
100
AcDbEntity
  8
0
100
AcDbBlockEnd
  0
BLOCK
  5
101
100
AcDbEntity
  8
0
100
AcDbBlockBegin
  2
GROUP_9
 70
       0
 10
0.0
 20
0.0
 30
0.0
  3
GROUP_9
  1

  0
LINE
  5
102
100
AcDbEntity
  8
D-STR
  6
CONTINUOUS
 62
       1
100
AcDbLine
 10
-5753.51940776
 20
117334.0679221
 30
0.0
 11
-5753.51940776
 21
124502.38718422
 31
0.0
  0
LINE
  5
103
100
AcDbEntity
  8
D-STR
  6
CONTINUOUS
 62
       1
100
AcDbLine
 10
-5606.79942286
 20
117334.0679221
 30
0.0
 11
-5606.79942286
 21
124502.38718422
 31
0.0
  0
ARC
  5
104
100
AcDbEntity
  8
D-STR
  6
CONTINUOUS
 62
       1
100
AcDbCircle
 10
-5271.43945738
 20
117334.0679221
 30
0.0
 40
335.35996548
100
AcDbArc
 50
180.0
 51
270.0
  0
LINE
  5
105
100
AcDbEntity
  8
D-STR
  6
CONTINUOUS
 62
       1
100
AcDbLine
 10
-7765.67920063
 20
116768.14798035
 30
0.0
 11
-3594.63962998
 21
116768.14798035
 31
0.0
  0
LINE
  5
106
100
AcDbEntity
  8
D-STR
  6
CONTINUOUS
 62
       1
100
AcDbLine
 10
-5271.43945738
 20
116998.70795662
 30
0.0
 11
-3594.63962998
 21
116998.70795662
 31
0.0
  0
LINE
  5
107
100
AcDbEntity
  8
D-STR
  6
CONTINUOUS
 62
       1
100
AcDbLine
 10
-3594.63962998
 20
116768.14798035
 30
0.0
 11
-3594.63962998
 21
116998.70795662
 31
0.0
  0
LINE
  5
108
100
AcDbEntity
  8
D-STR
  6
CONTINUOUS
 62
       1
100
AcDbLine
 10
-7765.67920063
 20
116998.70795662
 30
0.0
 11
-6088.87937323
 21
116998.70795662
 31
0.0
  0
ARC
  5
109
100
AcDbEntity
  8
D-STR
  6
CONTINUOUS
 62
       1
100
AcDbCircle
 10
-6088.87937323
 20
117334.0679221
 30
0.0
 40
335.35996548
100
AcDbArc
 50
270.0
 51
360.0
  0
LINE
  5
10A
100
AcDbEntity
  8
D-STR
  6
CONTINUOUS
 62
       1
100
AcDbLine
 10
-7765.67920063
 20
116768.14798035
 30
0.0
 11
-7765.67920063
 21
116998.70795662
 31
0.0
  0
ARC
  5
10B
100
AcDbEntity
  8
D-STR
  6
CONTINUOUS
 62
       1
100
AcDbCircle
 10
-5271.43945738
 20
124502.38718422
 30
0.0
 40
335.35996548
100
AcDbArc
 50
90.0
 51
180.0
  0
LINE
  5
10C
100
AcDbEntity
  8
D-STR
  6
CONTINUOUS
 62
       1
100
AcDbLine
 10
-7765.67920063
 20
125068.30712596
 30
0.0
 11
-3594.63962998
 21
125068.30712596
 31
0.0
  0
LINE
  5
10D
100
AcDbEntity
  8
D-STR
  6
CONTINUOUS
 62
       1
100
AcDbLine
 10
-5271.43945738
 20
124837.7471497
 30
0.0
 11
-3594.63962998
 21
124837.7471497
 31
0.0
  0
LINE
  5
10E
100
AcDbEntity
  8
D-STR
  6
CONTINUOUS
 62
       1
100
AcDbLine
 10
-3594.63962998
 20
124837.7471497
 30
0.0
 11
-3594.63962998
 21
125068.30712596
 31
0.0
  0
ARC
  5
10F
100
AcDbEntity
  8
D-STR
  6
CONTINUOUS
 62
       1
100
AcDbCircle
 10
-6088.87937323
 20
124502.38718422
 30
0.0
 40
335.35996548
100
AcDbArc
 50
0.0
 51
90.0
  0
LINE
  5
110
100
AcDbEntity
  8
D-STR
  6
CONTINUOUS
 62
       1
100
AcDbLine
 10
-7765.67920063
 20
124837.7471497
 30
0.0
 11
-6088.87937323
 21
124837.7471497
 31
0.0
  0
LINE
  5
111
100
AcDbEntity
  8
D-STR
  6
CONTINUOUS
 62
       1
100
AcDbLine
 10
-7765.67920063
 20
124837.7471497
 30
0.0
 11
-7765.67920063
 21
125068.30712596
 31
0.0
  0
ENDBLK
  5
112
100
AcDbEntity
  8
0
100
AcDbBlockEnd
  0
BLOCK
  5
113
100
AcDbEntity
  8
0
100
AcDbBlockBegin
  2
GROUP_10
 70
       0
 10
0.0
 20
0.0
 30
0.0
  3
GROUP_10
  1

  0
ARC
  5
114
100
AcDbEntity
  8
D-STR
  6
CONTINUOUS
 62
       1
100
AcDbCircle
 10
-6141.27936784
 20
103374.70935902
 30
0.0
 40
377.27996116
100
AcDbArc
 50
270.0
 51
360.0
  0
ARC
  5
115
100
AcDbEntity
  8
D-STR
  6
CONTINUOUS
 62
       1
100
AcDbCircle
 10
-6141.27936784
 20
111465.26852621
 30
0.0
 40
377.27996116
100
AcDbArc
 50
0.0
 51
90.0
  0
LINE
  5
116
100
AcDbEntity
  8
D-STR
  6
CONTINUOUS
 62
       1
100
AcDbLine
 10
-7765.67920063
 20
102745.90942374
 30
0.0
 11
-3594.63962998
 21
102745.90942374
 31
0.0
  0
LINE
  5
117
100
AcDbEntity
  8
D-STR
  6
CONTINUOUS
 62
       1
100
AcDbLine
 10
-7765.67920063
 20
112094.06846148
 30
0.0
 11
-3594.63962998
 21
112094.06846148
 31
0.0
  0
LINE
  5
118
100
AcDbEntity
  8
D-STR
  6
CONTINUOUS
 62
       1
100
AcDbLine
 10
-5596.31942394
 20
103374.70935902
 30
0.0
 11
-5596.31942394
 21
111465.26852621
 31
0.0
  0
LINE
  5
119
100
AcDbEntity
  8
D-STR
  6
CONTINUOUS
 62
       1
100
AcDbLine
 10
-5219.03946277
 20
102997.42939785
 30
0.0
 11
-3594.63962998
 21
102997.42939785
 31
0.0
  0
LINE
  5
11A
100
AcDbEntity
  8
D-STR
  6
CONTINUOUS
 62
       1
100
AcDbLine
 10
-3594.63962998
 20
102745.90942374
 30
0.0
 11
-3594.63962998
 21
102997.42939785
 31
0.0
  0
ARC
  5
11B
100
AcDbEntity
  8
D-STR
  6
CONTINUOUS
 62
       1
100
AcDbCircle
 10
-5219.03946277
 20
103374.70935902
 30
0.0
 40
377.27996116
100
AcDbArc
 50
180.0
 51
270.0
  0
LINE
  5
11C
100
AcDbEntity
  8
D-STR
  6
CONTINUOUS
 62
       1
100
AcDbLine
 10
-5219.03946277
 20
111842.54848737
 30
0.0
 11
-3594.63962998
 21
111842.54848737
 31
0.0
  0
LINE
  5
11D
100
AcDbEntity
  8
D-STR
  6
CONTINUOUS
 62
       1
100
AcDbLine
 10
-3594.63962998
 20
111842.54848737
 30
0.0
 11
-3594.63962998
 21
112094.06846148
 31
0.0
  0
ARC
  5
11E
100
AcDbEntity
  8
D-STR
  6
CONTINUOUS
 62
       1
100
AcDbCircle
 10
-5219.03946277
 20
111465.26852621
 30
0.0
 40
377.27996116
100
AcDbArc
 50
90.0
 51
180.0
  0
LINE
  5
11F
100
AcDbEntity
  8
D-STR
  6
CONTINUOUS
 62
       1
100
AcDbLine
 10
-5763.99940668
 20
103374.70935902
 30
0.0
 11
-5763.99940668
 21
111465.26852621
 31
0.0
  0
LINE
  5
120
100
AcDbEntity
  8
D-STR
  6
CONTINUOUS
 62
       1
100
AcDbLine
 10
-7765.67920063
 20
102997.42939785
 30
0.0
 11
-6141.27936784
 21
102997.42939785
 31
0.0
  0
LINE
  5
121
100
AcDbEntity
  8
D-STR
  6
CONTINUOUS
 62
       1
100
AcDbLine
 10
-7765.67920063
 20
102745.90942374
 30
0.0
 11
-7765.67920063
 21
102997.42939785
 31
0.0
  0
LINE
  5
122
100
AcDbEntity
  8
D-STR
  6
CONTINUOUS
 62
       1
100
AcDbLine
 10
-7765.67920063
 20
111842.54848737
 30
0.0
 11
-6141.27936784
 21
111842.54848737
 31
0.0
  0
LINE
  5
123
100
AcDbEntity
  8
D-STR
  6
CONTINUOUS
 62
       1
100
AcDbLine
 10
-7765.67920063
 20
111842.54848737
 30
0.0
 11
-7765.67920063
 21
112094.06846148
 31
0.0
  0
ENDBLK
  5
124
100
AcDbEntity
  8
0
100
AcDbBlockEnd
  0
BLOCK
  5
125
100
AcDbEntity
  8
0
100
AcDbBlockBegin
  2
GROUP_11
 70
       0
 10
0.0
 20
0.0
 30
0.0
  3
GROUP_11
  1

  0
LINE
  5
126
100
AcDbEntity
  8
D-STR
  6
CONTINUOUS
 62
       1
100
AcDbLine
 10
-5774.4794056
 20
87864.3109556
 30
0.0
 11
-5774.4794056
 21
96835.19003217
 31
0.0
  0
LINE
  5
127
100
AcDbEntity
  8
D-STR
  6
CONTINUOUS
 62
       1
100
AcDbLine
 10
-5585.83942502
 20
87864.3109556
 30
0.0
 11
-5585.83942502
 21
96835.19003217
 31
0.0
  0
ARC
  5
128
100
AcDbEntity
  8
D-STR
  6
CONTINUOUS
 62
       1
100
AcDbCircle
 10
-6193.67936245
 20
87864.3109556
 30
0.0
 40
419.19995685
100
AcDbArc
 50
270.0
 51
360.0
  0
LINE
  5
129
100
AcDbEntity
  8
D-STR
  6
CONTINUOUS
 62
       1
100
AcDbLine
 10
-7765.67920063
 20
87151.67102895
 30
0.0
 11
-3594.63962998
 21
87151.67102895
 31
0.0
  0
LINE
  5
12A
100
AcDbEntity
  8
D-STR
  6
CONTINUOUS
 62
       1
100
AcDbLine
 10
-3594.63962998
 20
87151.67102895
 30
0.0
 11
-3594.63962998
 21
87445.11099875
 31
0.0
  0
LINE
  5
12B
100
AcDbEntity
  8
D-STR
  6
CONTINUOUS
 62
       1
100
AcDbLine
 10
-5166.63946817
 20
87445.11099875
 30
0.0
 11
-3594.63962998
 21
87445.11099875
 31
0.0
  0
ARC
  5
12C
100
AcDbEntity
  8
D-STR
  6
CONTINUOUS
 62
       1
100
AcDbCircle
 10
-5166.63946817
 20
87864.3109556
 30
0.0
 40
419.19995685
100
AcDbArc
 50
180.0
 51
270.0
  0
LINE
  5
12D
100
AcDbEntity
  8
D-STR
  6
CONTINUOUS
 62
       1
100
AcDbLine
 10
-7765.67920063
 20
87151.67102895
 30
0.0
 11
-7765.67920063
 21
87445.11099875
 31
0.0
  0
LINE
  5
12E
100
AcDbEntity
  8
D-STR
  6
CONTINUOUS
 62
       1
100
AcDbLine
 10
-7765.67920063
 20
87445.11099875
 30
0.0
 11
-6193.67936245
 21
87445.11099875
 31
0.0
  0
ARC
  5
12F
100
AcDbEntity
  8
D-STR
  6
CONTINUOUS
 62
       1
100
AcDbCircle
 10
-6193.67936245
 20
96835.19003217
 30
0.0
 40
419.19995685
100
AcDbArc
 50
0.0
 51
90.0
  0
LINE
  5
130
100
AcDbEntity
  8
D-STR
  6
CONTINUOUS
 62
       1
100
AcDbLine
 10
-7765.67920063
 20
97547.82995881
 30
0.0
 11
-3594.63962998
 21
97547.82995881
 31
0.0
  0
LINE
  5
131
100
AcDbEntity
  8
D-STR
  6
CONTINUOUS
 62
       1
100
AcDbLine
 10
-5166.63946817
 20
97254.38998902
 30
0.0
 11
-3594.63962998
 21
97254.38998902
 31
0.0
  0
LINE
  5
132
100
AcDbEntity
  8
D-STR
  6
CONTINUOUS
 62
       1
100
AcDbLine
 10
-3594.63962998
 20
97254.38998902
 30
0.0
 11
-3594.63962998
 21
97547.82995881
 31
0.0
  0
ARC
  5
133
100
AcDbEntity
  8
D-STR
  6
CONTINUOUS
 62
       1
100
AcDbCircle
 10
-5166.63946817
 20
96835.19003217
 30
0.0
 40
419.19995685
100
AcDbArc
 50
90.0
 51
180.0
  0
LINE
  5
134
100
AcDbEntity
  8
D-STR
  6
CONTINUOUS
 62
       1
100
AcDbLine
 10
-7765.67920063
 20
97254.38998902
 30
0.0
 11
-6193.67936245
 21
97254.38998902
 31
0.0
  0
LINE
  5
135
100
AcDbEntity
  8
D-STR
  6
CONTINUOUS
 62
       1
100
AcDbLine
 10
-7765.67920063
 20
97254.38998902
 30
0.0
 11
-7765.67920063
 21
97547.82995881
 31
0.0
  0
ENDBLK
  5
136
100
AcDbEntity
  8
0
100
AcDbBlockEnd
  0
BLOCK
  5
137
100
AcDbEntity
  8
0
100
AcDbBlockBegin
  2
GROUP_12
 70
       0
 10
0.0
 20
0.0
 30
0.0
  3
GROUP_12
  1

  0
LINE
  5
138
100
AcDbEntity
  8
D-STR
  6
CONTINUOUS
 62
       1
100
AcDbLine
 10
-5784.95940452
 20
69188.95287796
 30
0.0
 11
-5784.95940452
 21
80130.07175173
 31
0.0
  0
LINE
  5
139
100
AcDbEntity
  8
D-STR
  6
CONTINUOUS
 62
       1
100
AcDbLine
 10
-5575.35942609
 20
69188.95287796
 30
0.0
 11
-5575.35942609
 21
80130.07175173
 31
0.0
  0
LINE
  5
13A
100
AcDbEntity
  8
D-STR
  6
CONTINUOUS
 62
       1
100
AcDbLine
 10
-7765.67920063
 20
68727.83292543
 30
0.0
 11
-6246.07935705
 21
68727.83292543
 31
0.0
  0
LINE
  5
13B
100
AcDbEntity
  8
D-STR
  6
CONTINUOUS
 62
       1
100
AcDbLine
 10
-7765.67920063
 20
68413.43295779
 30
0.0
 11
-3594.63962998
 21
68413.43295779
 31
0.0
  0
LINE
  5
13C
100
AcDbEntity
  8
D-STR
  6
CONTINUOUS
 62
       1
100
AcDbLine
 10
-5114.23947356
 20
68727.83292543
 30
0.0
 11
-3594.63962998
 21
68727.83292543
 31
0.0
  0
LINE
  5
13D
100
AcDbEntity
  8
D-STR
  6
CONTINUOUS
 62
       1
100
AcDbLine
 10
-3594.63962998
 20
68413.43295779
 30
0.0
 11
-3594.63962998
 21
68727.83292543
 31
0.0
  0
ARC
  5
13E
100
AcDbEntity
  8
D-STR
  6
CONTINUOUS
 62
       1
100
AcDbCircle
 10
-5114.23947356
 20
69188.95287796
 30
0.0
 40
461.11995253
100
AcDbArc
 50
180.0
 51
270.0
  0
ARC
  5
13F
100
AcDbEntity
  8
D-STR
  6
CONTINUOUS
 62
       1
100
AcDbCircle
 10
-6246.07935705
 20
69188.95287796
 30
0.0
 40
461.11995253
100
AcDbArc
 50
270.0
 51
360.0
  0
LINE
  5
140
100
AcDbEntity
  8
D-STR
  6
CONTINUOUS
 62
       1
100
AcDbLine
 10
-7765.67920063
 20
68413.43295779
 30
0.0
 11
-7765.67920063
 21
68727.83292543
 31
0.0
  0
LINE
  5
141
100
AcDbEntity
  8
D-STR
  6
CONTINUOUS
 62
       1
100
AcDbLine
 10
-7765.67920063
 20
80591.19170426
 30
0.0
 11
-6246.07935705
 21
80591.19170426
 31
0.0
  0
LINE
  5
142
100
AcDbEntity
  8
D-STR
  6
CONTINUOUS
 62
       1
100
AcDbLine
 10
-7765.67920063
 20
80905.5916719
 30
0.0
 11
-3594.63962998
 21
80905.5916719
 31
0.0
  0
LINE
  5
143
100
AcDbEntity
  8
D-STR
  6
CONTINUOUS
 62
       1
100
AcDbLine
 10
-5114.23947356
 20
80591.19170426
 30
0.0
 11
-3594.63962998
 21
80591.19170426
 31
0.0
  0
LINE
  5
144
100
AcDbEntity
  8
D-STR
  6
CONTINUOUS
 62
       1
100
AcDbLine
 10
-3594.63962998
 20
80591.19170426
 30
0.0
 11
-3594.63962998
 21
80905.5916719
 31
0.0
  0
ARC
  5
145
100
AcDbEntity
  8
D-STR
  6
CONTINUOUS
 62
       1
100
AcDbCircle
 10
-5114.23947356
 20
80130.07175173
 30
0.0
 40
461.11995253
100
AcDbArc
 50
90.0
 51
180.0
  0
ARC
  5
146
100
AcDbEntity
  8
D-STR
  6
CONTINUOUS
 62
       1
100
AcDbCircle
 10
-6246.07935705
 20
80130.07175173
 30
0.0
 40
461.11995253
100
AcDbArc
 50
0.0
 51
90.0
  0
LINE
  5
147
100
AcDbEntity
  8
D-STR
  6
CONTINUOUS
 62
       1
100
AcDbLine
 10
-7765.67920063
 20
80591.19170426
 30
0.0
 11
-7765.67920063
 21
80905.5916719
 31
0.0
  0
ENDBLK
  5
148
100
AcDbEntity
  8
0
100
AcDbBlockEnd
  0
BLOCK
  5
149
100
AcDbEntity
  8
0
100
AcDbBlockBegin
  2
GROUP_13
 70
       0
 10
0.0
 20
0.0
 30
0.0
  3
GROUP_13
  1

  0
LINE
  5
14A
100
AcDbEntity
  8
D-STR
  6
CONTINUOUS
 62
       1
100
AcDbLine
 10
-5837.35939913
 20
-5156.15946925
 30
0.0
 11
-5837.35939913
 21
11360.31883061
 31
0.0
  0
LINE
  5
14B
100
AcDbEntity
  8
D-STR
  6
CONTINUOUS
 62
       1
100
AcDbLine
 10
-5522.95943149
 20
-5156.15946925
 30
0.0
 11
-5522.95943149
 21
11360.31883061
 31
0.0
  0
LINE
  5
14C
100
AcDbEntity
  8
D-STR
  6
CONTINUOUS
 62
       1
100
AcDbLine
 10
-8813.67909275
 20
-5743.03940883
 30
0.0
 11
-6424.23933871
 21
-5743.03940883
 31
0.0
  0
LINE
  5
14D
100
AcDbEntity
  8
D-STR
  6
CONTINUOUS
 62
       1
100
AcDbLine
 10
-8813.67909275
 20
-6225.11935921
 30
0.0
 11
-2546.63973786
 21
-6225.11935921
 31
0.0
  0
LINE
  5
14E
100
AcDbEntity
  8
D-STR
  6
CONTINUOUS
 62
       1
100
AcDbLine
 10
-2546.63973786
 20
-6225.11935921
 30
0.0
 11
-2546.63973786
 21
-5743.03940883
 31
0.0
  0
LINE
  5
14F
100
AcDbEntity
  8
D-STR
  6
CONTINUOUS
 62
       1
100
AcDbLine
 10
-4936.0794919
 20
-5743.03940883
 30
0.0
 11
-2546.63973786
 21
-5743.03940883
 31
0.0
  0
ARC
  5
150
100
AcDbEntity
  8
D-STR
  6
CONTINUOUS
 62
       1
100
AcDbCircle
 10
-4936.0794919
 20
-5156.15946925
 30
0.0
 40
586.87993959
100
AcDbArc
 50
180.0
 51
270.0
  0
ARC
  5
151
100
AcDbEntity
  8
D-STR
  6
CONTINUOUS
 62
       1
100
AcDbCircle
 10
-6424.23933871
 20
-5156.15946925
 30
0.0
 40
586.87993959
100
AcDbArc
 50
270.0
 51
360.0
  0
LINE
  5
152
100
AcDbEntity
  8
D-STR
  6
CONTINUOUS
 62
       1
100
AcDbLine
 10
-8813.67909275
 20
-6225.11935921
 30
0.0
 11
-8813.67909275
 21
-5743.03940883
 31
0.0
  0
LINE
  5
153
100
AcDbEntity
  8
D-STR
  6
CONTINUOUS
 62
       1
100
AcDbLine
 10
-8813.67909275
 20
11947.1987702
 30
0.0
 11
-6424.23933871
 21
11947.1987702
 31
0.0
  0
LINE
  5
154
100
AcDbEntity
  8
D-STR
  6
CONTINUOUS
 62
       1
100
AcDbLine
 10
-8813.67909275
 20
12429.27872058
 30
0.0
 11
-2546.63973786
 21
12429.27872058
 31
0.0
  0
ARC
  5
155
100
AcDbEntity
  8
D-STR
  6
CONTINUOUS
 62
       1
100
AcDbCircle
 10
-4936.0794919
 20
11360.31883061
 30
0.0
 40
586.87993959
100
AcDbArc
 50
90.0
 51
180.0
  0
ARC
  5
156
100
AcDbEntity
  8
D-STR
  6
CONTINUOUS
 62
       1
100
AcDbCircle
 10
-6424.23933871
 20
11360.31883061
 30
0.0
 40
586.87993959
100
AcDbArc
 50
0.0
 51
90.0
  0
LINE
  5
157
100
AcDbEntity
  8
D-STR
  6
CONTINUOUS
 62
       1
100
AcDbLine
 10
-4936.0794919
 20
11947.1987702
 30
0.0
 11
-2546.63973786
 21
11947.1987702
 31
0.0
  0
LINE
  5
158
100
AcDbEntity
  8
D-STR
  6
CONTINUOUS
 62
       1
100
AcDbLine
 10
-2546.63973786
 20
11947.1987702
 30
0.0
 11
-2546.63973786
 21
12429.27872058
 31
0.0
  0
LINE
  5
159
100
AcDbEntity
  8
D-STR
  6
CONTINUOUS
 62
       1
100
AcDbLine
 10
-8813.67909275
 20
11947.1987702
 30
0.0
 11
-8813.67909275
 21
12429.27872058
 31
0.0
  0
ENDBLK
  5
15A
100
AcDbEntity
  8
0
100
AcDbBlockEnd
  0
BLOCK
  5
15B
100
AcDbEntity
  8
0
100
AcDbBlockBegin
  2
GROUP_14
 70
       0
 10
0.0
 20
0.0
 30
0.0
  3
GROUP_14
  1

  0
LINE
  5
15C
100
AcDbEntity
  8
D-STR
  6
CONTINUOUS
 62
       1
100
AcDbLine
 10
-5826.8794002
 20
22804.4776526
 30
0.0
 11
-5826.8794002
 21
37308.79615958
 31
0.0
  0
LINE
  5
15D
100
AcDbEntity
  8
D-STR
  6
CONTINUOUS
 62
       1
100
AcDbLine
 10
-5533.43943041
 20
22804.4776526
 30
0.0
 11
-5533.43943041
 21
37308.79615958
 31
0.0
  0
LINE
  5
15E
100
AcDbEntity
  8
D-STR
  6
CONTINUOUS
 62
       1
100
AcDbLine
 10
-8824.15909168
 20
22217.59771301
 30
0.0
 11
-6413.75933979
 21
22217.59771301
 31
0.0
  0
LINE
  5
15F
100
AcDbEntity
  8
D-STR
  6
CONTINUOUS
 62
       1
100
AcDbLine
 10
-8824.15909168
 20
21756.47776047
 30
0.0
 11
-2536.15973894
 21
21756.47776047
 31
0.0
  0
LINE
  5
160
100
AcDbEntity
  8
D-STR
  6
CONTINUOUS
 62
       1
100
AcDbLine
 10
-4946.55949082
 20
22217.59771301
 30
0.0
 11
-2536.15973894
 21
22217.59771301
 31
0.0
  0
LINE
  5
161
100
AcDbEntity
  8
D-STR
  6
CONTINUOUS
 62
       1
100
AcDbLine
 10
-2536.15973894
 20
21756.47776047
 30
0.0
 11
-2536.15973894
 21
22217.59771301
 31
0.0
  0
ARC
  5
162
100
AcDbEntity
  8
D-STR
  6
CONTINUOUS
 62
       1
100
AcDbCircle
 10
-4946.55949082
 20
22804.4776526
 30
0.0
 40
586.87993959
100
AcDbArc
 50
180.0
 51
270.0
  0
ARC
  5
163
100
AcDbEntity
  8
D-STR
  6
CONTINUOUS
 62
       1
100
AcDbCircle
 10
-6413.75933979
 20
22804.4776526
 30
0.0
 40
586.87993959
100
AcDbArc
 50
270.0
 51
360.0
  0
LINE
  5
164
100
AcDbEntity
  8
D-STR
  6
CONTINUOUS
 62
       1
100
AcDbLine
 10
-8824.15909168
 20
21756.47776047
 30
0.0
 11
-8824.15909168
 21
22217.59771301
 31
0.0
  0
LINE
  5
165
100
AcDbEntity
  8
D-STR
  6
CONTINUOUS
 62
       1
100
AcDbLine
 10
-8824.15909168
 20
37895.67609917
 30
0.0
 11
-6413.75933979
 21
37895.67609917
 31
0.0
  0
LINE
  5
166
100
AcDbEntity
  8
D-STR
  6
CONTINUOUS
 62
       1
100
AcDbLine
 10
-8824.15909168
 20
38356.7960517
 30
0.0
 11
-2536.15973894
 21
38356.7960517
 31
0.0
  0
LINE
  5
167
100
AcDbEntity
  8
D-STR
  6
CONTINUOUS
 62
       1
100
AcDbLine
 10
-4946.55949082
 20
37895.67609917
 30
0.0
 11
-2536.15973894
 21
37895.67609917
 31
0.0
  0
LINE
  5
168
100
AcDbEntity
  8
D-STR
  6
CONTINUOUS
 62
       1
100
AcDbLine
 10
-2536.15973894
 20
37895.67609917
 30
0.0
 11
-2536.15973894
 21
38356.7960517
 31
0.0
  0
ARC
  5
169
100
AcDbEntity
  8
D-STR
  6
CONTINUOUS
 62
       1
100
AcDbCircle
 10
-4946.55949082
 20
37308.79615958
 30
0.0
 40
586.87993959
100
AcDbArc
 50
90.0
 51
180.0
  0
ARC
  5
16A
100
AcDbEntity
  8
D-STR
  6
CONTINUOUS
 62
       1
100
AcDbCircle
 10
-6413.75933979
 20
37308.79615958
 30
0.0
 40
586.87993959
100
AcDbArc
 50
0.0
 51
90.0
  0
LINE
  5
16B
100
AcDbEntity
  8
D-STR
  6
CONTINUOUS
 62
       1
100
AcDbLine
 10
-8824.15909168
 20
37895.67609917
 30
0.0
 11
-8824.15909168
 21
38356.7960517
 31
0.0
  0
ENDBLK
  5
16C
100
AcDbEntity
  8
0
100
AcDbBlockEnd
  0
BLOCK
  5
16D
100
AcDbEntity
  8
0
100
AcDbBlockBegin
  2
GROUP_15
 70
       0
 10
0.0
 20
0.0
 30
0.0
  3
GROUP_15
  1

  0
LINE
  5
16E
100
AcDbEntity
  8
D-STR
  6
CONTINUOUS
 62
       1
100
AcDbLine
 10
-8824.15909168
 20
47076.15515417
 30
0.0
 11
-6403.27934087
 21
47076.15515417
 31
0.0
  0
LINE
  5
16F
100
AcDbEntity
  8
D-STR
  6
CONTINUOUS
 62
       1
100
AcDbLine
 10
-8824.15909168
 20
60742.07374745
 30
0.0
 11
-6403.27934087
 21
60742.07374745
 31
0.0
  0
LINE
  5
170
100
AcDbEntity
  8
D-STR
  6
CONTINUOUS
 62
       1
100
AcDbLine
 10
-8824.15909168
 20
46656.95519732
 30
0.0
 11
-2536.15973894
 21
46656.95519732
 31
0.0
  0
LINE
  5
171
100
AcDbEntity
  8
D-STR
  6
CONTINUOUS
 62
       1
100
AcDbLine
 10
-8824.15909168
 20
61161.2737043
 30
0.0
 11
-2536.15973894
 21
61161.2737043
 31
0.0
  0
LINE
  5
172
100
AcDbEntity
  8
D-STR
  6
CONTINUOUS
 62
       1
100
AcDbLine
 10
-5816.39940128
 20
47663.03509376
 30
0.0
 11
-5816.39940128
 21
60155.19380786
 31
0.0
  0
LINE
  5
173
100
AcDbEntity
  8
D-STR
  6
CONTINUOUS
 62
       1
100
AcDbLine
 10
-5543.91942933
 20
47663.03509376
 30
0.0
 11
-5543.91942933
 21
60155.19380786
 31
0.0
  0
LINE
  5
174
100
AcDbEntity
  8
D-STR
  6
CONTINUOUS
 62
       1
100
AcDbLine
 10
-4957.03948974
 20
47076.15515417
 30
0.0
 11
-2536.15973894
 21
47076.15515417
 31
0.0
  0
LINE
  5
175
100
AcDbEntity
  8
D-STR
  6
CONTINUOUS
 62
       1
100
AcDbLine
 10
-2536.15973894
 20
46656.95519732
 30
0.0
 11
-2536.15973894
 21
47076.15515417
 31
0.0
  0
ARC
  5
176
100
AcDbEntity
  8
D-STR
  6
CONTINUOUS
 62
       1
100
AcDbCircle
 10
-4957.03948974
 20
47663.03509376
 30
0.0
 40
586.87993959
100
AcDbArc
 50
180.0
 51
270.0
  0
ARC
  5
177
100
AcDbEntity
  8
D-STR
  6
CONTINUOUS
 62
       1
100
AcDbCircle
 10
-6403.27934087
 20
47663.03509376
 30
0.0
 40
586.87993959
100
AcDbArc
 50
270.0
 51
360.0
  0
LINE
  5
178
100
AcDbEntity
  8
D-STR
  6
CONTINUOUS
 62
       1
100
AcDbLine
 10
-4957.03948974
 20
60742.07374745
 30
0.0
 11
-2536.15973894
 21
60742.07374745
 31
0.0
  0
LINE
  5
179
100
AcDbEntity
  8
D-STR
  6
CONTINUOUS
 62
       1
100
AcDbLine
 10
-2536.15973894
 20
60742.07374745
 30
0.0
 11
-2536.15973894
 21
61161.2737043
 31
0.0
  0
ARC
  5
17A
100
AcDbEntity
  8
D-STR
  6
CONTINUOUS
 62
       1
100
AcDbCircle
 10
-4957.03948974
 20
60155.19380786
 30
0.0
 40
586.87993959
100
AcDbArc
 50
90.0
 51
180.0
  0
ARC
  5
17B
100
AcDbEntity
  8
D-STR
  6
CONTINUOUS
 62
       1
100
AcDbCircle
 10
-6403.27934087
 20
60155.19380786
 30
0.0
 40
586.87993959
100
AcDbArc
 50
0.0
 51
90.0
  0
LINE
  5
17C
100
AcDbEntity
  8
D-STR
  6
CONTINUOUS
 62
       1
100
AcDbLine
 10
-8824.15909168
 20
46656.95519732
 30
0.0
 11
-8824.15909168
 21
47076.15515417
 31
0.0
  0
LINE
  5
17D
100
AcDbEntity
  8
D-STR
  6
CONTINUOUS
 62
       1
100
AcDbLine
 10
-8824.15909168
 20
60742.07374745
 30
0.0
 11
-8824.15909168
 21
61161.2737043
 31
0.0
  0
ENDBLK
  5
17E
100
AcDbEntity
  8
0
100
AcDbBlockEnd
  0
BLOCK
  5
17F
100
AcDbEntity
  8
0
100
AcDbBlockBegin
  2
GROUP_16
 70
       0
 10
0.0
 20
0.0
 30
0.0
  3
GROUP_16
  1

  0
LINE
  5
180
100
AcDbEntity
  8
D-STR
  6
CONTINUOUS
 62
       1
100
AcDbLine
 10
25634.07736133
 20
69503.3528456
 30
0.0
 11
25634.07736133
 21
79815.67178409
 31
0.0
  0
LINE
  5
181
100
AcDbEntity
  8
D-STR
  6
CONTINUOUS
 62
       1
100
AcDbLine
 10
25885.59733544
 20
69503.3528456
 30
0.0
 11
25885.59733544
 21
79815.67178409
 31
0.0
  0
LINE
  5
182
100
AcDbEntity
  8
D-STR
  6
CONTINUOUS
 62
       1
100
AcDbLine
 10
22615.83767202
 20
68916.47290601
 30
0.0
 11
25047.19742174
 21
68916.47290601
 31
0.0
  0
LINE
  5
183
100
AcDbEntity
  8
D-STR
  6
CONTINUOUS
 62
       1
100
AcDbLine
 10
22615.83767202
 20
68560.15294269
 30
0.0
 11
28903.83702475
 21
68560.15294269
 31
0.0
  0
ARC
  5
184
100
AcDbEntity
  8
D-STR
  6
CONTINUOUS
 62
       1
100
AcDbCircle
 10
26472.47727503
 20
69503.3528456
 30
0.0
 40
586.87993959
100
AcDbArc
 50
180.0
 51
270.0
  0
ARC
  5
185
100
AcDbEntity
  8
D-STR
  6
CONTINUOUS
 62
       1
100
AcDbCircle
 10
25047.19742174
 20
69503.3528456
 30
0.0
 40
586.87993959
100
AcDbArc
 50
270.0
 51
360.0
  0
LINE
  5
186
100
AcDbEntity
  8
D-STR
  6
CONTINUOUS
 62
       1
100
AcDbLine
 10
26472.47727503
 20
68916.47290601
 30
0.0
 11
28903.83702475
 21
68916.47290601
 31
0.0
  0
LINE
  5
187
100
AcDbEntity
  8
D-STR
  6
CONTINUOUS
 62
       1
100
AcDbLine
 10
28903.83702475
 20
68560.15294269
 30
0.0
 11
28903.83702475
 21
68916.47290601
 31
0.0
  0
LINE
  5
188
100
AcDbEntity
  8
D-STR
  6
CONTINUOUS
 62
       1
100
AcDbLine
 10
22615.83767202
 20
68560.15294269
 30
0.0
 11
22615.83767202
 21
68916.47290601
 31
0.0
  0
LINE
  5
189
100
AcDbEntity
  8
D-STR
  6
CONTINUOUS
 62
       1
100
AcDbLine
 10
22615.83767202
 20
80402.55172368
 30
0.0
 11
25047.19742174
 21
80402.55172368
 31
0.0
  0
LINE
  5
18A
100
AcDbEntity
  8
D-STR
  6
CONTINUOUS
 62
       1
100
AcDbLine
 10
22615.83767202
 20
80758.871687
 30
0.0
 11
28903.83702475
 21
80758.871687
 31
0.0
  0
LINE
  5
18B
100
AcDbEntity
  8
D-STR
  6
CONTINUOUS
 62
       1
100
AcDbLine
 10
26472.47727503
 20
80402.55172368
 30
0.0
 11
28903.83702475
 21
80402.55172368
 31
0.0
  0
LINE
  5
18C
100
AcDbEntity
  8
D-STR
  6
CONTINUOUS
 62
       1
100
AcDbLine
 10
28903.83702475
 20
80402.55172368
 30
0.0
 11
28903.83702475
 21
80758.871687
 31
0.0
  0
ARC
  5
18D
100
AcDbEntity
  8
D-STR
  6
CONTINUOUS
 62
       1
100
AcDbCircle
 10
26472.47727503
 20
79815.67178409
 30
0.0
 40
586.87993959
100
AcDbArc
 50
90.0
 51
180.0
  0
ARC
  5
18E
100
AcDbEntity
  8
D-STR
  6
CONTINUOUS
 62
       1
100
AcDbCircle
 10
25047.19742174
 20
79815.67178409
 30
0.0
 40
586.87993959
100
AcDbArc
 50
0.0
 51
90.0
  0
LINE
  5
18F
100
AcDbEntity
  8
D-STR
  6
CONTINUOUS
 62
       1
100
AcDbLine
 10
22615.83767202
 20
80402.55172368
 30
0.0
 11
22615.83767202
 21
80758.871687
 31
0.0
  0
ENDBLK
  5
190
100
AcDbEntity
  8
0
100
AcDbBlockEnd
  0
BLOCK
  5
191
100
AcDbEntity
  8
0
100
AcDbBlockBegin
  2
GROUP_17
 70
       0
 10
0.0
 20
0.0
 30
0.0
  3
GROUP_17
  1

  0
LINE
  5
192
100
AcDbEntity
  8
D-STR
  6
CONTINUOUS
 62
       1
100
AcDbLine
 10
25644.55736025
 20
88157.75092539
 30
0.0
 11
25644.55736025
 21
96541.75006237
 31
0.0
  0
LINE
  5
193
100
AcDbEntity
  8
D-STR
  6
CONTINUOUS
 62
       1
100
AcDbLine
 10
25875.11733652
 20
88157.75092539
 30
0.0
 11
25875.11733652
 21
96541.75006237
 31
0.0
  0
LINE
  5
194
100
AcDbEntity
  8
D-STR
  6
CONTINUOUS
 62
       1
100
AcDbLine
 10
22615.83767202
 20
87612.79098149
 30
0.0
 11
25099.59741635
 21
87612.79098149
 31
0.0
  0
LINE
  5
195
100
AcDbEntity
  8
D-STR
  6
CONTINUOUS
 62
       1
100
AcDbLine
 10
22615.83767202
 20
87298.39101385
 30
0.0
 11
28903.83702475
 21
87298.39101385
 31
0.0
  0
LINE
  5
196
100
AcDbEntity
  8
D-STR
  6
CONTINUOUS
 62
       1
100
AcDbLine
 10
26420.07728042
 20
87612.79098149
 30
0.0
 11
28903.83702475
 21
87612.79098149
 31
0.0
  0
LINE
  5
197
100
AcDbEntity
  8
D-STR
  6
CONTINUOUS
 62
       1
100
AcDbLine
 10
28903.83702475
 20
87298.39101385
 30
0.0
 11
28903.83702475
 21
87612.79098149
 31
0.0
  0
ARC
  5
198
100
AcDbEntity
  8
D-STR
  6
CONTINUOUS
 62
       1
100
AcDbCircle
 10
26420.07728042
 20
88157.75092539
 30
0.0
 40
544.9599439
100
AcDbArc
 50
180.0
 51
270.0
  0
ARC
  5
199
100
AcDbEntity
  8
D-STR
  6
CONTINUOUS
 62
       1
100
AcDbCircle
 10
25099.59741635
 20
88157.75092539
 30
0.0
 40
544.9599439
100
AcDbArc
 50
270.0
 51
360.0
  0
LINE
  5
19A
100
AcDbEntity
  8
D-STR
  6
CONTINUOUS
 62
       1
100
AcDbLine
 10
22615.83767202
 20
87298.39101385
 30
0.0
 11
22615.83767202
 21
87612.79098149
 31
0.0
  0
LINE
  5
19B
100
AcDbEntity
  8
D-STR
  6
CONTINUOUS
 62
       1
100
AcDbLine
 10
22615.83767202
 20
97086.71000628
 30
0.0
 11
25099.59741635
 21
97086.71000628
 31
0.0
  0
LINE
  5
19C
100
AcDbEntity
  8
D-STR
  6
CONTINUOUS
 62
       1
100
AcDbLine
 10
22615.83767202
 20
97401.10997392
 30
0.0
 11
28903.83702475
 21
97401.10997392
 31
0.0
  0
LINE
  5
19D
100
AcDbEntity
  8
D-STR
  6
CONTINUOUS
 62
       1
100
AcDbLine
 10
28903.83702475
 20
97086.71000628
 30
0.0
 11
28903.83702475
 21
97401.10997392
 31
0.0
  0
LINE
  5
19E
100
AcDbEntity
  8
D-STR
  6
CONTINUOUS
 62
       1
100
AcDbLine
 10
26420.07728042
 20
97086.71000628
 30
0.0
 11
28903.83702475
 21
97086.71000628
 31
0.0
  0
ARC
  5
19F
100
AcDbEntity
  8
D-STR
  6
CONTINUOUS
 62
       1
100
AcDbCircle
 10
26420.07728042
 20
96541.75006237
 30
0.0
 40
544.9599439
100
AcDbArc
 50
90.0
 51
180.0
  0
ARC
  5
1A0
100
AcDbEntity
  8
D-STR
  6
CONTINUOUS
 62
       1
100
AcDbCircle
 10
25099.59741635
 20
96541.75006237
 30
0.0
 40
544.9599439
100
AcDbArc
 50
0.0
 51
90.0
  0
LINE
  5
1A1
100
AcDbEntity
  8
D-STR
  6
CONTINUOUS
 62
       1
100
AcDbLine
 10
22615.83767202
 20
97086.71000628
 30
0.0
 11
22615.83767202
 21
97401.10997392
 31
0.0
  0
ENDBLK
  5
1A2
100
AcDbEntity
  8
0
100
AcDbBlockEnd
  0
BLOCK
  5
1A3
100
AcDbEntity
  8
0
100
AcDbBlockBegin
  2
GROUP_18
 70
       0
 10
0.0
 20
0.0
 30
0.0
  3
GROUP_18
  1

  0
LINE
  5
1A4
100
AcDbEntity
  8
D-STR
  6
CONTINUOUS
 62
       1
100
AcDbLine
 10
25644.55736025
 20
103689.10932665
 30
0.0
 11
25644.55736025
 21
111150.86855857
 31
0.0
  0
LINE
  5
1A5
100
AcDbEntity
  8
D-STR
  6
CONTINUOUS
 62
       1
100
AcDbLine
 10
25875.11733652
 20
103689.10932665
 30
0.0
 11
25875.11733652
 21
111150.86855857
 31
0.0
  0
LINE
  5
1A6
100
AcDbEntity
  8
D-STR
  6
CONTINUOUS
 62
       1
100
AcDbLine
 10
22615.83767202
 20
103186.06937843
 30
0.0
 11
25141.51741203
 21
103186.06937843
 31
0.0
  0
LINE
  5
1A7
100
AcDbEntity
  8
D-STR
  6
CONTINUOUS
 62
       1
100
AcDbLine
 10
22615.83767202
 20
102808.78941727
 30
0.0
 11
28903.83702475
 21
102808.78941727
 31
0.0
  0
LINE
  5
1A8
100
AcDbEntity
  8
D-STR
  6
CONTINUOUS
 62
       1
100
AcDbLine
 10
26378.15728474
 20
103186.06937843
 30
0.0
 11
28903.83702475
 21
103186.06937843
 31
0.0
  0
LINE
  5
1A9
100
AcDbEntity
  8
D-STR
  6
CONTINUOUS
 62
       1
100
AcDbLine
 10
28903.83702475
 20
102808.78941727
 30
0.0
 11
28903.83702475
 21
103186.06937843
 31
0.0
  0
ARC
  5
1AA
100
AcDbEntity
  8
D-STR
  6
CONTINUOUS
 62
       1
100
AcDbCircle
 10
26378.15728474
 20
103689.10932665
 30
0.0
 40
503.03994822
100
AcDbArc
 50
180.0
 51
270.0
  0
ARC
  5
1AB
100
AcDbEntity
  8
D-STR
  6
CONTINUOUS
 62
       1
100
AcDbCircle
 10
25141.51741203
 20
103689.10932665
 30
0.0
 40
503.03994822
100
AcDbArc
 50
270.0
 51
360.0
  0
LINE
  5
1AC
100
AcDbEntity
  8
D-STR
  6
CONTINUOUS
 62
       1
100
AcDbLine
 10
22615.83767202
 20
102808.78941727
 30
0.0
 11
22615.83767202
 21
103186.06937843
 31
0.0
  0
LINE
  5
1AD
100
AcDbEntity
  8
D-STR
  6
CONTINUOUS
 62
       1
100
AcDbLine
 10
22615.83767202
 20
111653.90850679
 30
0.0
 11
25141.51741203
 21
111653.90850679
 31
0.0
  0
LINE
  5
1AE
100
AcDbEntity
  8
D-STR
  6
CONTINUOUS
 62
       1
100
AcDbLine
 10
22615.83767202
 20
112031.18846795
 30
0.0
 11
28903.83702475
 21
112031.18846795
 31
0.0
  0
LINE
  5
1AF
100
AcDbEntity
  8
D-STR
  6
CONTINUOUS
 62
       1
100
AcDbLine
 10
26378.15728474
 20
111653.90850679
 30
0.0
 11
28903.83702475
 21
111653.90850679
 31
0.0
  0
LINE
  5
1B0
100
AcDbEntity
  8
D-STR
  6
CONTINUOUS
 62
       1
100
AcDbLine
 10
28903.83702475
 20
111653.90850679
 30
0.0
 11
28903.83702475
 21
112031.18846795
 31
0.0
  0
ARC
  5
1B1
100
AcDbEntity
  8
D-STR
  6
CONTINUOUS
 62
       1
100
AcDbCircle
 10
26378.15728474
 20
111150.86855857
 30
0.0
 40
503.03994822
100
AcDbArc
 50
90.0
 51
180.0
  0
ARC
  5
1B2
100
AcDbEntity
  8
D-STR
  6
CONTINUOUS
 62
       1
100
AcDbCircle
 10
25141.51741203
 20
111150.86855857
 30
0.0
 40
503.03994822
100
AcDbArc
 50
0.0
 51
90.0
  0
LINE
  5
1B3
100
AcDbEntity
  8
D-STR
  6
CONTINUOUS
 62
       1
100
AcDbLine
 10
22615.83767202
 20
111653.90850679
 30
0.0
 11
22615.83767202
 21
112031.18846795
 31
0.0
  0
ENDBLK
  5
1B4
100
AcDbEntity
  8
0
100
AcDbBlockEnd
  0
BLOCK
  5
1B5
100
AcDbEntity
  8
0
100
AcDbBlockBegin
  2
GROUP_19
 70
       0
 10
0.0
 20
0.0
 30
0.0
  3
GROUP_19
  1

  0
LINE
  5
1B6
100
AcDbEntity
  8
D-STR
  6
CONTINUOUS
 62
       1
100
AcDbLine
 10
22615.83767202
 20
117061.58795014
 30
0.0
 11
25193.91740664
 21
117061.58795014
 31
0.0
  0
LINE
  5
1B7
100
AcDbEntity
  8
D-STR
  6
CONTINUOUS
 62
       1
100
AcDbLine
 10
22615.83767202
 20
124565.26717774
 30
0.0
 11
25193.91740664
 21
124565.26717774
 31
0.0
  0
LINE
  5
1B8
100
AcDbEntity
  8
D-STR
  6
CONTINUOUS
 62
       1
100
AcDbLine
 10
22615.83767202
 20
124900.62714322
 30
0.0
 11
28903.83702475
 21
124900.62714322
 31
0.0
  0
LINE
  5
1B9
100
AcDbEntity
  8
D-STR
  6
CONTINUOUS
 62
       1
100
AcDbLine
 10
22615.83767202
 20
116726.22798466
 30
0.0
 11
28903.83702475
 21
116726.22798466
 31
0.0
  0
LINE
  5
1BA
100
AcDbEntity
  8
D-STR
  6
CONTINUOUS
 62
       1
100
AcDbLine
 10
25655.03735917
 20
117522.70790268
 30
0.0
 11
25655.03735917
 21
124104.14722521
 31
0.0
  0
LINE
  5
1BB
100
AcDbEntity
  8
D-STR
  6
CONTINUOUS
 62
       1
100
AcDbLine
 10
25864.6373376
 20
117522.70790268
 30
0.0
 11
25864.6373376
 21
124104.14722521
 31
0.0
  0
LINE
  5
1BC
100
AcDbEntity
  8
D-STR
  6
CONTINUOUS
 62
       1
100
AcDbLine
 10
26325.75729013
 20
117061.58795014
 30
0.0
 11
28903.83702475
 21
117061.58795014
 31
0.0
  0
LINE
  5
1BD
100
AcDbEntity
  8
D-STR
  6
CONTINUOUS
 62
       1
100
AcDbLine
 10
28903.83702475
 20
117061.58795014
 30
0.0
 11
28903.83702475
 21
116726.22798466
 31
0.0
  0
ARC
  5
1BE
100
AcDbEntity
  8
D-STR
  6
CONTINUOUS
 62
       1
100
AcDbCircle
 10
26325.75729013
 20
117522.70790268
 30
0.0
 40
461.11995253
100
AcDbArc
 50
180.0
 51
270.0
  0
ARC
  5
1BF
100
AcDbEntity
  8
D-STR
  6
CONTINUOUS
 62
       1
100
AcDbCircle
 10
25193.91740664
 20
117522.70790268
 30
0.0
 40
461.11995253
100
AcDbArc
 50
270.0
 51
360.0
  0
LINE
  5
1C0
100
AcDbEntity
  8
D-STR
  6
CONTINUOUS
 62
       1
100
AcDbLine
 10
26325.75729013
 20
124565.26717774
 30
0.0
 11
28903.83702475
 21
124565.26717774
 31
0.0
  0
LINE
  5
1C1
100
AcDbEntity
  8
D-STR
  6
CONTINUOUS
 62
       1
100
AcDbLine
 10
28903.83702475
 20
124900.62714322
 30
0.0
 11
28903.83702475
 21
124565.26717774
 31
0.0
  0
ARC
  5
1C2
100
AcDbEntity
  8
D-STR
  6
CONTINUOUS
 62
       1
100
AcDbCircle
 10
26325.75729013
 20
124104.14722521
 30
0.0
 40
461.11995253
100
AcDbArc
 50
90.0
 51
180.0
  0
ARC
  5
1C3
100
AcDbEntity
  8
D-STR
  6
CONTINUOUS
 62
       1
100
AcDbCircle
 10
25193.91740664
 20
124104.14722521
 30
0.0
 40
461.11995253
100
AcDbArc
 50
0.0
 51
90.0
  0
LINE
  5
1C4
100
AcDbEntity
  8
D-STR
  6
CONTINUOUS
 62
       1
100
AcDbLine
 10
22615.83767202
 20
116726.22798466
 30
0.0
 11
22615.83767202
 21
117061.58795014
 31
0.0
  0
LINE
  5
1C5
100
AcDbEntity
  8
D-STR
  6
CONTINUOUS
 62
       1
100
AcDbLine
 10
22615.83767202
 20
124900.62714322
 30
0.0
 11
22615.83767202
 21
124565.26717774
 31
0.0
  0
ENDBLK
  5
1C6
100
AcDbEntity
  8
0
100
AcDbBlockEnd
  0
BLOCK
  5
1C7
100
AcDbEntity
  8
0
100
AcDbBlockBegin
  2
GROUP_20
 70
       0
 10
0.0
 20
0.0
 30
0.0
  3
GROUP_20
  1

  0
LINE
  5
1C8
100
AcDbEntity
  8
D-STR
  6
CONTINUOUS
 62
       1
100
AcDbLine
 10
25665.51735809
 20
129993.90661894
 30
0.0
 11
25665.51735809
 21
135695.02603209
 31
0.0
  0
LINE
  5
1C9
100
AcDbEntity
  8
D-STR
  6
CONTINUOUS
 62
       1
100
AcDbLine
 10
25854.15733868
 20
129993.90661894
 30
0.0
 11
25854.15733868
 21
135695.02603209
 31
0.0
  0
LINE
  5
1CA
100
AcDbEntity
  8
D-STR
  6
CONTINUOUS
 62
       1
100
AcDbLine
 10
23139.83761808
 20
129574.70666209
 30
0.0
 11
25246.31740124
 21
129574.70666209
 31
0.0
  0
LINE
  5
1CB
100
AcDbEntity
  8
D-STR
  6
CONTINUOUS
 62
       1
100
AcDbLine
 10
23139.83761808
 20
129281.2666923
 30
0.0
 11
28379.83707869
 21
129281.2666923
 31
0.0
  0
LINE
  5
1CC
100
AcDbEntity
  8
D-STR
  6
CONTINUOUS
 62
       1
100
AcDbLine
 10
26273.35729552
 20
129574.70666209
 30
0.0
 11
28379.83707869
 21
129574.70666209
 31
0.0
  0
LINE
  5
1CD
100
AcDbEntity
  8
D-STR
  6
CONTINUOUS
 62
       1
100
AcDbLine
 10
28379.83707869
 20
129281.2666923
 30
0.0
 11
28379.83707869
 21
129574.70666209
 31
0.0
  0
ARC
  5
1CE
100
AcDbEntity
  8
D-STR
  6
CONTINUOUS
 62
       1
100
AcDbCircle
 10
26273.35729552
 20
129993.90661894
 30
0.0
 40
419.19995685
100
AcDbArc
 50
180.0
 51
270.0
  0
ARC
  5
1CF
100
AcDbEntity
  8
D-STR
  6
CONTINUOUS
 62
       1
100
AcDbCircle
 10
25246.31740124
 20
129993.90661894
 30
0.0
 40
419.19995685
100
AcDbArc
 50
270.0
 51
360.0
  0
LINE
  5
1D0
100
AcDbEntity
  8
D-STR
  6
CONTINUOUS
 62
       1
100
AcDbLine
 10
23139.83761808
 20
129281.2666923
 30
0.0
 11
23139.83761808
 21
129574.70666209
 31
0.0
  0
LINE
  5
1D1
100
AcDbEntity
  8
D-STR
  6
CONTINUOUS
 62
       1
100
AcDbLine
 10
23139.83761808
 20
136114.22598894
 30
0.0
 11
25246.31740124
 21
136114.22598894
 31
0.0
  0
LINE
  5
1D2
100
AcDbEntity
  8
D-STR
  6
CONTINUOUS
 62
       1
100
AcDbLine
 10
23139.83761808
 20
136407.66595873
 30
0.0
 11
28379.83707869
 21
136407.66595873
 31
0.0
  0
LINE
  5
1D3
100
AcDbEntity
  8
D-STR
  6
CONTINUOUS
 62
       1
100
AcDbLine
 10
26273.35729552
 20
136114.22598894
 30
0.0
 11
28379.83707869
 21
136114.22598894
 31
0.0
  0
LINE
  5
1D4
100
AcDbEntity
  8
D-STR
  6
CONTINUOUS
 62
       1
100
AcDbLine
 10
28379.83707869
 20
136407.66595873
 30
0.0
 11
28379.83707869
 21
136114.22598894
 31
0.0
  0
ARC
  5
1D5
100
AcDbEntity
  8
D-STR
  6
CONTINUOUS
 62
       1
100
AcDbCircle
 10
26273.35729552
 20
135695.02603209
 30
0.0
 40
419.19995685
100
AcDbArc
 50
90.0
 51
180.0
  0
ARC
  5
1D6
100
AcDbEntity
  8
D-STR
  6
CONTINUOUS
 62
       1
100
AcDbCircle
 10
25246.31740124
 20
135695.02603209
 30
0.0
 40
419.19995685
100
AcDbArc
 50
0.0
 51
90.0
  0
LINE
  5
1D7
100
AcDbEntity
  8
D-STR
  6
CONTINUOUS
 62
       1
100
AcDbLine
 10
23139.83761808
 20
136407.66595873
 30
0.0
 11
23139.83761808
 21
136114.22598894
 31
0.0
  0
ENDBLK
  5
1D8
100
AcDbEntity
  8
0
100
AcDbBlockEnd
  0
BLOCK
  5
1D9
100
AcDbEntity
  8
0
100
AcDbBlockBegin
  2
GROUP_21
 70
       0
 10
0.0
 20
0.0
 30
0.0
  3
GROUP_21
  1

  0
LINE
  5
1DA
100
AcDbEntity
  8
D-STR
  6
CONTINUOUS
 62
       1
100
AcDbLine
 10
25675.99735701
 20
140767.34550997
 30
0.0
 11
25675.99735701
 21
145671.9850051
 31
0.0
  0
LINE
  5
1DB
100
AcDbEntity
  8
D-STR
  6
CONTINUOUS
 62
       1
100
AcDbLine
 10
25843.67733975
 20
140767.34550997
 30
0.0
 11
25843.67733975
 21
145671.9850051
 31
0.0
  0
LINE
  5
1DC
100
AcDbEntity
  8
D-STR
  6
CONTINUOUS
 62
       1
100
AcDbLine
 10
23663.83756414
 20
140390.0655488
 30
0.0
 11
25298.71739585
 21
140390.0655488
 31
0.0
  0
LINE
  5
1DD
100
AcDbEntity
  8
D-STR
  6
CONTINUOUS
 62
       1
100
AcDbLine
 10
23663.83756414
 20
140138.54557469
 30
0.0
 11
27855.83713263
 21
140138.54557469
 31
0.0
  0
LINE
  5
1DE
100
AcDbEntity
  8
D-STR
  6
CONTINUOUS
 62
       1
100
AcDbLine
 10
26220.95730092
 20
140390.0655488
 30
0.0
 11
27855.83713263
 21
140390.0655488
 31
0.0
  0
LINE
  5
1DF
100
AcDbEntity
  8
D-STR
  6
CONTINUOUS
 62
       1
100
AcDbLine
 10
27855.83713263
 20
140138.54557469
 30
0.0
 11
27855.83713263
 21
140390.0655488
 31
0.0
  0
ARC
  5
1E0
100
AcDbEntity
  8
D-STR
  6
CONTINUOUS
 62
       1
100
AcDbCircle
 10
26220.95730092
 20
140767.34550997
 30
0.0
 40
377.27996116
100
AcDbArc
 50
180.0
 51
270.0
  0
ARC
  5
1E1
100
AcDbEntity
  8
D-STR
  6
CONTINUOUS
 62
       1
100
AcDbCircle
 10
25298.71739585
 20
140767.34550997
 30
0.0
 40
377.27996116
100
AcDbArc
 50
270.0
 51
360.0
  0
LINE
  5
1E2
100
AcDbEntity
  8
D-STR
  6
CONTINUOUS
 62
       1
100
AcDbLine
 10
23663.83756414
 20
140138.54557469
 30
0.0
 11
23663.83756414
 21
140390.0655488
 31
0.0
  0
LINE
  5
1E3
100
AcDbEntity
  8
D-STR
  6
CONTINUOUS
 62
       1
100
AcDbLine
 10
23663.83756414
 20
146049.26496627
 30
0.0
 11
25298.71739585
 21
146049.26496627
 31
0.0
  0
LINE
  5
1E4
100
AcDbEntity
  8
D-STR
  6
CONTINUOUS
 62
       1
100
AcDbLine
 10
23663.83756414
 20
146300.78494038
 30
0.0
 11
27855.83713263
 21
146300.78494038
 31
0.0
  0
LINE
  5
1E5
100
AcDbEntity
  8
D-STR
  6
CONTINUOUS
 62
       1
100
AcDbLine
 10
26220.95730092
 20
146049.26496627
 30
0.0
 11
27855.83713263
 21
146049.26496627
 31
0.0
  0
LINE
  5
1E6
100
AcDbEntity
  8
D-STR
  6
CONTINUOUS
 62
       1
100
AcDbLine
 10
27855.83713263
 20
146049.26496627
 30
0.0
 11
27855.83713263
 21
146300.78494038
 31
0.0
  0
ARC
  5
1E7
100
AcDbEntity
  8
D-STR
  6
CONTINUOUS
 62
       1
100
AcDbCircle
 10
26220.95730092
 20
145671.9850051
 30
0.0
 40
377.27996116
100
AcDbArc
 50
90.0
 51
180.0
  0
ARC
  5
1E8
100
AcDbEntity
  8
D-STR
  6
CONTINUOUS
 62
       1
100
AcDbCircle
 10
25298.71739585
 20
145671.9850051
 30
0.0
 40
377.27996116
100
AcDbArc
 50
0.0
 51
90.0
  0
LINE
  5
1E9
100
AcDbEntity
  8
D-STR
  6
CONTINUOUS
 62
       1
100
AcDbLine
 10
23663.83756414
 20
146300.78494038
 30
0.0
 11
23663.83756414
 21
146049.26496627
 31
0.0
  0
ENDBLK
  5
1EA
100
AcDbEntity
  8
0
100
AcDbBlockEnd
  0
BLOCK
  5
1EB
100
AcDbEntity
  8
0
100
AcDbBlockBegin
  2
GROUP_22
 70
       0
 10
0.0
 20
0.0
 30
0.0
  3
GROUP_22
  1

  0
LINE
  5
1EC
100
AcDbEntity
  8
D-STR
  6
CONTINUOUS
 62
       1
100
AcDbLine
 10
25686.47735594
 20
150178.38454123
 30
0.0
 11
25686.47735594
 21
154160.7841313
 31
0.0
  0
LINE
  5
1ED
100
AcDbEntity
  8
D-STR
  6
CONTINUOUS
 62
       1
100
AcDbLine
 10
25833.19734083
 20
150178.38454123
 30
0.0
 11
25833.19734083
 21
154160.7841313
 31
0.0
  0
LINE
  5
1EE
100
AcDbEntity
  8
D-STR
  6
CONTINUOUS
 62
       1
100
AcDbLine
 10
23925.83753717
 20
149843.02457575
 30
0.0
 11
25351.11739046
 21
149843.02457575
 31
0.0
  0
LINE
  5
1EF
100
AcDbEntity
  8
D-STR
  6
CONTINUOUS
 62
       1
100
AcDbLine
 10
23925.83753717
 20
149612.46459949
 30
0.0
 11
27593.8371596
 21
149612.46459949
 31
0.0
  0
ARC
  5
1F0
100
AcDbEntity
  8
D-STR
  6
CONTINUOUS
 62
       1
100
AcDbCircle
 10
26168.55730631
 20
150178.38454123
 30
0.0
 40
335.35996548
100
AcDbArc
 50
180.0
 51
270.0
  0
ARC
  5
1F1
100
AcDbEntity
  8
D-STR
  6
CONTINUOUS
 62
       1
100
AcDbCircle
 10
25351.11739046
 20
150178.38454123
 30
0.0
 40
335.35996548
100
AcDbArc
 50
270.0
 51
360.0
  0
LINE
  5
1F2
100
AcDbEntity
  8
D-STR
  6
CONTINUOUS
 62
       1
100
AcDbLine
 10
26168.55730631
 20
149843.02457575
 30
0.0
 11
27593.8371596
 21
149843.02457575
 31
0.0
  0
LINE
  5
1F3
100
AcDbEntity
  8
D-STR
  6
CONTINUOUS
 62
       1
100
AcDbLine
 10
27593.8371596
 20
149612.46459949
 30
0.0
 11
27593.8371596
 21
149843.02457575
 31
0.0
  0
LINE
  5
1F4
100
AcDbEntity
  8
D-STR
  6
CONTINUOUS
 62
       1
100
AcDbLine
 10
23925.83753717
 20
149612.46459949
 30
0.0
 11
23925.83753717
 21
149843.02457575
 31
0.0
  0
LINE
  5
1F5
100
AcDbEntity
  8
D-STR
  6
CONTINUOUS
 62
       1
100
AcDbLine
 10
23925.83753717
 20
154496.14409678
 30
0.0
 11
25351.11739046
 21
154496.14409678
 31
0.0
  0
LINE
  5
1F6
100
AcDbEntity
  8
D-STR
  6
CONTINUOUS
 62
       1
100
AcDbLine
 10
23925.83753717
 20
154726.70407305
 30
0.0
 11
27593.8371596
 21
154726.70407305
 31
0.0
  0
LINE
  5
1F7
100
AcDbEntity
  8
D-STR
  6
CONTINUOUS
 62
       1
100
AcDbLine
 10
26168.55730631
 20
154496.14409678
 30
0.0
 11
27593.8371596
 21
154496.14409678
 31
0.0
  0
LINE
  5
1F8
100
AcDbEntity
  8
D-STR
  6
CONTINUOUS
 62
       1
100
AcDbLine
 10
27593.8371596
 20
154726.70407305
 30
0.0
 11
27593.8371596
 21
154496.14409678
 31
0.0
  0
ARC
  5
1F9
100
AcDbEntity
  8
D-STR
  6
CONTINUOUS
 62
       1
100
AcDbCircle
 10
26168.55730631
 20
154160.7841313
 30
0.0
 40
335.35996548
100
AcDbArc
 50
90.0
 51
180.0
  0
ARC
  5
1FA
100
AcDbEntity
  8
D-STR
  6
CONTINUOUS
 62
       1
100
AcDbCircle
 10
25351.11739046
 20
154160.7841313
 30
0.0
 40
335.35996548
100
AcDbArc
 50
0.0
 51
90.0
  0
LINE
  5
1FB
100
AcDbEntity
  8
D-STR
  6
CONTINUOUS
 62
       1
100
AcDbLine
 10
23925.83753717
 20
154726.70407305
 30
0.0
 11
23925.83753717
 21
154496.14409678
 31
0.0
  0
ENDBLK
  5
1FC
100
AcDbEntity
  8
0
100
AcDbBlockEnd
  0
BLOCK
  5
1FD
100
AcDbEntity
  8
0
100
AcDbBlockBegin
  2
GROUP_23
 70
       0
 10
0.0
 20
0.0
 30
0.0
  3
GROUP_23
  1

  0
LINE
  5
1FE
100
AcDbEntity
  8
D-STR
  6
CONTINUOUS
 62
       1
100
AcDbLine
 10
25466.39737859
 20
161182.38340852
 30
0.0
 11
24187.8375102
 21
161182.38340852
 31
0.0
  0
LINE
  5
1FF
100
AcDbEntity
  8
D-STR
  6
CONTINUOUS
 62
       1
100
AcDbLine
 10
27331.83718657
 20
161371.02338911
 30
0.0
 11
24187.8375102
 21
161371.02338911
 31
0.0
  0
LINE
  5
200
100
AcDbEntity
  8
D-STR
  6
CONTINUOUS
 62
       1
100
AcDbLine
 10
25466.39737859
 20
157493.42378825
 30
0.0
 11
24187.8375102
 21
157493.42378825
 31
0.0
  0
LINE
  5
201
100
AcDbEntity
  8
D-STR
  6
CONTINUOUS
 62
       1
100
AcDbLine
 10
27331.83718657
 20
157304.78380767
 30
0.0
 11
24187.8375102
 21
157304.78380767
 31
0.0
  0
LINE
  5
202
100
AcDbEntity
  8
D-STR
  6
CONTINUOUS
 62
       1
100
AcDbLine
 10
25822.71734191
 20
160951.82343226
 30
0.0
 11
25822.71734191
 21
157723.98376452
 31
0.0
  0
LINE
  5
203
100
AcDbEntity
  8
D-STR
  6
CONTINUOUS
 62
       1
100
AcDbLine
 10
25696.95735486
 20
160951.82343226
 30
0.0
 11
25696.95735486
 21
157723.98376452
 31
0.0
  0
LINE
  5
204
100
AcDbEntity
  8
D-STR
  6
CONTINUOUS
 62
       1
100
AcDbLine
 10
27331.83718657
 20
157493.42378825
 30
0.0
 11
27331.83718657
 21
157304.78380767
 31
0.0
  0
LINE
  5
205
100
AcDbEntity
  8
D-STR
  6
CONTINUOUS
 62
       1
100
AcDbLine
 10
27331.83718657
 20
157493.42378825
 30
0.0
 11
26053.27731818
 21
157493.42378825
 31
0.0
  0
ARC
  5
206
100
AcDbEntity
  8
D-STR
  6
CONTINUOUS
 62
       1
100
AcDbCircle
 10
26053.27731818
 20
157723.98376452
 30
0.0
 40
230.55997627
100
AcDbArc
 50
180.0
 51
270.0
  0
ARC
  5
207
100
AcDbEntity
  8
D-STR
  6
CONTINUOUS
 62
       1
100
AcDbCircle
 10
25466.39737859
 20
157723.98376452
 30
0.0
 40
230.55997627
100
AcDbArc
 50
270.0
 51
360.0
  0
LINE
  5
208
100
AcDbEntity
  8
D-STR
  6
CONTINUOUS
 62
       1
100
AcDbLine
 10
27331.83718657
 20
161182.38340852
 30
0.0
 11
26053.27731818
 21
161182.38340852
 31
0.0
  0
LINE
  5
209
100
AcDbEntity
  8
D-STR
  6
CONTINUOUS
 62
       1
100
AcDbLine
 10
27331.83718657
 20
161371.02338911
 30
0.0
 11
27331.83718657
 21
161182.38340852
 31
0.0
  0
ARC
  5
20A
100
AcDbEntity
  8
D-STR
  6
CONTINUOUS
 62
       1
100
AcDbCircle
 10
26053.27731818
 20
160951.82343226
 30
0.0
 40
230.55997627
100
AcDbArc
 50
90.0
 51
180.0
  0
ARC
  5
20B
100
AcDbEntity
  8
D-STR
  6
CONTINUOUS
 62
       1
100
AcDbCircle
 10
25466.39737859
 20
160951.82343226
 30
0.0
 40
230.55997627
100
AcDbArc
 50
0.0
 51
90.0
  0
LINE
  5
20C
100
AcDbEntity
  8
D-STR
  6
CONTINUOUS
 62
       1
100
AcDbLine
 10
24187.8375102
 20
157493.42378825
 30
0.0
 11
24187.8375102
 21
157304.78380767
 31
0.0
  0
LINE
  5
20D
100
AcDbEntity
  8
D-STR
  6
CONTINUOUS
 62
       1
100
AcDbLine
 10
24187.8375102
 20
161371.02338911
 30
0.0
 11
24187.8375102
 21
161182.38340852
 31
0.0
  0
ENDBLK
  5
20E
100
AcDbEntity
  8
0
100
AcDbBlockEnd
  0
BLOCK
  5
20F
100
AcDbEntity
  8
0
100
AcDbBlockBegin
  2
GROUP_24
 70
       0
 10
0.0
 20
0.0
 30
0.0
  3
GROUP_24
  1

  0
LINE
  5
210
100
AcDbEntity
  8
D-STR
  6
CONTINUOUS
 62
       1
100
AcDbLine
 10
8991.83907442
 20
172113.02228337
 30
0.0
 11
8991.83907442
 21
171924.38230278
 31
0.0
  0
LINE
  5
211
100
AcDbEntity
  8
D-STR
  6
CONTINUOUS
 62
       1
100
AcDbLine
 10
11087.83885866
 20
172113.02228337
 30
0.0
 11
11087.83885866
 21
171924.38230278
 31
0.0
  0
LINE
  5
212
100
AcDbEntity
  8
D-STR
  6
CONTINUOUS
 62
       1
100
AcDbLine
 10
9746.39899674
 20
171924.38230278
 30
0.0
 11
8991.83907442
 21
171924.38230278
 31
0.0
  0
LINE
  5
213
100
AcDbEntity
  8
D-STR
  6
CONTINUOUS
 62
       1
100
AcDbLine
 10
9746.39899674
 20
169199.58258327
 30
0.0
 11
8991.83907442
 21
169199.58258327
 31
0.0
  0
LINE
  5
214
100
AcDbEntity
  8
D-STR
  6
CONTINUOUS
 62
       1
100
AcDbLine
 10
11087.83885866
 20
169010.94260268
 30
0.0
 11
8991.83907442
 21
169010.94260268
 31
0.0
  0
LINE
  5
215
100
AcDbEntity
  8
D-STR
  6
CONTINUOUS
 62
       1
100
AcDbLine
 10
9976.95897301
 20
171693.82232652
 30
0.0
 11
9976.95897301
 21
169430.14255953
 31
0.0
  0
LINE
  5
216
100
AcDbEntity
  8
D-STR
  6
CONTINUOUS
 62
       1
100
AcDbLine
 10
10102.71896007
 20
171693.82232652
 30
0.0
 11
10102.71896007
 21
169430.14255953
 31
0.0
  0
ARC
  5
217
100
AcDbEntity
  8
D-STR
  6
CONTINUOUS
 62
       1
100
AcDbCircle
 10
10333.27893633
 20
169430.14255953
 30
0.0
 40
230.55997627
100
AcDbArc
 50
180.0
 51
270.0
  0
LINE
  5
218
100
AcDbEntity
  8
D-STR
  6
CONTINUOUS
 62
       1
100
AcDbLine
 10
11087.83885866
 20
169199.58258327
 30
0.0
 11
11087.83885866
 21
169010.94260268
 31
0.0
  0
LINE
  5
219
100
AcDbEntity
  8
D-STR
  6
CONTINUOUS
 62
       1
100
AcDbLine
 10
11087.83885866
 20
169199.58258327
 30
0.0
 11
10333.27893633
 21
169199.58258327
 31
0.0
  0
ARC
  5
21A
100
AcDbEntity
  8
D-STR
  6
CONTINUOUS
 62
       1
100
AcDbCircle
 10
9746.39899674
 20
169430.14255953
 30
0.0
 40
230.55997627
100
AcDbArc
 50
270.0
 51
360.0
  0
ARC
  5
21B
100
AcDbEntity
  8
D-STR
  6
CONTINUOUS
 62
       1
100
AcDbCircle
 10
10333.27893633
 20
171693.82232652
 30
0.0
 40
230.55997627
100
AcDbArc
 50
90.0
 51
180.0
  0
LINE
  5
21C
100
AcDbEntity
  8
D-STR
  6
CONTINUOUS
 62
       1
100
AcDbLine
 10
11087.83885866
 20
171924.38230278
 30
0.0
 11
10333.27893633
 21
171924.38230278
 31
0.0
  0
ARC
  5
21D
100
AcDbEntity
  8
D-STR
  6
CONTINUOUS
 62
       1
100
AcDbCircle
 10
9746.39899674
 20
171693.82232652
 30
0.0
 40
230.55997627
100
AcDbArc
 50
0.0
 51
90.0
  0
LINE
  5
21E
100
AcDbEntity
  8
D-STR
  6
CONTINUOUS
 62
       1
100
AcDbLine
 10
8991.83907442
 20
169199.58258327
 30
0.0
 11
8991.83907442
 21
169010.94260268
 31
0.0
  0
LINE
  5
21F
100
AcDbEntity
  8
D-STR
  6
CONTINUOUS
 62
       1
100
AcDbLine
 10
11087.83885866
 20
172113.02228337
 30
0.0
 11
8991.83907442
 21
172113.02228337
 31
0.0
  0
ENDBLK
  5
220
100
AcDbEntity
  8
0
100
AcDbBlockEnd
  0
BLOCK
  5
221
100
AcDbEntity
  8
0
100
AcDbBlockBegin
  2
GROUP_25
 70
       0
 10
0.0
 20
0.0
 30
0.0
  3
GROUP_25
  1

  0
ARC
  5
222
100
AcDbEntity
  8
D-STR
  6
CONTINUOUS
 62
       1
100
AcDbCircle
 10
10312.31893849
 20
178013.26167602
 30
0.0
 40
209.59997842
100
AcDbArc
 50
180.0
 51
270.0
  0
ARC
  5
223
100
AcDbEntity
  8
D-STR
  6
CONTINUOUS
 62
       1
100
AcDbCircle
 10
10312.31893849
 20
179354.70153794
 30
0.0
 40
209.59997842
100
AcDbArc
 50
90.0
 51
180.0
  0
LINE
  5
224
100
AcDbEntity
  8
D-STR
  6
CONTINUOUS
 62
       1
100
AcDbLine
 10
11087.83885866
 20
177635.98171486
 30
0.0
 11
8991.83907442
 21
177635.98171486
 31
0.0
  0
LINE
  5
225
100
AcDbEntity
  8
D-STR
  6
CONTINUOUS
 62
       1
100
AcDbLine
 10
11087.83885866
 20
179731.9814991
 30
0.0
 11
8991.83907442
 21
179731.9814991
 31
0.0
  0
LINE
  5
226
100
AcDbEntity
  8
D-STR
  6
CONTINUOUS
 62
       1
100
AcDbLine
 10
10102.71896007
 20
179354.70153794
 30
0.0
 11
10102.71896007
 21
178013.26167602
 31
0.0
  0
LINE
  5
227
100
AcDbEntity
  8
D-STR
  6
CONTINUOUS
 62
       1
100
AcDbLine
 10
11087.83885866
 20
177803.6616976
 30
0.0
 11
10312.31893849
 21
177803.6616976
 31
0.0
  0
LINE
  5
228
100
AcDbEntity
  8
D-STR
  6
CONTINUOUS
 62
       1
100
AcDbLine
 10
11087.83885866
 20
177803.6616976
 30
0.0
 11
11087.83885866
 21
177635.98171486
 31
0.0
  0
LINE
  5
229
100
AcDbEntity
  8
D-STR
  6
CONTINUOUS
 62
       1
100
AcDbLine
 10
11087.83885866
 20
179564.30151636
 30
0.0
 11
10312.31893849
 21
179564.30151636
 31
0.0
  0
LINE
  5
22A
100
AcDbEntity
  8
D-STR
  6
CONTINUOUS
 62
       1
100
AcDbLine
 10
11087.83885866
 20
179731.9814991
 30
0.0
 11
11087.83885866
 21
179564.30151636
 31
0.0
  0
LINE
  5
22B
100
AcDbEntity
  8
D-STR
  6
CONTINUOUS
 62
       1
100
AcDbLine
 10
9976.95897301
 20
179354.70153794
 30
0.0
 11
9976.95897301
 21
178013.26167602
 31
0.0
  0
ARC
  5
22C
100
AcDbEntity
  8
D-STR
  6
CONTINUOUS
 62
       1
100
AcDbCircle
 10
9767.35899459
 20
178013.26167602
 30
0.0
 40
209.59997842
100
AcDbArc
 50
270.0
 51
360.0
  0
LINE
  5
22D
100
AcDbEntity
  8
D-STR
  6
CONTINUOUS
 62
       1
100
AcDbLine
 10
9767.35899459
 20
177803.6616976
 30
0.0
 11
8991.83907442
 21
177803.6616976
 31
0.0
  0
LINE
  5
22E
100
AcDbEntity
  8
D-STR
  6
CONTINUOUS
 62
       1
100
AcDbLine
 10
8991.83907442
 20
177803.6616976
 30
0.0
 11
8991.83907442
 21
177635.98171486
 31
0.0
  0
LINE
  5
22F
100
AcDbEntity
  8
D-STR
  6
CONTINUOUS
 62
       1
100
AcDbLine
 10
9767.35899459
 20
179564.30151636
 30
0.0
 11
8991.83907442
 21
179564.30151636
 31
0.0
  0
ARC
  5
230
100
AcDbEntity
  8
D-STR
  6
CONTINUOUS
 62
       1
100
AcDbCircle
 10
9767.35899459
 20
179354.70153794
 30
0.0
 40
209.59997842
100
AcDbArc
 50
0.0
 51
90.0
  0
LINE
  5
231
100
AcDbEntity
  8
D-STR
  6
CONTINUOUS
 62
       1
100
AcDbLine
 10
8991.83907442
 20
179731.9814991
 30
0.0
 11
8991.83907442
 21
179564.30151636
 31
0.0
  0
ENDBLK
  5
232
100
AcDbEntity
  8
0
100
AcDbBlockEnd
  0
BLOCK
  5
233
100
AcDbEntity
  8
0
100
AcDbBlockBegin
  2
GROUP_26
 70
       0
 10
0.0
 20
0.0
 30
0.0
  3
GROUP_26
  1

  0
ARC
  5
234
100
AcDbEntity
  8
D-STR
  6
CONTINUOUS
 62
       1
100
AcDbCircle
 10
10317.55893795
 20
174104.2220784
 30
0.0
 40
209.59997842
100
AcDbArc
 50
180.0
 51
270.0
  0
ARC
  5
235
100
AcDbEntity
  8
D-STR
  6
CONTINUOUS
 62
       1
100
AcDbCircle
 10
10317.55893795
 20
175927.7418907
 30
0.0
 40
209.59997842
100
AcDbArc
 50
90.0
 51
180.0
  0
LINE
  5
236
100
AcDbEntity
  8
D-STR
  6
CONTINUOUS
 62
       1
100
AcDbLine
 10
11349.83883169
 20
173705.98211939
 30
0.0
 11
8729.83910138
 21
173705.98211939
 31
0.0
  0
LINE
  5
237
100
AcDbEntity
  8
D-STR
  6
CONTINUOUS
 62
       1
100
AcDbLine
 10
11349.83883169
 20
176325.9818497
 30
0.0
 11
8729.83910138
 21
176325.9818497
 31
0.0
  0
LINE
  5
238
100
AcDbEntity
  8
D-STR
  6
CONTINUOUS
 62
       1
100
AcDbLine
 10
10107.95895953
 20
175927.7418907
 30
0.0
 11
10107.95895953
 21
174104.2220784
 31
0.0
  0
LINE
  5
239
100
AcDbEntity
  8
D-STR
  6
CONTINUOUS
 62
       1
100
AcDbLine
 10
11349.83883169
 20
173894.62209998
 30
0.0
 11
10317.55893795
 21
173894.62209998
 31
0.0
  0
LINE
  5
23A
100
AcDbEntity
  8
D-STR
  6
CONTINUOUS
 62
       1
100
AcDbLine
 10
11349.83883169
 20
173894.62209998
 30
0.0
 11
11349.83883169
 21
173705.98211939
 31
0.0
  0
LINE
  5
23B
100
AcDbEntity
  8
D-STR
  6
CONTINUOUS
 62
       1
100
AcDbLine
 10
11349.83883169
 20
176137.34186912
 30
0.0
 11
10317.55893795
 21
176137.34186912
 31
0.0
  0
LINE
  5
23C
100
AcDbEntity
  8
D-STR
  6
CONTINUOUS
 62
       1
100
AcDbLine
 10
11349.83883169
 20
176325.9818497
 30
0.0
 11
11349.83883169
 21
176137.34186912
 31
0.0
  0
LINE
  5
23D
100
AcDbEntity
  8
D-STR
  6
CONTINUOUS
 62
       1
100
AcDbLine
 10
9971.71897355
 20
175927.7418907
 30
0.0
 11
9971.71897355
 21
174104.2220784
 31
0.0
  0
LINE
  5
23E
100
AcDbEntity
  8
D-STR
  6
CONTINUOUS
 62
       1
100
AcDbLine
 10
9762.11899513
 20
173894.62209998
 30
0.0
 11
8729.83910138
 21
173894.62209998
 31
0.0
  0
ARC
  5
23F
100
AcDbEntity
  8
D-STR
  6
CONTINUOUS
 62
       1
100
AcDbCircle
 10
9762.11899513
 20
174104.2220784
 30
0.0
 40
209.59997842
100
AcDbArc
 50
270.0
 51
360.0
  0
LINE
  5
240
100
AcDbEntity
  8
D-STR
  6
CONTINUOUS
 62
       1
100
AcDbLine
 10
8729.83910138
 20
173894.62209998
 30
0.0
 11
8729.83910138
 21
173705.98211939
 31
0.0
  0
LINE
  5
241
100
AcDbEntity
  8
D-STR
  6
CONTINUOUS
 62
       1
100
AcDbLine
 10
9762.11899513
 20
176137.34186912
 30
0.0
 11
8729.83910138
 21
176137.34186912
 31
0.0
  0
ARC
  5
242
100
AcDbEntity
  8
D-STR
  6
CONTINUOUS
 62
       1
100
AcDbCircle
 10
9762.11899513
 20
175927.7418907
 30
0.0
 40
209.59997842
100
AcDbArc
 50
0.0
 51
90.0
  0
LINE
  5
243
100
AcDbEntity
  8
D-STR
  6
CONTINUOUS
 62
       1
100
AcDbLine
 10
8729.83910138
 20
176325.9818497
 30
0.0
 11
8729.83910138
 21
176137.34186912
 31
0.0
  0
ENDBLK
  5
244
100
AcDbEntity
  8
0
100
AcDbBlockEnd
  0
BLOCK
  5
245
100
AcDbEntity
  8
0
100
AcDbBlockBegin
  2
GROUP_27
 70
       0
 10
0.0
 20
0.0
 30
0.0
  3
GROUP_27
  1

  0
ARC
  5
246
100
AcDbEntity
  8
D-STR
  6
CONTINUOUS
 62
       1
100
AcDbCircle
 10
26063.7573171
 20
169430.14255953
 30
0.0
 40
230.55997627
100
AcDbArc
 50
180.0
 51
270.0
  0
ARC
  5
247
100
AcDbEntity
  8
D-STR
  6
CONTINUOUS
 62
       1
100
AcDbCircle
 10
25455.91737967
 20
169430.14255953
 30
0.0
 40
230.55997627
100
AcDbArc
 50
270.0
 51
360.0
  0
LINE
  5
248
100
AcDbEntity
  8
D-STR
  6
CONTINUOUS
 62
       1
100
AcDbLine
 10
27331.83718657
 20
168989.98260484
 30
0.0
 11
24187.8375102
 21
168989.98260484
 31
0.0
  0
LINE
  5
249
100
AcDbEntity
  8
D-STR
  6
CONTINUOUS
 62
       1
100
AcDbLine
 10
27331.83718657
 20
169199.58258327
 30
0.0
 11
26063.7573171
 21
169199.58258327
 31
0.0
  0
LINE
  5
24A
100
AcDbEntity
  8
D-STR
  6
CONTINUOUS
 62
       1
100
AcDbLine
 10
27331.83718657
 20
169199.58258327
 30
0.0
 11
27331.83718657
 21
168989.98260484
 31
0.0
  0
LINE
  5
24B
100
AcDbEntity
  8
D-STR
  6
CONTINUOUS
 62
       1
100
AcDbLine
 10
25455.91737967
 20
169199.58258327
 30
0.0
 11
24187.8375102
 21
169199.58258327
 31
0.0
  0
LINE
  5
24C
100
AcDbEntity
  8
D-STR
  6
CONTINUOUS
 62
       1
100
AcDbLine
 10
24187.8375102
 20
169199.58258327
 30
0.0
 11
24187.8375102
 21
168989.98260484
 31
0.0
  0
ARC
  5
24D
100
AcDbEntity
  8
D-STR
  6
CONTINUOUS
 62
       1
100
AcDbCircle
 10
26063.7573171
 20
171693.82232652
 30
0.0
 40
230.55997627
100
AcDbArc
 50
90.0
 51
180.0
  0
LINE
  5
24E
100
AcDbEntity
  8
D-STR
  6
CONTINUOUS
 62
       1
100
AcDbLine
 10
27331.83718657
 20
172133.98228121
 30
0.0
 11
24187.8375102
 21
172133.98228121
 31
0.0
  0
LINE
  5
24F
100
AcDbEntity
  8
D-STR
  6
CONTINUOUS
 62
       1
100
AcDbLine
 10
25833.19734083
 20
171693.82232652
 30
0.0
 11
25833.19734083
 21
169430.14255953
 31
0.0
  0
LINE
  5
250
100
AcDbEntity
  8
D-STR
  6
CONTINUOUS
 62
       1
100
AcDbLine
 10
27331.83718657
 20
171924.38230278
 30
0.0
 11
26063.7573171
 21
171924.38230278
 31
0.0
  0
LINE
  5
251
100
AcDbEntity
  8
D-STR
  6
CONTINUOUS
 62
       1
100
AcDbLine
 10
27331.83718657
 20
172133.98228121
 30
0.0
 11
27331.83718657
 21
171924.38230278
 31
0.0
  0
LINE
  5
252
100
AcDbEntity
  8
D-STR
  6
CONTINUOUS
 62
       1
100
AcDbLine
 10
25686.47735594
 20
171693.82232652
 30
0.0
 11
25686.47735594
 21
169430.14255953
 31
0.0
  0
LINE
  5
253
100
AcDbEntity
  8
D-STR
  6
CONTINUOUS
 62
       1
100
AcDbLine
 10
25455.91737967
 20
171924.38230278
 30
0.0
 11
24187.8375102
 21
171924.38230278
 31
0.0
  0
ARC
  5
254
100
AcDbEntity
  8
D-STR
  6
CONTINUOUS
 62
       1
100
AcDbCircle
 10
25455.91737967
 20
171693.82232652
 30
0.0
 40
230.55997627
100
AcDbArc
 50
0.0
 51
90.0
  0
LINE
  5
255
100
AcDbEntity
  8
D-STR
  6
CONTINUOUS
 62
       1
100
AcDbLine
 10
24187.8375102
 20
172133.98228121
 30
0.0
 11
24187.8375102
 21
171924.38230278
 31
0.0
  0
ENDBLK
  5
256
100
AcDbEntity
  8
0
100
AcDbBlockEnd
  0
BLOCK
  5
257
100
AcDbEntity
  8
0
100
AcDbBlockBegin
  2
GROUP_28
 70
       0
 10
0.0
 20
0.0
 30
0.0
  3
GROUP_28
  1

  0
LINE
  5
258
100
AcDbEntity
  8
D-STR
  6
CONTINUOUS
 62
       1
100
AcDbLine
 10
10118.43895845
 20
166673.90284325
 30
0.0
 11
10118.43895845
 21
163970.06312157
 31
0.0
  0
LINE
  5
259
100
AcDbEntity
  8
D-STR
  6
CONTINUOUS
 62
       1
100
AcDbLine
 10
9961.23897463
 20
166673.90284325
 30
0.0
 11
9961.23897463
 21
163970.06312157
 31
0.0
  0
ARC
  5
25A
100
AcDbEntity
  8
D-STR
  6
CONTINUOUS
 62
       1
100
AcDbCircle
 10
10369.95893256
 20
163970.06312157
 30
0.0
 40
251.51997411
100
AcDbArc
 50
180.0
 51
270.0
  0
LINE
  5
25B
100
AcDbEntity
  8
D-STR
  6
CONTINUOUS
 62
       1
100
AcDbLine
 10
11873.83877775
 20
163487.98317119
 30
0.0
 11
8205.83915532
 21
163487.98317119
 31
0.0
  0
LINE
  5
25C
100
AcDbEntity
  8
D-STR
  6
CONTINUOUS
 62
       1
100
AcDbLine
 10
11873.83877775
 20
163718.54314746
 30
0.0
 11
10369.95893256
 21
163718.54314746
 31
0.0
  0
LINE
  5
25D
100
AcDbEntity
  8
D-STR
  6
CONTINUOUS
 62
       1
100
AcDbLine
 10
11873.83877775
 20
163718.54314746
 30
0.0
 11
11873.83877775
 21
163487.98317119
 31
0.0
  0
LINE
  5
25E
100
AcDbEntity
  8
D-STR
  6
CONTINUOUS
 62
       1
100
AcDbLine
 10
9709.71900052
 20
163718.54314746
 30
0.0
 11
8205.83915532
 21
163718.54314746
 31
0.0
  0
ARC
  5
25F
100
AcDbEntity
  8
D-STR
  6
CONTINUOUS
 62
       1
100
AcDbCircle
 10
9709.71900052
 20
163970.06312157
 30
0.0
 40
251.51997411
100
AcDbArc
 50
270.0
 51
360.0
  0
LINE
  5
260
100
AcDbEntity
  8
D-STR
  6
CONTINUOUS
 62
       1
100
AcDbLine
 10
8205.83915532
 20
163718.54314746
 30
0.0
 11
8205.83915532
 21
163487.98317119
 31
0.0
  0
ARC
  5
261
100
AcDbEntity
  8
D-STR
  6
CONTINUOUS
 62
       1
100
AcDbCircle
 10
10369.95893256
 20
166673.90284325
 30
0.0
 40
251.51997411
100
AcDbArc
 50
90.0
 51
180.0
  0
LINE
  5
262
100
AcDbEntity
  8
D-STR
  6
CONTINUOUS
 62
       1
100
AcDbLine
 10
11873.83877775
 20
167155.98279363
 30
0.0
 11
8205.83915532
 21
167155.98279363
 31
0.0
  0
LINE
  5
263
100
AcDbEntity
  8
D-STR
  6
CONTINUOUS
 62
       1
100
AcDbLine
 10
11873.83877775
 20
166925.42281736
 30
0.0
 11
10369.95893256
 21
166925.42281736
 31
0.0
  0
LINE
  5
264
100
AcDbEntity
  8
D-STR
  6
CONTINUOUS
 62
       1
100
AcDbLine
 10
11873.83877775
 20
167155.98279363
 30
0.0
 11
11873.83877775
 21
166925.42281736
 31
0.0
  0
LINE
  5
265
100
AcDbEntity
  8
D-STR
  6
CONTINUOUS
 62
       1
100
AcDbLine
 10
9709.71900052
 20
166925.42281736
 30
0.0
 11
8205.83915532
 21
166925.42281736
 31
0.0
  0
ARC
  5
266
100
AcDbEntity
  8
D-STR
  6
CONTINUOUS
 62
       1
100
AcDbCircle
 10
9709.71900052
 20
166673.90284325
 30
0.0
 40
251.51997411
100
AcDbArc
 50
0.0
 51
90.0
  0
LINE
  5
267
100
AcDbEntity
  8
D-STR
  6
CONTINUOUS
 62
       1
100
AcDbLine
 10
8205.83915532
 20
167155.98279363
 30
0.0
 11
8205.83915532
 21
166925.42281736
 31
0.0
  0
ENDBLK
  5
268
100
AcDbEntity
  8
0
100
AcDbBlockEnd
  0
BLOCK
  5
269
100
AcDbEntity
  8
0
100
AcDbBlockBegin
  2
GROUP_29
 70
       0
 10
0.0
 20
0.0
 30
0.0
  3
GROUP_29
  1

  0
LINE
  5
26A
100
AcDbEntity
  8
D-STR
  6
CONTINUOUS
 62
       1
100
AcDbLine
 10
41563.6757216
 20
160909.90343657
 30
0.0
 11
41563.6757216
 21
157765.9037602
 31
0.0
  0
LINE
  5
26B
100
AcDbEntity
  8
D-STR
  6
CONTINUOUS
 62
       1
100
AcDbLine
 10
41395.99573886
 20
160909.90343657
 30
0.0
 11
41395.99573886
 21
157765.9037602
 31
0.0
  0
LINE
  5
26C
100
AcDbEntity
  8
D-STR
  6
CONTINUOUS
 62
       1
100
AcDbLine
 10
43575.83551448
 20
157493.42378825
 30
0.0
 11
41836.15569355
 21
157493.42378825
 31
0.0
  0
LINE
  5
26D
100
AcDbEntity
  8
D-STR
  6
CONTINUOUS
 62
       1
100
AcDbLine
 10
43575.83551448
 20
157241.90381414
 30
0.0
 11
39383.83594598
 21
157241.90381414
 31
0.0
  0
LINE
  5
26E
100
AcDbEntity
  8
D-STR
  6
CONTINUOUS
 62
       1
100
AcDbLine
 10
43575.83551448
 20
157493.42378825
 30
0.0
 11
43575.83551448
 21
157241.90381414
 31
0.0
  0
LINE
  5
26F
100
AcDbEntity
  8
D-STR
  6
CONTINUOUS
 62
       1
100
AcDbLine
 10
41123.51576691
 20
157493.42378825
 30
0.0
 11
39383.83594598
 21
157493.42378825
 31
0.0
  0
ARC
  5
270
100
AcDbEntity
  8
D-STR
  6
CONTINUOUS
 62
       1
100
AcDbCircle
 10
41123.51576691
 20
157765.9037602
 30
0.0
 40
272.47997195
100
AcDbArc
 50
270.0
 51
360.0
  0
ARC
  5
271
100
AcDbEntity
  8
D-STR
  6
CONTINUOUS
 62
       1
100
AcDbCircle
 10
41836.15569355
 20
157765.9037602
 30
0.0
 40
272.47997195
100
AcDbArc
 50
180.0
 51
270.0
  0
LINE
  5
272
100
AcDbEntity
  8
D-STR
  6
CONTINUOUS
 62
       1
100
AcDbLine
 10
39383.83594598
 20
157493.42378825
 30
0.0
 11
39383.83594598
 21
157241.90381414
 31
0.0
  0
LINE
  5
273
100
AcDbEntity
  8
D-STR
  6
CONTINUOUS
 62
       1
100
AcDbLine
 10
43575.83551448
 20
161182.38340852
 30
0.0
 11
41836.15569355
 21
161182.38340852
 31
0.0
  0
LINE
  5
274
100
AcDbEntity
  8
D-STR
  6
CONTINUOUS
 62
       1
100
AcDbLine
 10
43575.83551448
 20
161433.90338263
 30
0.0
 11
39383.83594598
 21
161433.90338263
 31
0.0
  0
LINE
  5
275
100
AcDbEntity
  8
D-STR
  6
CONTINUOUS
 62
       1
100
AcDbLine
 10
43575.83551448
 20
161433.90338263
 30
0.0
 11
43575.83551448
 21
161182.38340852
 31
0.0
  0
LINE
  5
276
100
AcDbEntity
  8
D-STR
  6
CONTINUOUS
 62
       1
100
AcDbLine
 10
41123.51576691
 20
161182.38340852
 30
0.0
 11
39383.83594598
 21
161182.38340852
 31
0.0
  0
ARC
  5
277
100
AcDbEntity
  8
D-STR
  6
CONTINUOUS
 62
       1
100
AcDbCircle
 10
41123.51576691
 20
160909.90343657
 30
0.0
 40
272.47997195
100
AcDbArc
 50
0.0
 51
90.0
  0
ARC
  5
278
100
AcDbEntity
  8
D-STR
  6
CONTINUOUS
 62
       1
100
AcDbCircle
 10
41836.15569355
 20
160909.90343657
 30
0.0
 40
272.47997195
100
AcDbArc
 50
90.0
 51
180.0
  0
LINE
  5
279
100
AcDbEntity
  8
D-STR
  6
CONTINUOUS
 62
       1
100
AcDbLine
 10
39383.83594598
 20
161433.90338263
 30
0.0
 11
39383.83594598
 21
161182.38340852
 31
0.0
  0
ENDBLK
  5
27A
100
AcDbEntity
  8
0
100
AcDbBlockEnd
  0
BLOCK
  5
27B
100
AcDbEntity
  8
0
100
AcDbBlockBegin
  2
GROUP_30
 70
       0
 10
0.0
 20
0.0
 30
0.0
  3
GROUP_30
  1

  0
LINE
  5
27C
100
AcDbEntity
  8
D-STR
  6
CONTINUOUS
 62
       1
100
AcDbLine
 10
45126.87535482
 20
129239.34669661
 30
0.0
 11
45126.87535482
 21
129574.70666209
 31
0.0
  0
LINE
  5
27D
100
AcDbEntity
  8
D-STR
  6
CONTINUOUS
 62
       1
100
AcDbLine
 10
41584.63571944
 20
129951.98662326
 30
0.0
 11
41584.63571944
 21
135736.94602778
 31
0.0
  0
LINE
  5
27E
100
AcDbEntity
  8
D-STR
  6
CONTINUOUS
 62
       1
100
AcDbLine
 10
41375.03574102
 20
129951.98662326
 30
0.0
 11
41375.03574102
 21
135736.94602778
 31
0.0
  0
LINE
  5
27F
100
AcDbEntity
  8
D-STR
  6
CONTINUOUS
 62
       1
100
AcDbLine
 10
37832.79610564
 20
129574.70666209
 30
0.0
 11
40997.75577985
 21
129574.70666209
 31
0.0
  0
LINE
  5
280
100
AcDbEntity
  8
D-STR
  6
CONTINUOUS
 62
       1
100
AcDbLine
 10
37832.79610564
 20
136114.22598894
 30
0.0
 11
40997.75577985
 21
136114.22598894
 31
0.0
  0
LINE
  5
281
100
AcDbEntity
  8
D-STR
  6
CONTINUOUS
 62
       1
100
AcDbLine
 10
41961.91568061
 20
136114.22598894
 30
0.0
 11
45126.87535482
 21
136114.22598894
 31
0.0
  0
ARC
  5
282
100
AcDbEntity
  8
D-STR
  6
CONTINUOUS
 62
       1
100
AcDbCircle
 10
40997.75577985
 20
129951.98662326
 30
0.0
 40
377.27996116
100
AcDbArc
 50
270.0
 51
360.0
  0
ARC
  5
283
100
AcDbEntity
  8
D-STR
  6
CONTINUOUS
 62
       1
100
AcDbCircle
 10
41961.91568061
 20
129951.98662326
 30
0.0
 40
377.27996116
100
AcDbArc
 50
180.0
 51
270.0
  0
ARC
  5
284
100
AcDbEntity
  8
D-STR
  6
CONTINUOUS
 62
       1
100
AcDbCircle
 10
40997.75577985
 20
135736.94602778
 30
0.0
 40
377.27996116
100
AcDbArc
 50
0.0
 51
90.0
  0
ARC
  5
285
100
AcDbEntity
  8
D-STR
  6
CONTINUOUS
 62
       1
100
AcDbCircle
 10
41961.91568061
 20
135736.94602778
 30
0.0
 40
377.27996116
100
AcDbArc
 50
90.0
 51
180.0
  0
LINE
  5
286
100
AcDbEntity
  8
D-STR
  6
CONTINUOUS
 62
       1
100
AcDbLine
 10
41961.91568061
 20
129574.70666209
 30
0.0
 11
45126.87535482
 21
129574.70666209
 31
0.0
  0
LINE
  5
287
100
AcDbEntity
  8
D-STR
  6
CONTINUOUS
 62
       1
100
AcDbLine
 10
45126.87535482
 20
129239.34669661
 30
0.0
 11
37832.79610564
 21
129239.34669661
 31
0.0
  0
LINE
  5
288
100
AcDbEntity
  8
D-STR
  6
CONTINUOUS
 62
       1
100
AcDbLine
 10
37832.79610564
 20
129574.70666209
 30
0.0
 11
37832.79610564
 21
129239.34669661
 31
0.0
  0
LINE
  5
289
100
AcDbEntity
  8
D-STR
  6
CONTINUOUS
 62
       1
100
AcDbLine
 10
37832.79610564
 20
136114.22598894
 30
0.0
 11
37832.79610564
 21
136449.58595442
 31
0.0
  0
LINE
  5
28A
100
AcDbEntity
  8
D-STR
  6
CONTINUOUS
 62
       1
100
AcDbLine
 10
45126.87535482
 20
136114.22598894
 30
0.0
 11
45126.87535482
 21
136449.58595442
 31
0.0
  0
LINE
  5
28B
100
AcDbEntity
  8
D-STR
  6
CONTINUOUS
 62
       1
100
AcDbLine
 10
45126.87535482
 20
136449.58595442
 30
0.0
 11
37832.79610564
 21
136449.58595442
 31
0.0
  0
ENDBLK
  5
28C
100
AcDbEntity
  8
0
100
AcDbBlockEnd
  0
BLOCK
  5
28D
100
AcDbEntity
  8
0
100
AcDbBlockBegin
  2
GROUP_31
 70
       0
 10
0.0
 20
0.0
 30
0.0
  3
GROUP_31
  1

  0
LINE
  5
28E
100
AcDbEntity
  8
D-STR
  6
CONTINUOUS
 62
       1
100
AcDbLine
 10
7943.83918229
 20
68727.83292543
 30
0.0
 11
9463.43902587
 21
68727.83292543
 31
0.0
  0
LINE
  5
28F
100
AcDbEntity
  8
D-STR
  6
CONTINUOUS
 62
       1
100
AcDbLine
 10
7943.83918229
 20
80591.19170426
 30
0.0
 11
9463.43902587
 21
80591.19170426
 31
0.0
  0
LINE
  5
290
100
AcDbEntity
  8
D-STR
  6
CONTINUOUS
 62
       1
100
AcDbLine
 10
7943.83918229
 20
68371.51296211
 30
0.0
 11
12135.83875078
 21
68371.51296211
 31
0.0
  0
LINE
  5
291
100
AcDbEntity
  8
D-STR
  6
CONTINUOUS
 62
       1
100
AcDbLine
 10
7943.83918229
 20
80947.51166758
 30
0.0
 11
12135.83875078
 21
80947.51166758
 31
0.0
  0
LINE
  5
292
100
AcDbEntity
  8
D-STR
  6
CONTINUOUS
 62
       1
100
AcDbLine
 10
9924.55897841
 20
69188.95287796
 30
0.0
 11
9924.55897841
 21
80130.07175173
 31
0.0
  0
LINE
  5
293
100
AcDbEntity
  8
D-STR
  6
CONTINUOUS
 62
       1
100
AcDbLine
 10
10155.11895467
 20
69188.95287796
 30
0.0
 11
10155.11895467
 21
80130.07175173
 31
0.0
  0
LINE
  5
294
100
AcDbEntity
  8
D-STR
  6
CONTINUOUS
 62
       1
100
AcDbLine
 10
10616.23890721
 20
68727.83292543
 30
0.0
 11
12135.83875078
 21
68727.83292543
 31
0.0
  0
LINE
  5
295
100
AcDbEntity
  8
D-STR
  6
CONTINUOUS
 62
       1
100
AcDbLine
 10
12135.83875078
 20
68371.51296211
 30
0.0
 11
12135.83875078
 21
68727.83292543
 31
0.0
  0
ARC
  5
296
100
AcDbEntity
  8
D-STR
  6
CONTINUOUS
 62
       1
100
AcDbCircle
 10
10616.23890721
 20
69188.95287796
 30
0.0
 40
461.11995253
100
AcDbArc
 50
180.0
 51
270.0
  0
ARC
  5
297
100
AcDbEntity
  8
D-STR
  6
CONTINUOUS
 62
       1
100
AcDbCircle
 10
9463.43902587
 20
69188.95287796
 30
0.0
 40
461.11995253
100
AcDbArc
 50
270.0
 51
360.0
  0
LINE
  5
298
100
AcDbEntity
  8
D-STR
  6
CONTINUOUS
 62
       1
100
AcDbLine
 10
10616.23890721
 20
80591.19170426
 30
0.0
 11
12135.83875078
 21
80591.19170426
 31
0.0
  0
LINE
  5
299
100
AcDbEntity
  8
D-STR
  6
CONTINUOUS
 62
       1
100
AcDbLine
 10
12135.83875078
 20
80591.19170426
 30
0.0
 11
12135.83875078
 21
80947.51166758
 31
0.0
  0
ARC
  5
29A
100
AcDbEntity
  8
D-STR
  6
CONTINUOUS
 62
       1
100
AcDbCircle
 10
10616.23890721
 20
80130.07175173
 30
0.0
 40
461.11995253
100
AcDbArc
 50
90.0
 51
180.0
  0
ARC
  5
29B
100
AcDbEntity
  8
D-STR
  6
CONTINUOUS
 62
       1
100
AcDbCircle
 10
9463.43902587
 20
80130.07175173
 30
0.0
 40
461.11995253
100
AcDbArc
 50
0.0
 51
90.0
  0
LINE
  5
29C
100
AcDbEntity
  8
D-STR
  6
CONTINUOUS
 62
       1
100
AcDbLine
 10
7943.83918229
 20
68371.51296211
 30
0.0
 11
7943.83918229
 21
68727.83292543
 31
0.0
  0
LINE
  5
29D
100
AcDbEntity
  8
D-STR
  6
CONTINUOUS
 62
       1
100
AcDbLine
 10
7943.83918229
 20
80591.19170426
 30
0.0
 11
7943.83918229
 21
80947.51166758
 31
0.0
  0
ENDBLK
  5
29E
100
AcDbEntity
  8
0
100
AcDbBlockEnd
  0
BLOCK
  5
29F
100
AcDbEntity
  8
0
100
AcDbBlockBegin
  2
GROUP_32
 70
       0
 10
0.0
 20
0.0
 30
0.0
  3
GROUP_32
  1

  0
LINE
  5
2A0
100
AcDbEntity
  8
D-STR
  6
CONTINUOUS
 62
       1
100
AcDbLine
 10
9935.03897733
 20
87864.3109556
 30
0.0
 11
9935.03897733
 21
96835.19003217
 31
0.0
  0
LINE
  5
2A1
100
AcDbEntity
  8
D-STR
  6
CONTINUOUS
 62
       1
100
AcDbLine
 10
10144.63895575
 20
87864.3109556
 30
0.0
 11
10144.63895575
 21
96835.19003217
 31
0.0
  0
ARC
  5
2A2
100
AcDbEntity
  8
D-STR
  6
CONTINUOUS
 62
       1
100
AcDbCircle
 10
9515.83902048
 20
87864.3109556
 30
0.0
 40
419.19995685
100
AcDbArc
 50
270.0
 51
360.0
  0
LINE
  5
2A3
100
AcDbEntity
  8
D-STR
  6
CONTINUOUS
 62
       1
100
AcDbLine
 10
7943.83918229
 20
87109.75103327
 30
0.0
 11
12135.83875078
 21
87109.75103327
 31
0.0
  0
LINE
  5
2A4
100
AcDbEntity
  8
D-STR
  6
CONTINUOUS
 62
       1
100
AcDbLine
 10
10563.8389126
 20
87445.11099875
 30
0.0
 11
12135.83875078
 21
87445.11099875
 31
0.0
  0
LINE
  5
2A5
100
AcDbEntity
  8
D-STR
  6
CONTINUOUS
 62
       1
100
AcDbLine
 10
12135.83875078
 20
87109.75103327
 30
0.0
 11
12135.83875078
 21
87445.11099875
 31
0.0
  0
ARC
  5
2A6
100
AcDbEntity
  8
D-STR
  6
CONTINUOUS
 62
       1
100
AcDbCircle
 10
10563.8389126
 20
87864.3109556
 30
0.0
 40
419.19995685
100
AcDbArc
 50
180.0
 51
270.0
  0
LINE
  5
2A7
100
AcDbEntity
  8
D-STR
  6
CONTINUOUS
 62
       1
100
AcDbLine
 10
7943.83918229
 20
87445.11099875
 30
0.0
 11
9515.83902048
 21
87445.11099875
 31
0.0
  0
LINE
  5
2A8
100
AcDbEntity
  8
D-STR
  6
CONTINUOUS
 62
       1
100
AcDbLine
 10
7943.83918229
 20
87109.75103327
 30
0.0
 11
7943.83918229
 21
87445.11099875
 31
0.0
  0
ARC
  5
2A9
100
AcDbEntity
  8
D-STR
  6
CONTINUOUS
 62
       1
100
AcDbCircle
 10
9515.83902048
 20
96835.19003217
 30
0.0
 40
419.19995685
100
AcDbArc
 50
0.0
 51
90.0
  0
LINE
  5
2AA
100
AcDbEntity
  8
D-STR
  6
CONTINUOUS
 62
       1
100
AcDbLine
 10
7943.83918229
 20
97589.7499545
 30
0.0
 11
12135.83875078
 21
97589.7499545
 31
0.0
  0
LINE
  5
2AB
100
AcDbEntity
  8
D-STR
  6
CONTINUOUS
 62
       1
100
AcDbLine
 10
10563.8389126
 20
97254.38998902
 30
0.0
 11
12135.83875078
 21
97254.38998902
 31
0.0
  0
LINE
  5
2AC
100
AcDbEntity
  8
D-STR
  6
CONTINUOUS
 62
       1
100
AcDbLine
 10
12135.83875078
 20
97254.38998902
 30
0.0
 11
12135.83875078
 21
97589.7499545
 31
0.0
  0
ARC
  5
2AD
100
AcDbEntity
  8
D-STR
  6
CONTINUOUS
 62
       1
100
AcDbCircle
 10
10563.8389126
 20
96835.19003217
 30
0.0
 40
419.19995685
100
AcDbArc
 50
90.0
 51
180.0
  0
LINE
  5
2AE
100
AcDbEntity
  8
D-STR
  6
CONTINUOUS
 62
       1
100
AcDbLine
 10
7943.83918229
 20
97254.38998902
 30
0.0
 11
7943.83918229
 21
97589.7499545
 31
0.0
  0
LINE
  5
2AF
100
AcDbEntity
  8
D-STR
  6
CONTINUOUS
 62
       1
100
AcDbLine
 10
7943.83918229
 20
97254.38998902
 30
0.0
 11
9515.83902048
 21
97254.38998902
 31
0.0
  0
ENDBLK
  5
2B0
100
AcDbEntity
  8
0
100
AcDbBlockEnd
  0
BLOCK
  5
2B1
100
AcDbEntity
  8
0
100
AcDbBlockBegin
  2
GROUP_33
 70
       0
 10
0.0
 20
0.0
 30
0.0
  3
GROUP_33
  1

  0
ARC
  5
2B2
100
AcDbEntity
  8
D-STR
  6
CONTINUOUS
 62
       1
100
AcDbCircle
 10
9568.23901508
 20
111465.26852621
 30
0.0
 40
377.27996116
100
AcDbArc
 50
0.0
 51
90.0
  0
ARC
  5
2B3
100
AcDbEntity
  8
D-STR
  6
CONTINUOUS
 62
       1
100
AcDbCircle
 10
9568.23901508
 20
103374.70935902
 30
0.0
 40
377.27996116
100
AcDbArc
 50
270.0
 51
360.0
  0
LINE
  5
2B4
100
AcDbEntity
  8
D-STR
  6
CONTINUOUS
 62
       1
100
AcDbLine
 10
7943.83918229
 20
102703.98942806
 30
0.0
 11
12135.83875078
 21
102703.98942806
 31
0.0
  0
LINE
  5
2B5
100
AcDbEntity
  8
D-STR
  6
CONTINUOUS
 62
       1
100
AcDbLine
 10
7943.83918229
 20
112135.98845717
 30
0.0
 11
12135.83875078
 21
112135.98845717
 31
0.0
  0
LINE
  5
2B6
100
AcDbEntity
  8
D-STR
  6
CONTINUOUS
 62
       1
100
AcDbLine
 10
10134.15895683
 20
103374.70935902
 30
0.0
 11
10134.15895683
 21
111465.26852621
 31
0.0
  0
LINE
  5
2B7
100
AcDbEntity
  8
D-STR
  6
CONTINUOUS
 62
       1
100
AcDbLine
 10
10511.43891799
 20
102997.42939785
 30
0.0
 11
12135.83875078
 21
102997.42939785
 31
0.0
  0
LINE
  5
2B8
100
AcDbEntity
  8
D-STR
  6
CONTINUOUS
 62
       1
100
AcDbLine
 10
12135.83875078
 20
102703.98942806
 30
0.0
 11
12135.83875078
 21
102997.42939785
 31
0.0
  0
ARC
  5
2B9
100
AcDbEntity
  8
D-STR
  6
CONTINUOUS
 62
       1
100
AcDbCircle
 10
10511.43891799
 20
103374.70935902
 30
0.0
 40
377.27996116
100
AcDbArc
 50
180.0
 51
270.0
  0
LINE
  5
2BA
100
AcDbEntity
  8
D-STR
  6
CONTINUOUS
 62
       1
100
AcDbLine
 10
10511.43891799
 20
111842.54848737
 30
0.0
 11
12135.83875078
 21
111842.54848737
 31
0.0
  0
LINE
  5
2BB
100
AcDbEntity
  8
D-STR
  6
CONTINUOUS
 62
       1
100
AcDbLine
 10
12135.83875078
 20
111842.54848737
 30
0.0
 11
12135.83875078
 21
112135.98845717
 31
0.0
  0
ARC
  5
2BC
100
AcDbEntity
  8
D-STR
  6
CONTINUOUS
 62
       1
100
AcDbCircle
 10
10511.43891799
 20
111465.26852621
 30
0.0
 40
377.27996116
100
AcDbArc
 50
90.0
 51
180.0
  0
LINE
  5
2BD
100
AcDbEntity
  8
D-STR
  6
CONTINUOUS
 62
       1
100
AcDbLine
 10
9945.51897625
 20
103374.70935902
 30
0.0
 11
9945.51897625
 21
111465.26852621
 31
0.0
  0
LINE
  5
2BE
100
AcDbEntity
  8
D-STR
  6
CONTINUOUS
 62
       1
100
AcDbLine
 10
7943.83918229
 20
102997.42939785
 30
0.0
 11
9568.23901508
 21
102997.42939785
 31
0.0
  0
LINE
  5
2BF
100
AcDbEntity
  8
D-STR
  6
CONTINUOUS
 62
       1
100
AcDbLine
 10
7943.83918229
 20
102703.98942806
 30
0.0
 11
7943.83918229
 21
102997.42939785
 31
0.0
  0
LINE
  5
2C0
100
AcDbEntity
  8
D-STR
  6
CONTINUOUS
 62
       1
100
AcDbLine
 10
7943.83918229
 20
111842.54848737
 30
0.0
 11
9568.23901508
 21
111842.54848737
 31
0.0
  0
LINE
  5
2C1
100
AcDbEntity
  8
D-STR
  6
CONTINUOUS
 62
       1
100
AcDbLine
 10
7943.83918229
 20
111842.54848737
 30
0.0
 11
7943.83918229
 21
112135.98845717
 31
0.0
  0
ENDBLK
  5
2C2
100
AcDbEntity
  8
0
100
AcDbBlockEnd
  0
BLOCK
  5
2C3
100
AcDbEntity
  8
0
100
AcDbBlockBegin
  2
GROUP_34
 70
       0
 10
0.0
 20
0.0
 30
0.0
  3
GROUP_34
  1

  0
LINE
  5
2C4
100
AcDbEntity
  8
D-STR
  6
CONTINUOUS
 62
       1
100
AcDbLine
 10
9955.99897517
 20
117334.0679221
 30
0.0
 11
9955.99897517
 21
124502.38718422
 31
0.0
  0
LINE
  5
2C5
100
AcDbEntity
  8
D-STR
  6
CONTINUOUS
 62
       1
100
AcDbLine
 10
10123.67895791
 20
117334.0679221
 30
0.0
 11
10123.67895791
 21
124502.38718422
 31
0.0
  0
ARC
  5
2C6
100
AcDbEntity
  8
D-STR
  6
CONTINUOUS
 62
       1
100
AcDbCircle
 10
10459.03892339
 20
117334.0679221
 30
0.0
 40
335.35996548
100
AcDbArc
 50
180.0
 51
270.0
  0
LINE
  5
2C7
100
AcDbEntity
  8
D-STR
  6
CONTINUOUS
 62
       1
100
AcDbLine
 10
7943.83918229
 20
116726.22798466
 30
0.0
 11
12135.83875078
 21
116726.22798466
 31
0.0
  0
LINE
  5
2C8
100
AcDbEntity
  8
D-STR
  6
CONTINUOUS
 62
       1
100
AcDbLine
 10
10459.03892339
 20
116998.70795662
 30
0.0
 11
12135.83875078
 21
116998.70795662
 31
0.0
  0
LINE
  5
2C9
100
AcDbEntity
  8
D-STR
  6
CONTINUOUS
 62
       1
100
AcDbLine
 10
12135.83875078
 20
116726.22798466
 30
0.0
 11
12135.83875078
 21
116998.70795662
 31
0.0
  0
LINE
  5
2CA
100
AcDbEntity
  8
D-STR
  6
CONTINUOUS
 62
       1
100
AcDbLine
 10
7943.83918229
 20
116998.70795662
 30
0.0
 11
9620.63900969
 21
116998.70795662
 31
0.0
  0
ARC
  5
2CB
100
AcDbEntity
  8
D-STR
  6
CONTINUOUS
 62
       1
100
AcDbCircle
 10
9620.63900969
 20
117334.0679221
 30
0.0
 40
335.35996548
100
AcDbArc
 50
270.0
 51
360.0
  0
LINE
  5
2CC
100
AcDbEntity
  8
D-STR
  6
CONTINUOUS
 62
       1
100
AcDbLine
 10
7943.83918229
 20
116726.22798466
 30
0.0
 11
7943.83918229
 21
116998.70795662
 31
0.0
  0
ARC
  5
2CD
100
AcDbEntity
  8
D-STR
  6
CONTINUOUS
 62
       1
100
AcDbCircle
 10
10459.03892339
 20
124502.38718422
 30
0.0
 40
335.35996548
100
AcDbArc
 50
90.0
 51
180.0
  0
LINE
  5
2CE
100
AcDbEntity
  8
D-STR
  6
CONTINUOUS
 62
       1
100
AcDbLine
 10
7943.83918229
 20
125110.22712165
 30
0.0
 11
12135.83875078
 21
125110.22712165
 31
0.0
  0
LINE
  5
2CF
100
AcDbEntity
  8
D-STR
  6
CONTINUOUS
 62
       1
100
AcDbLine
 10
10459.03892339
 20
124837.7471497
 30
0.0
 11
12135.83875078
 21
124837.7471497
 31
0.0
  0
LINE
  5
2D0
100
AcDbEntity
  8
D-STR
  6
CONTINUOUS
 62
       1
100
AcDbLine
 10
12135.83875078
 20
124837.7471497
 30
0.0
 11
12135.83875078
 21
125110.22712165
 31
0.0
  0
LINE
  5
2D1
100
AcDbEntity
  8
D-STR
  6
CONTINUOUS
 62
       1
100
AcDbLine
 10
7943.83918229
 20
124837.7471497
 30
0.0
 11
9620.63900969
 21
124837.7471497
 31
0.0
  0
ARC
  5
2D2
100
AcDbEntity
  8
D-STR
  6
CONTINUOUS
 62
       1
100
AcDbCircle
 10
9620.63900969
 20
124502.38718422
 30
0.0
 40
335.35996548
100
AcDbArc
 50
0.0
 51
90.0
  0
LINE
  5
2D3
100
AcDbEntity
  8
D-STR
  6
CONTINUOUS
 62
       1
100
AcDbLine
 10
7943.83918229
 20
124837.7471497
 30
0.0
 11
7943.83918229
 21
125110.22712165
 31
0.0
  0
ENDBLK
  5
2D4
100
AcDbEntity
  8
0
100
AcDbBlockEnd
  0
BLOCK
  5
2D5
100
AcDbEntity
  8
0
100
AcDbBlockBegin
  2
GROUP_35
 70
       0
 10
0.0
 20
0.0
 30
0.0
  3
GROUP_35
  1

  0
LINE
  5
2D6
100
AcDbEntity
  8
D-STR
  6
CONTINUOUS
 62
       1
100
AcDbLine
 10
10406.63892878
 20
129407.02667935
 30
0.0
 11
11873.83877775
 21
129407.02667935
 31
0.0
  0
LINE
  5
2D7
100
AcDbEntity
  8
D-STR
  6
CONTINUOUS
 62
       1
100
AcDbLine
 10
10406.63892878
 20
136281.90597168
 30
0.0
 11
11873.83877775
 21
136281.90597168
 31
0.0
  0
LINE
  5
2D8
100
AcDbEntity
  8
D-STR
  6
CONTINUOUS
 62
       1
100
AcDbLine
 10
8205.83915532
 20
129176.46670309
 30
0.0
 11
11873.83877775
 21
129176.46670309
 31
0.0
  0
LINE
  5
2D9
100
AcDbEntity
  8
D-STR
  6
CONTINUOUS
 62
       1
100
AcDbLine
 10
8205.83915532
 20
136512.46594795
 30
0.0
 11
11873.83877775
 21
136512.46594795
 31
0.0
  0
LINE
  5
2DA
100
AcDbEntity
  8
D-STR
  6
CONTINUOUS
 62
       1
100
AcDbLine
 10
11873.83877775
 20
136281.90597168
 30
0.0
 11
11873.83877775
 21
136512.46594795
 31
0.0
  0
LINE
  5
2DB
100
AcDbEntity
  8
D-STR
  6
CONTINUOUS
 62
       1
100
AcDbLine
 10
11873.83877775
 20
129176.46670309
 30
0.0
 11
11873.83877775
 21
129407.02667935
 31
0.0
  0
ARC
  5
2DC
100
AcDbEntity
  8
D-STR
  6
CONTINUOUS
 62
       1
100
AcDbCircle
 10
10406.63892878
 20
135988.46600189
 30
0.0
 40
293.43996979
100
AcDbArc
 50
90.0
 51
180.0
  0
ARC
  5
2DD
100
AcDbEntity
  8
D-STR
  6
CONTINUOUS
 62
       1
100
AcDbCircle
 10
9673.0390043
 20
135988.46600189
 30
0.0
 40
293.43996979
100
AcDbArc
 50
0.0
 51
90.0
  0
LINE
  5
2DE
100
AcDbEntity
  8
D-STR
  6
CONTINUOUS
 62
       1
100
AcDbLine
 10
8205.83915532
 20
136281.90597168
 30
0.0
 11
8205.83915532
 21
136512.46594795
 31
0.0
  0
LINE
  5
2DF
100
AcDbEntity
  8
D-STR
  6
CONTINUOUS
 62
       1
100
AcDbLine
 10
8205.83915532
 20
129176.46670309
 30
0.0
 11
8205.83915532
 21
129407.02667935
 31
0.0
  0
LINE
  5
2E0
100
AcDbEntity
  8
D-STR
  6
CONTINUOUS
 62
       1
100
AcDbLine
 10
9966.47897409
 20
129700.46664915
 30
0.0
 11
9966.47897409
 21
135988.46600189
 31
0.0
  0
LINE
  5
2E1
100
AcDbEntity
  8
D-STR
  6
CONTINUOUS
 62
       1
100
AcDbLine
 10
10113.19895899
 20
129700.46664915
 30
0.0
 11
10113.19895899
 21
135988.46600189
 31
0.0
  0
LINE
  5
2E2
100
AcDbEntity
  8
D-STR
  6
CONTINUOUS
 62
       1
100
AcDbLine
 10
9673.0390043
 20
129407.02667935
 30
0.0
 11
8205.83915532
 21
129407.02667935
 31
0.0
  0
ARC
  5
2E3
100
AcDbEntity
  8
D-STR
  6
CONTINUOUS
 62
       1
100
AcDbCircle
 10
10406.63892878
 20
129700.46664915
 30
0.0
 40
293.43996979
100
AcDbArc
 50
180.0
 51
270.0
  0
ARC
  5
2E4
100
AcDbEntity
  8
D-STR
  6
CONTINUOUS
 62
       1
100
AcDbCircle
 10
9673.0390043
 20
129700.46664915
 30
0.0
 40
293.43996979
100
AcDbArc
 50
270.0
 51
360.0
  0
LINE
  5
2E5
100
AcDbEntity
  8
D-STR
  6
CONTINUOUS
 62
       1
100
AcDbLine
 10
9673.0390043
 20
136281.90597168
 30
0.0
 11
8205.83915532
 21
136281.90597168
 31
0.0
  0
ENDBLK
  5
2E6
100
AcDbEntity
  8
0
100
AcDbBlockEnd
  0
BLOCK
  5
2E7
100
AcDbEntity
  8
0
100
AcDbBlockBegin
  2
GROUP_36
 70
       0
 10
0.0
 20
0.0
 30
0.0
  3
GROUP_36
  1

  0
LINE
  5
2E8
100
AcDbEntity
  8
D-STR
  6
CONTINUOUS
 62
       1
100
AcDbLine
 10
10380.43893148
 20
140264.30556175
 30
0.0
 11
11611.83880472
 21
140264.30556175
 31
0.0
  0
LINE
  5
2E9
100
AcDbEntity
  8
D-STR
  6
CONTINUOUS
 62
       1
100
AcDbLine
 10
10380.43893148
 20
146175.02495332
 30
0.0
 11
11611.83880472
 21
146175.02495332
 31
0.0
  0
LINE
  5
2EA
100
AcDbEntity
  8
D-STR
  6
CONTINUOUS
 62
       1
100
AcDbLine
 10
8467.83912835
 20
140075.66558117
 30
0.0
 11
11611.83880472
 21
140075.66558117
 31
0.0
  0
LINE
  5
2EB
100
AcDbEntity
  8
D-STR
  6
CONTINUOUS
 62
       1
100
AcDbLine
 10
8467.83912835
 20
146363.6649339
 30
0.0
 11
11611.83880472
 21
146363.6649339
 31
0.0
  0
LINE
  5
2EC
100
AcDbEntity
  8
D-STR
  6
CONTINUOUS
 62
       1
100
AcDbLine
 10
11611.83880472
 20
140075.66558117
 30
0.0
 11
11611.83880472
 21
140264.30556175
 31
0.0
  0
LINE
  5
2ED
100
AcDbEntity
  8
D-STR
  6
CONTINUOUS
 62
       1
100
AcDbLine
 10
11611.83880472
 20
146175.02495332
 30
0.0
 11
11611.83880472
 21
146363.6649339
 31
0.0
  0
LINE
  5
2EE
100
AcDbEntity
  8
D-STR
  6
CONTINUOUS
 62
       1
100
AcDbLine
 10
9971.71897355
 20
140536.7855337
 30
0.0
 11
9971.71897355
 21
145902.54498137
 31
0.0
  0
LINE
  5
2EF
100
AcDbEntity
  8
D-STR
  6
CONTINUOUS
 62
       1
100
AcDbLine
 10
10107.95895953
 20
140536.7855337
 30
0.0
 11
10107.95895953
 21
145902.54498137
 31
0.0
  0
LINE
  5
2F0
100
AcDbEntity
  8
D-STR
  6
CONTINUOUS
 62
       1
100
AcDbLine
 10
8467.83912835
 20
140264.30556175
 30
0.0
 11
9699.2390016
 21
140264.30556175
 31
0.0
  0
ARC
  5
2F1
100
AcDbEntity
  8
D-STR
  6
CONTINUOUS
 62
       1
100
AcDbCircle
 10
9699.2390016
 20
140536.7855337
 30
0.0
 40
272.47997195
100
AcDbArc
 50
270.0
 51
360.0
  0
ARC
  5
2F2
100
AcDbEntity
  8
D-STR
  6
CONTINUOUS
 62
       1
100
AcDbCircle
 10
10380.43893148
 20
140536.7855337
 30
0.0
 40
272.47997195
100
AcDbArc
 50
180.0
 51
270.0
  0
LINE
  5
2F3
100
AcDbEntity
  8
D-STR
  6
CONTINUOUS
 62
       1
100
AcDbLine
 10
8467.83912835
 20
140075.66558117
 30
0.0
 11
8467.83912835
 21
140264.30556175
 31
0.0
  0
LINE
  5
2F4
100
AcDbEntity
  8
D-STR
  6
CONTINUOUS
 62
       1
100
AcDbLine
 10
8467.83912835
 20
146175.02495332
 30
0.0
 11
9699.2390016
 21
146175.02495332
 31
0.0
  0
ARC
  5
2F5
100
AcDbEntity
  8
D-STR
  6
CONTINUOUS
 62
       1
100
AcDbCircle
 10
9699.2390016
 20
145902.54498137
 30
0.0
 40
272.47997195
100
AcDbArc
 50
0.0
 51
90.0
  0
ARC
  5
2F6
100
AcDbEntity
  8
D-STR
  6
CONTINUOUS
 62
       1
100
AcDbCircle
 10
10380.43893148
 20
145902.54498137
 30
0.0
 40
272.47997195
100
AcDbArc
 50
90.0
 51
180.0
  0
LINE
  5
2F7
100
AcDbEntity
  8
D-STR
  6
CONTINUOUS
 62
       1
100
AcDbLine
 10
8467.83912835
 20
146175.02495332
 30
0.0
 11
8467.83912835
 21
146363.6649339
 31
0.0
  0
ENDBLK
  5
2F8
100
AcDbEntity
  8
0
100
AcDbBlockEnd
  0
BLOCK
  5
2F9
100
AcDbEntity
  8
0
100
AcDbBlockBegin
  2
GROUP_37
 70
       0
 10
0.0
 20
0.0
 30
0.0
  3
GROUP_37
  1

  0
LINE
  5
2FA
100
AcDbEntity
  8
D-STR
  6
CONTINUOUS
 62
       1
100
AcDbLine
 10
9976.95897301
 20
149884.94457144
 30
0.0
 11
9976.95897301
 21
154244.62412267
 31
0.0
  0
LINE
  5
2FB
100
AcDbEntity
  8
D-STR
  6
CONTINUOUS
 62
       1
100
AcDbLine
 10
10102.71896007
 20
149884.94457144
 30
0.0
 11
10102.71896007
 21
154244.62412267
 31
0.0
  0
LINE
  5
2FC
100
AcDbEntity
  8
D-STR
  6
CONTINUOUS
 62
       1
100
AcDbLine
 10
8729.83910138
 20
149633.42459733
 30
0.0
 11
9725.4389989
 21
149633.42459733
 31
0.0
  0
LINE
  5
2FD
100
AcDbEntity
  8
D-STR
  6
CONTINUOUS
 62
       1
100
AcDbLine
 10
8729.83910138
 20
149444.78461675
 30
0.0
 11
11349.83883169
 21
149444.78461675
 31
0.0
  0
LINE
  5
2FE
100
AcDbEntity
  8
D-STR
  6
CONTINUOUS
 62
       1
100
AcDbLine
 10
10354.23893418
 20
149633.42459733
 30
0.0
 11
11349.83883169
 21
149633.42459733
 31
0.0
  0
LINE
  5
2FF
100
AcDbEntity
  8
D-STR
  6
CONTINUOUS
 62
       1
100
AcDbLine
 10
11349.83883169
 20
149444.78461675
 30
0.0
 11
11349.83883169
 21
149633.42459733
 31
0.0
  0
ARC
  5
300
100
AcDbEntity
  8
D-STR
  6
CONTINUOUS
 62
       1
100
AcDbCircle
 10
10354.23893418
 20
149884.94457144
 30
0.0
 40
251.51997411
100
AcDbArc
 50
180.0
 51
270.0
  0
ARC
  5
301
100
AcDbEntity
  8
D-STR
  6
CONTINUOUS
 62
       1
100
AcDbCircle
 10
9725.4389989
 20
149884.94457144
 30
0.0
 40
251.51997411
100
AcDbArc
 50
270.0
 51
360.0
  0
LINE
  5
302
100
AcDbEntity
  8
D-STR
  6
CONTINUOUS
 62
       1
100
AcDbLine
 10
8729.83910138
 20
149444.78461675
 30
0.0
 11
8729.83910138
 21
149633.42459733
 31
0.0
  0
LINE
  5
303
100
AcDbEntity
  8
D-STR
  6
CONTINUOUS
 62
       1
100
AcDbLine
 10
8729.83910138
 20
154496.14409678
 30
0.0
 11
9725.4389989
 21
154496.14409678
 31
0.0
  0
LINE
  5
304
100
AcDbEntity
  8
D-STR
  6
CONTINUOUS
 62
       1
100
AcDbLine
 10
8729.83910138
 20
154684.78407736
 30
0.0
 11
11349.83883169
 21
154684.78407736
 31
0.0
  0
LINE
  5
305
100
AcDbEntity
  8
D-STR
  6
CONTINUOUS
 62
       1
100
AcDbLine
 10
10354.23893418
 20
154496.14409678
 30
0.0
 11
11349.83883169
 21
154496.14409678
 31
0.0
  0
LINE
  5
306
100
AcDbEntity
  8
D-STR
  6
CONTINUOUS
 62
       1
100
AcDbLine
 10
11349.83883169
 20
154496.14409678
 30
0.0
 11
11349.83883169
 21
154684.78407736
 31
0.0
  0
ARC
  5
307
100
AcDbEntity
  8
D-STR
  6
CONTINUOUS
 62
       1
100
AcDbCircle
 10
10354.23893418
 20
154244.62412267
 30
0.0
 40
251.51997411
100
AcDbArc
 50
90.0
 51
180.0
  0
ARC
  5
308
100
AcDbEntity
  8
D-STR
  6
CONTINUOUS
 62
       1
100
AcDbCircle
 10
9725.4389989
 20
154244.62412267
 30
0.0
 40
251.51997411
100
AcDbArc
 50
0.0
 51
90.0
  0
LINE
  5
309
100
AcDbEntity
  8
D-STR
  6
CONTINUOUS
 62
       1
100
AcDbLine
 10
8729.83910138
 20
154496.14409678
 30
0.0
 11
8729.83910138
 21
154684.78407736
 31
0.0
  0
ENDBLK
  5
30A
100
AcDbEntity
  8
0
100
AcDbBlockEnd
  0
BLOCK
  5
30B
100
AcDbEntity
  8
0
100
AcDbBlockBegin
  2
GROUP_38
 70
       0
 10
0.0
 20
0.0
 30
0.0
  3
GROUP_38
  1

  0
LINE
  5
30C
100
AcDbEntity
  8
D-STR
  6
CONTINUOUS
 62
       1
100
AcDbLine
 10
9982.19897247
 20
157640.14377315
 30
0.0
 11
9982.19897247
 21
161035.66342363
 31
0.0
  0
LINE
  5
30D
100
AcDbEntity
  8
D-STR
  6
CONTINUOUS
 62
       1
100
AcDbLine
 10
10097.47896061
 20
157640.14377315
 30
0.0
 11
10097.47896061
 21
161035.66342363
 31
0.0
  0
LINE
  5
30E
100
AcDbEntity
  8
D-STR
  6
CONTINUOUS
 62
       1
100
AcDbLine
 10
8991.83907442
 20
157409.58379688
 30
0.0
 11
9751.6389962
 21
157409.58379688
 31
0.0
  0
LINE
  5
30F
100
AcDbEntity
  8
D-STR
  6
CONTINUOUS
 62
       1
100
AcDbLine
 10
8991.83907442
 20
157241.90381414
 30
0.0
 11
11087.83885866
 21
157241.90381414
 31
0.0
  0
ARC
  5
310
100
AcDbEntity
  8
D-STR
  6
CONTINUOUS
 62
       1
100
AcDbCircle
 10
10328.03893687
 20
157640.14377315
 30
0.0
 40
230.55997627
100
AcDbArc
 50
180.0
 51
270.0
  0
ARC
  5
311
100
AcDbEntity
  8
D-STR
  6
CONTINUOUS
 62
       1
100
AcDbCircle
 10
9751.6389962
 20
157640.14377315
 30
0.0
 40
230.55997627
100
AcDbArc
 50
270.0
 51
360.0
  0
LINE
  5
312
100
AcDbEntity
  8
D-STR
  6
CONTINUOUS
 62
       1
100
AcDbLine
 10
10328.03893687
 20
157409.58379688
 30
0.0
 11
11087.83885866
 21
157409.58379688
 31
0.0
  0
LINE
  5
313
100
AcDbEntity
  8
D-STR
  6
CONTINUOUS
 62
       1
100
AcDbLine
 10
11087.83885866
 20
157241.90381414
 30
0.0
 11
11087.83885866
 21
157409.58379688
 31
0.0
  0
LINE
  5
314
100
AcDbEntity
  8
D-STR
  6
CONTINUOUS
 62
       1
100
AcDbLine
 10
8991.83907442
 20
157241.90381414
 30
0.0
 11
8991.83907442
 21
157409.58379688
 31
0.0
  0
LINE
  5
315
100
AcDbEntity
  8
D-STR
  6
CONTINUOUS
 62
       1
100
AcDbLine
 10
8991.83907442
 20
161266.22339989
 30
0.0
 11
9751.6389962
 21
161266.22339989
 31
0.0
  0
LINE
  5
316
100
AcDbEntity
  8
D-STR
  6
CONTINUOUS
 62
       1
100
AcDbLine
 10
8991.83907442
 20
161433.90338263
 30
0.0
 11
11087.83885866
 21
161433.90338263
 31
0.0
  0
ARC
  5
317
100
AcDbEntity
  8
D-STR
  6
CONTINUOUS
 62
       1
100
AcDbCircle
 10
10328.03893687
 20
161035.66342363
 30
0.0
 40
230.55997627
100
AcDbArc
 50
90.0
 51
180.0
  0
ARC
  5
318
100
AcDbEntity
  8
D-STR
  6
CONTINUOUS
 62
       1
100
AcDbCircle
 10
9751.6389962
 20
161035.66342363
 30
0.0
 40
230.55997627
100
AcDbArc
 50
0.0
 51
90.0
  0
LINE
  5
319
100
AcDbEntity
  8
D-STR
  6
CONTINUOUS
 62
       1
100
AcDbLine
 10
10328.03893687
 20
161266.22339989
 30
0.0
 11
11087.83885866
 21
161266.22339989
 31
0.0
  0
LINE
  5
31A
100
AcDbEntity
  8
D-STR
  6
CONTINUOUS
 62
       1
100
AcDbLine
 10
11087.83885866
 20
161266.22339989
 30
0.0
 11
11087.83885866
 21
161433.90338263
 31
0.0
  0
LINE
  5
31B
100
AcDbEntity
  8
D-STR
  6
CONTINUOUS
 62
       1
100
AcDbLine
 10
8991.83907442
 20
161266.22339989
 30
0.0
 11
8991.83907442
 21
161433.90338263
 31
0.0
  0
ENDBLK
  5
31C
100
AcDbEntity
  8
0
100
AcDbBlockEnd
  0
BLOCK
  5
31D
100
AcDbEntity
  8
0
100
AcDbBlockBegin
  2
GROUP_39
 70
       0
 10
0.0
 20
0.0
 30
0.0
  3
GROUP_39
  1

  0
LINE
  5
31E
100
AcDbEntity
  8
D-STR
  6
CONTINUOUS
 62
       1
100
AcDbLine
 10
41364.5557421
 20
88157.75092539
 30
0.0
 11
41364.5557421
 21
96541.75006237
 31
0.0
  0
LINE
  5
31F
100
AcDbEntity
  8
D-STR
  6
CONTINUOUS
 62
       1
100
AcDbLine
 10
41595.11571836
 20
88157.75092539
 30
0.0
 11
41595.11571836
 21
96541.75006237
 31
0.0
  0
LINE
  5
320
100
AcDbEntity
  8
D-STR
  6
CONTINUOUS
 62
       1
100
AcDbLine
 10
38335.83605386
 20
87612.79098149
 30
0.0
 11
40819.59579819
 21
87612.79098149
 31
0.0
  0
LINE
  5
321
100
AcDbEntity
  8
D-STR
  6
CONTINUOUS
 62
       1
100
AcDbLine
 10
38335.83605386
 20
87235.51102032
 30
0.0
 11
44623.8354066
 21
87235.51102032
 31
0.0
  0
ARC
  5
322
100
AcDbEntity
  8
D-STR
  6
CONTINUOUS
 62
       1
100
AcDbCircle
 10
42140.07566227
 20
88157.75092539
 30
0.0
 40
544.9599439
100
AcDbArc
 50
180.0
 51
270.0
  0
ARC
  5
323
100
AcDbEntity
  8
D-STR
  6
CONTINUOUS
 62
       1
100
AcDbCircle
 10
40819.59579819
 20
88157.75092539
 30
0.0
 40
544.9599439
100
AcDbArc
 50
270.0
 51
360.0
  0
LINE
  5
324
100
AcDbEntity
  8
D-STR
  6
CONTINUOUS
 62
       1
100
AcDbLine
 10
44623.8354066
 20
87235.51102032
 30
0.0
 11
44623.8354066
 21
87612.79098149
 31
0.0
  0
LINE
  5
325
100
AcDbEntity
  8
D-STR
  6
CONTINUOUS
 62
       1
100
AcDbLine
 10
42140.07566227
 20
87612.79098149
 30
0.0
 11
44623.8354066
 21
87612.79098149
 31
0.0
  0
LINE
  5
326
100
AcDbEntity
  8
D-STR
  6
CONTINUOUS
 62
       1
100
AcDbLine
 10
38335.83605386
 20
87235.51102032
 30
0.0
 11
38335.83605386
 21
87612.79098149
 31
0.0
  0
LINE
  5
327
100
AcDbEntity
  8
D-STR
  6
CONTINUOUS
 62
       1
100
AcDbLine
 10
38335.83605386
 20
97086.71000628
 30
0.0
 11
40819.59579819
 21
97086.71000628
 31
0.0
  0
LINE
  5
328
100
AcDbEntity
  8
D-STR
  6
CONTINUOUS
 62
       1
100
AcDbLine
 10
38335.83605386
 20
97463.98996744
 30
0.0
 11
44623.8354066
 21
97463.98996744
 31
0.0
  0
LINE
  5
329
100
AcDbEntity
  8
D-STR
  6
CONTINUOUS
 62
       1
100
AcDbLine
 10
42140.07566227
 20
97086.71000628
 30
0.0
 11
44623.8354066
 21
97086.71000628
 31
0.0
  0
LINE
  5
32A
100
AcDbEntity
  8
D-STR
  6
CONTINUOUS
 62
       1
100
AcDbLine
 10
44623.8354066
 20
97086.71000628
 30
0.0
 11
44623.8354066
 21
97463.98996744
 31
0.0
  0
ARC
  5
32B
100
AcDbEntity
  8
D-STR
  6
CONTINUOUS
 62
       1
100
AcDbCircle
 10
42140.07566227
 20
96541.75006237
 30
0.0
 40
544.9599439
100
AcDbArc
 50
90.0
 51
180.0
  0
ARC
  5
32C
100
AcDbEntity
  8
D-STR
  6
CONTINUOUS
 62
       1
100
AcDbCircle
 10
40819.59579819
 20
96541.75006237
 30
0.0
 40
544.9599439
100
AcDbArc
 50
0.0
 51
90.0
  0
LINE
  5
32D
100
AcDbEntity
  8
D-STR
  6
CONTINUOUS
 62
       1
100
AcDbLine
 10
38335.83605386
 20
97086.71000628
 30
0.0
 11
38335.83605386
 21
97463.98996744
 31
0.0
  0
ENDBLK
  5
32E
100
AcDbEntity
  8
0
100
AcDbBlockEnd
  0
BLOCK
  5
32F
100
AcDbEntity
  8
0
100
AcDbBlockBegin
  2
GROUP_40
 70
       0
 10
0.0
 20
0.0
 30
0.0
  3
GROUP_40
  1

  0
LINE
  5
330
100
AcDbEntity
  8
D-STR
  6
CONTINUOUS
 62
       1
100
AcDbLine
 10
41354.07574318
 20
69503.3528456
 30
0.0
 11
41354.07574318
 21
79815.67178409
 31
0.0
  0
LINE
  5
331
100
AcDbEntity
  8
D-STR
  6
CONTINUOUS
 62
       1
100
AcDbLine
 10
41605.59571728
 20
69503.3528456
 30
0.0
 11
41605.59571728
 21
79815.67178409
 31
0.0
  0
LINE
  5
332
100
AcDbEntity
  8
D-STR
  6
CONTINUOUS
 62
       1
100
AcDbLine
 10
38335.83605386
 20
68916.47290601
 30
0.0
 11
40767.19580359
 21
68916.47290601
 31
0.0
  0
LINE
  5
333
100
AcDbEntity
  8
D-STR
  6
CONTINUOUS
 62
       1
100
AcDbLine
 10
38335.83605386
 20
68497.27294916
 30
0.0
 11
44623.8354066
 21
68497.27294916
 31
0.0
  0
LINE
  5
334
100
AcDbEntity
  8
D-STR
  6
CONTINUOUS
 62
       1
100
AcDbLine
 10
42192.47565687
 20
68916.47290601
 30
0.0
 11
44623.8354066
 21
68916.47290601
 31
0.0
  0
LINE
  5
335
100
AcDbEntity
  8
D-STR
  6
CONTINUOUS
 62
       1
100
AcDbLine
 10
44623.8354066
 20
68497.27294916
 30
0.0
 11
44623.8354066
 21
68916.47290601
 31
0.0
  0
ARC
  5
336
100
AcDbEntity
  8
D-STR
  6
CONTINUOUS
 62
       1
100
AcDbCircle
 10
42192.47565687
 20
69503.3528456
 30
0.0
 40
586.87993959
100
AcDbArc
 50
180.0
 51
270.0
  0
ARC
  5
337
100
AcDbEntity
  8
D-STR
  6
CONTINUOUS
 62
       1
100
AcDbCircle
 10
40767.19580359
 20
69503.3528456
 30
0.0
 40
586.87993959
100
AcDbArc
 50
270.0
 51
360.0
  0
LINE
  5
338
100
AcDbEntity
  8
D-STR
  6
CONTINUOUS
 62
       1
100
AcDbLine
 10
38335.83605386
 20
68497.27294916
 30
0.0
 11
38335.83605386
 21
68916.47290601
 31
0.0
  0
LINE
  5
339
100
AcDbEntity
  8
D-STR
  6
CONTINUOUS
 62
       1
100
AcDbLine
 10
38335.83605386
 20
80402.55172368
 30
0.0
 11
40767.19580359
 21
80402.55172368
 31
0.0
  0
LINE
  5
33A
100
AcDbEntity
  8
D-STR
  6
CONTINUOUS
 62
       1
100
AcDbLine
 10
38335.83605386
 20
80821.75168053
 30
0.0
 11
44623.8354066
 21
80821.75168053
 31
0.0
  0
ARC
  5
33B
100
AcDbEntity
  8
D-STR
  6
CONTINUOUS
 62
       1
100
AcDbCircle
 10
40767.19580359
 20
79815.67178409
 30
0.0
 40
586.87993959
100
AcDbArc
 50
0.0
 51
90.0
  0
ARC
  5
33C
100
AcDbEntity
  8
D-STR
  6
CONTINUOUS
 62
       1
100
AcDbCircle
 10
42192.47565687
 20
79815.67178409
 30
0.0
 40
586.87993959
100
AcDbArc
 50
90.0
 51
180.0
  0
LINE
  5
33D
100
AcDbEntity
  8
D-STR
  6
CONTINUOUS
 62
       1
100
AcDbLine
 10
42192.47565687
 20
80402.55172368
 30
0.0
 11
44623.8354066
 21
80402.55172368
 31
0.0
  0
LINE
  5
33E
100
AcDbEntity
  8
D-STR
  6
CONTINUOUS
 62
       1
100
AcDbLine
 10
44623.8354066
 20
80402.55172368
 30
0.0
 11
44623.8354066
 21
80821.75168053
 31
0.0
  0
LINE
  5
33F
100
AcDbEntity
  8
D-STR
  6
CONTINUOUS
 62
       1
100
AcDbLine
 10
38335.83605386
 20
80402.55172368
 30
0.0
 11
38335.83605386
 21
80821.75168053
 31
0.0
  0
ENDBLK
  5
340
100
AcDbEntity
  8
0
100
AcDbBlockEnd
  0
BLOCK
  5
341
100
AcDbEntity
  8
0
100
AcDbBlockBegin
  2
GROUP_41
 70
       0
 10
0.0
 20
0.0
 30
0.0
  3
GROUP_41
  1

  0
LINE
  5
342
100
AcDbEntity
  8
D-STR
  6
CONTINUOUS
 62
       1
100
AcDbLine
 10
9903.59898056
 20
47663.03509376
 30
0.0
 11
9903.59898056
 21
60155.19380786
 31
0.0
  0
LINE
  5
343
100
AcDbEntity
  8
D-STR
  6
CONTINUOUS
 62
       1
100
AcDbLine
 10
10176.07895251
 20
47663.03509376
 30
0.0
 11
10176.07895251
 21
60155.19380786
 31
0.0
  0
LINE
  5
344
100
AcDbEntity
  8
D-STR
  6
CONTINUOUS
 62
       1
100
AcDbLine
 10
6895.83929017
 20
47076.15515417
 30
0.0
 11
9316.71904097
 21
47076.15515417
 31
0.0
  0
LINE
  5
345
100
AcDbEntity
  8
D-STR
  6
CONTINUOUS
 62
       1
100
AcDbLine
 10
6895.83929017
 20
46573.11520595
 30
0.0
 11
13183.83864291
 21
46573.11520595
 31
0.0
  0
LINE
  5
346
100
AcDbEntity
  8
D-STR
  6
CONTINUOUS
 62
       1
100
AcDbLine
 10
10762.9588921
 20
47076.15515417
 30
0.0
 11
13183.83864291
 21
47076.15515417
 31
0.0
  0
LINE
  5
347
100
AcDbEntity
  8
D-STR
  6
CONTINUOUS
 62
       1
100
AcDbLine
 10
13183.83864291
 20
46573.11520595
 30
0.0
 11
13183.83864291
 21
47076.15515417
 31
0.0
  0
ARC
  5
348
100
AcDbEntity
  8
D-STR
  6
CONTINUOUS
 62
       1
100
AcDbCircle
 10
10762.9588921
 20
47663.03509376
 30
0.0
 40
586.87993959
100
AcDbArc
 50
180.0
 51
270.0
  0
ARC
  5
349
100
AcDbEntity
  8
D-STR
  6
CONTINUOUS
 62
       1
100
AcDbCircle
 10
9316.71904097
 20
47663.03509376
 30
0.0
 40
586.87993959
100
AcDbArc
 50
270.0
 51
360.0
  0
LINE
  5
34A
100
AcDbEntity
  8
D-STR
  6
CONTINUOUS
 62
       1
100
AcDbLine
 10
6895.83929017
 20
46573.11520595
 30
0.0
 11
6895.83929017
 21
47076.15515417
 31
0.0
  0
LINE
  5
34B
100
AcDbEntity
  8
D-STR
  6
CONTINUOUS
 62
       1
100
AcDbLine
 10
6895.83929017
 20
60742.07374745
 30
0.0
 11
9316.71904097
 21
60742.07374745
 31
0.0
  0
LINE
  5
34C
100
AcDbEntity
  8
D-STR
  6
CONTINUOUS
 62
       1
100
AcDbLine
 10
6895.83929017
 20
61245.11369567
 30
0.0
 11
13183.83864291
 21
61245.11369567
 31
0.0
  0
LINE
  5
34D
100
AcDbEntity
  8
D-STR
  6
CONTINUOUS
 62
       1
100
AcDbLine
 10
10762.9588921
 20
60742.07374745
 30
0.0
 11
13183.83864291
 21
60742.07374745
 31
0.0
  0
LINE
  5
34E
100
AcDbEntity
  8
D-STR
  6
CONTINUOUS
 62
       1
100
AcDbLine
 10
13183.83864291
 20
60742.07374745
 30
0.0
 11
13183.83864291
 21
61245.11369567
 31
0.0
  0
ARC
  5
34F
100
AcDbEntity
  8
D-STR
  6
CONTINUOUS
 62
       1
100
AcDbCircle
 10
10762.9588921
 20
60155.19380786
 30
0.0
 40
586.87993959
100
AcDbArc
 50
90.0
 51
180.0
  0
ARC
  5
350
100
AcDbEntity
  8
D-STR
  6
CONTINUOUS
 62
       1
100
AcDbCircle
 10
9316.71904097
 20
60155.19380786
 30
0.0
 40
586.87993959
100
AcDbArc
 50
0.0
 51
90.0
  0
LINE
  5
351
100
AcDbEntity
  8
D-STR
  6
CONTINUOUS
 62
       1
100
AcDbLine
 10
6895.83929017
 20
60742.07374745
 30
0.0
 11
6895.83929017
 21
61245.11369567
 31
0.0
  0
ENDBLK
  5
352
100
AcDbEntity
  8
0
100
AcDbBlockEnd
  0
BLOCK
  5
353
100
AcDbEntity
  8
0
100
AcDbBlockBegin
  2
GROUP_42
 70
       0
 10
0.0
 20
0.0
 30
0.0
  3
GROUP_42
  1

  0
LINE
  5
354
100
AcDbEntity
  8
D-STR
  6
CONTINUOUS
 62
       1
100
AcDbLine
 10
9893.11898164
 20
22804.4776526
 30
0.0
 11
9893.11898164
 21
37308.79615958
 31
0.0
  0
LINE
  5
355
100
AcDbEntity
  8
D-STR
  6
CONTINUOUS
 62
       1
100
AcDbLine
 10
10186.55895144
 20
22804.4776526
 30
0.0
 11
10186.55895144
 21
37308.79615958
 31
0.0
  0
LINE
  5
356
100
AcDbEntity
  8
D-STR
  6
CONTINUOUS
 62
       1
100
AcDbLine
 10
6895.83929017
 20
22217.59771301
 30
0.0
 11
9306.23904205
 21
22217.59771301
 31
0.0
  0
LINE
  5
357
100
AcDbEntity
  8
D-STR
  6
CONTINUOUS
 62
       1
100
AcDbLine
 10
6895.83929017
 20
21672.6377691
 30
0.0
 11
13183.83864291
 21
21672.6377691
 31
0.0
  0
LINE
  5
358
100
AcDbEntity
  8
D-STR
  6
CONTINUOUS
 62
       1
100
AcDbLine
 10
13183.83864291
 20
21672.6377691
 30
0.0
 11
13183.83864291
 21
22217.59771301
 31
0.0
  0
LINE
  5
359
100
AcDbEntity
  8
D-STR
  6
CONTINUOUS
 62
       1
100
AcDbLine
 10
10773.43889102
 20
22217.59771301
 30
0.0
 11
13183.83864291
 21
22217.59771301
 31
0.0
  0
ARC
  5
35A
100
AcDbEntity
  8
D-STR
  6
CONTINUOUS
 62
       1
100
AcDbCircle
 10
10773.43889102
 20
22804.4776526
 30
0.0
 40
586.87993959
100
AcDbArc
 50
180.0
 51
270.0
  0
ARC
  5
35B
100
AcDbEntity
  8
D-STR
  6
CONTINUOUS
 62
       1
100
AcDbCircle
 10
9306.23904205
 20
22804.4776526
 30
0.0
 40
586.87993959
100
AcDbArc
 50
270.0
 51
360.0
  0
LINE
  5
35C
100
AcDbEntity
  8
D-STR
  6
CONTINUOUS
 62
       1
100
AcDbLine
 10
6895.83929017
 20
21672.6377691
 30
0.0
 11
6895.83929017
 21
22217.59771301
 31
0.0
  0
LINE
  5
35D
100
AcDbEntity
  8
D-STR
  6
CONTINUOUS
 62
       1
100
AcDbLine
 10
6895.83929017
 20
37895.67609917
 30
0.0
 11
9306.23904205
 21
37895.67609917
 31
0.0
  0
LINE
  5
35E
100
AcDbEntity
  8
D-STR
  6
CONTINUOUS
 62
       1
100
AcDbLine
 10
6895.83929017
 20
38440.63604307
 30
0.0
 11
13183.83864291
 21
38440.63604307
 31
0.0
  0
LINE
  5
35F
100
AcDbEntity
  8
D-STR
  6
CONTINUOUS
 62
       1
100
AcDbLine
 10
10773.43889102
 20
37895.67609917
 30
0.0
 11
13183.83864291
 21
37895.67609917
 31
0.0
  0
LINE
  5
360
100
AcDbEntity
  8
D-STR
  6
CONTINUOUS
 62
       1
100
AcDbLine
 10
13183.83864291
 20
37895.67609917
 30
0.0
 11
13183.83864291
 21
38440.63604307
 31
0.0
  0
ARC
  5
361
100
AcDbEntity
  8
D-STR
  6
CONTINUOUS
 62
       1
100
AcDbCircle
 10
10773.43889102
 20
37308.79615958
 30
0.0
 40
586.87993959
100
AcDbArc
 50
90.0
 51
180.0
  0
ARC
  5
362
100
AcDbEntity
  8
D-STR
  6
CONTINUOUS
 62
       1
100
AcDbCircle
 10
9306.23904205
 20
37308.79615958
 30
0.0
 40
586.87993959
100
AcDbArc
 50
0.0
 51
90.0
  0
LINE
  5
363
100
AcDbEntity
  8
D-STR
  6
CONTINUOUS
 62
       1
100
AcDbLine
 10
6895.83929017
 20
37895.67609917
 30
0.0
 11
6895.83929017
 21
38440.63604307
 31
0.0
  0
ENDBLK
  5
364
100
AcDbEntity
  8
0
100
AcDbBlockEnd
  0
BLOCK
  5
365
100
AcDbEntity
  8
0
100
AcDbBlockBegin
  2
GROUP_43
 70
       0
 10
0.0
 20
0.0
 30
0.0
  3
GROUP_43
  1

  0
LINE
  5
366
100
AcDbEntity
  8
D-STR
  6
CONTINUOUS
 62
       1
100
AcDbLine
 10
9872.1589838
 20
-5156.15946925
 30
0.0
 11
9872.1589838
 21
11360.31883061
 31
0.0
  0
LINE
  5
367
100
AcDbEntity
  8
D-STR
  6
CONTINUOUS
 62
       1
100
AcDbLine
 10
10207.51894928
 20
-5156.15946925
 30
0.0
 11
10207.51894928
 21
11360.31883061
 31
0.0
  0
LINE
  5
368
100
AcDbEntity
  8
D-STR
  6
CONTINUOUS
 62
       1
100
AcDbLine
 10
6895.83929017
 20
-5743.03940883
 30
0.0
 11
9285.27904421
 21
-5743.03940883
 31
0.0
  0
LINE
  5
369
100
AcDbEntity
  8
D-STR
  6
CONTINUOUS
 62
       1
100
AcDbLine
 10
6895.83929017
 20
-6329.91934842
 30
0.0
 11
13183.83864291
 21
-6329.91934842
 31
0.0
  0
ARC
  5
36A
100
AcDbEntity
  8
D-STR
  6
CONTINUOUS
 62
       1
100
AcDbCircle
 10
10794.39888887
 20
-5156.15946925
 30
0.0
 40
586.87993959
100
AcDbArc
 50
180.0
 51
270.0
  0
ARC
  5
36B
100
AcDbEntity
  8
D-STR
  6
CONTINUOUS
 62
       1
100
AcDbCircle
 10
9285.27904421
 20
-5156.15946925
 30
0.0
 40
586.87993959
100
AcDbArc
 50
270.0
 51
360.0
  0
LINE
  5
36C
100
AcDbEntity
  8
D-STR
  6
CONTINUOUS
 62
       1
100
AcDbLine
 10
10794.39888887
 20
-5743.03940883
 30
0.0
 11
13183.83864291
 21
-5743.03940883
 31
0.0
  0
LINE
  5
36D
100
AcDbEntity
  8
D-STR
  6
CONTINUOUS
 62
       1
100
AcDbLine
 10
13183.83864291
 20
-6329.91934842
 30
0.0
 11
13183.83864291
 21
-5743.03940883
 31
0.0
  0
LINE
  5
36E
100
AcDbEntity
  8
D-STR
  6
CONTINUOUS
 62
       1
100
AcDbLine
 10
6895.83929017
 20
-6329.91934842
 30
0.0
 11
6895.83929017
 21
-5743.03940883
 31
0.0
  0
LINE
  5
36F
100
AcDbEntity
  8
D-STR
  6
CONTINUOUS
 62
       1
100
AcDbLine
 10
6895.83929017
 20
11947.1987702
 30
0.0
 11
9285.27904421
 21
11947.1987702
 31
0.0
  0
LINE
  5
370
100
AcDbEntity
  8
D-STR
  6
CONTINUOUS
 62
       1
100
AcDbLine
 10
6895.83929017
 20
12534.07870979
 30
0.0
 11
13183.83864291
 21
12534.07870979
 31
0.0
  0
LINE
  5
371
100
AcDbEntity
  8
D-STR
  6
CONTINUOUS
 62
       1
100
AcDbLine
 10
13183.83864291
 20
11947.1987702
 30
0.0
 11
13183.83864291
 21
12534.07870979
 31
0.0
  0
LINE
  5
372
100
AcDbEntity
  8
D-STR
  6
CONTINUOUS
 62
       1
100
AcDbLine
 10
10794.39888887
 20
11947.1987702
 30
0.0
 11
13183.83864291
 21
11947.1987702
 31
0.0
  0
ARC
  5
373
100
AcDbEntity
  8
D-STR
  6
CONTINUOUS
 62
       1
100
AcDbCircle
 10
10794.39888887
 20
11360.31883061
 30
0.0
 40
586.87993959
100
AcDbArc
 50
90.0
 51
180.0
  0
ARC
  5
374
100
AcDbEntity
  8
D-STR
  6
CONTINUOUS
 62
       1
100
AcDbCircle
 10
9285.27904421
 20
11360.31883061
 30
0.0
 40
586.87993959
100
AcDbArc
 50
0.0
 51
90.0
  0
LINE
  5
375
100
AcDbEntity
  8
D-STR
  6
CONTINUOUS
 62
       1
100
AcDbLine
 10
6895.83929017
 20
11947.1987702
 30
0.0
 11
6895.83929017
 21
12534.07870979
 31
0.0
  0
ENDBLK
  5
376
100
AcDbEntity
  8
0
100
AcDbBlockEnd
  0
BLOCK
  5
377
100
AcDbEntity
  8
0
100
AcDbBlockBegin
  2
GROUP_44
 70
       0
 10
0.0
 20
0.0
 30
0.0
  3
GROUP_44
  1

  0
LINE
  5
378
100
AcDbEntity
  8
D-STR
  6
CONTINUOUS
 62
       1
100
AcDbLine
 10
40882.47579172
 20
124670.06716696
 30
0.0
 11
37287.83616174
 21
124670.06716696
 31
0.0
  0
LINE
  5
379
100
AcDbEntity
  8
D-STR
  6
CONTINUOUS
 62
       1
100
AcDbLine
 10
40882.47579172
 20
117166.38793936
 30
0.0
 11
37287.83616174
 21
117166.38793936
 31
0.0
  0
LINE
  5
37A
100
AcDbEntity
  8
D-STR
  6
CONTINUOUS
 62
       1
100
AcDbLine
 10
45671.83529872
 20
116726.22798466
 30
0.0
 11
37287.83616174
 21
116726.22798466
 31
0.0
  0
LINE
  5
37B
100
AcDbEntity
  8
D-STR
  6
CONTINUOUS
 62
       1
100
AcDbLine
 10
45671.83529872
 20
125110.22712165
 30
0.0
 11
37287.83616174
 21
125110.22712165
 31
0.0
  0
LINE
  5
37C
100
AcDbEntity
  8
D-STR
  6
CONTINUOUS
 62
       1
100
AcDbLine
 10
41616.07571621
 20
124208.94721442
 30
0.0
 11
41616.07571621
 21
117627.50789189
 31
0.0
  0
LINE
  5
37D
100
AcDbEntity
  8
D-STR
  6
CONTINUOUS
 62
       1
100
AcDbLine
 10
41343.59574425
 20
124208.94721442
 30
0.0
 11
41343.59574425
 21
117627.50789189
 31
0.0
  0
LINE
  5
37E
100
AcDbEntity
  8
D-STR
  6
CONTINUOUS
 62
       1
100
AcDbLine
 10
45671.83529872
 20
117166.38793936
 30
0.0
 11
42077.19566874
 21
117166.38793936
 31
0.0
  0
LINE
  5
37F
100
AcDbEntity
  8
D-STR
  6
CONTINUOUS
 62
       1
100
AcDbLine
 10
45671.83529872
 20
117166.38793936
 30
0.0
 11
45671.83529872
 21
116726.22798466
 31
0.0
  0
ARC
  5
380
100
AcDbEntity
  8
D-STR
  6
CONTINUOUS
 62
       1
100
AcDbCircle
 10
42077.19566874
 20
117627.50789189
 30
0.0
 40
461.11995253
100
AcDbArc
 50
180.0
 51
270.0
  0
ARC
  5
381
100
AcDbEntity
  8
D-STR
  6
CONTINUOUS
 62
       1
100
AcDbCircle
 10
40882.47579172
 20
117627.50789189
 30
0.0
 40
461.11995253
100
AcDbArc
 50
270.0
 51
360.0
  0
LINE
  5
382
100
AcDbEntity
  8
D-STR
  6
CONTINUOUS
 62
       1
100
AcDbLine
 10
45671.83529872
 20
124670.06716696
 30
0.0
 11
42077.19566874
 21
124670.06716696
 31
0.0
  0
LINE
  5
383
100
AcDbEntity
  8
D-STR
  6
CONTINUOUS
 62
       1
100
AcDbLine
 10
45671.83529872
 20
125110.22712165
 30
0.0
 11
45671.83529872
 21
124670.06716696
 31
0.0
  0
ARC
  5
384
100
AcDbEntity
  8
D-STR
  6
CONTINUOUS
 62
       1
100
AcDbCircle
 10
42077.19566874
 20
124208.94721442
 30
0.0
 40
461.11995253
100
AcDbArc
 50
90.0
 51
180.0
  0
ARC
  5
385
100
AcDbEntity
  8
D-STR
  6
CONTINUOUS
 62
       1
100
AcDbCircle
 10
40882.47579172
 20
124208.94721442
 30
0.0
 40
461.11995253
100
AcDbArc
 50
0.0
 51
90.0
  0
LINE
  5
386
100
AcDbEntity
  8
D-STR
  6
CONTINUOUS
 62
       1
100
AcDbLine
 10
37287.83616174
 20
117166.38793936
 30
0.0
 11
37287.83616174
 21
116726.22798466
 31
0.0
  0
LINE
  5
387
100
AcDbEntity
  8
D-STR
  6
CONTINUOUS
 62
       1
100
AcDbLine
 10
37287.83616174
 20
125110.22712165
 30
0.0
 11
37287.83616174
 21
124670.06716696
 31
0.0
  0
ENDBLK
  5
388
100
AcDbEntity
  8
0
100
AcDbBlockEnd
  0
BLOCK
  5
389
100
AcDbEntity
  8
0
100
AcDbBlockBegin
  2
GROUP_45
 70
       0
 10
0.0
 20
0.0
 30
0.0
  3
GROUP_45
  1

  0
LINE
  5
38A
100
AcDbEntity
  8
D-STR
  6
CONTINUOUS
 62
       1
100
AcDbLine
 10
56654.87416817
 20
136114.22598894
 30
0.0
 11
53531.83448964
 21
136114.22598894
 31
0.0
  0
LINE
  5
38B
100
AcDbEntity
  8
D-STR
  6
CONTINUOUS
 62
       1
100
AcDbLine
 10
56654.87416817
 20
129574.70666209
 30
0.0
 11
53531.83448964
 21
129574.70666209
 31
0.0
  0
LINE
  5
38C
100
AcDbEntity
  8
D-STR
  6
CONTINUOUS
 62
       1
100
AcDbLine
 10
60867.83373451
 20
129176.46670309
 30
0.0
 11
53531.83448964
 21
129176.46670309
 31
0.0
  0
LINE
  5
38D
100
AcDbEntity
  8
D-STR
  6
CONTINUOUS
 62
       1
100
AcDbLine
 10
60867.83373451
 20
136512.46594795
 30
0.0
 11
53531.83448964
 21
136512.46594795
 31
0.0
  0
LINE
  5
38E
100
AcDbEntity
  8
D-STR
  6
CONTINUOUS
 62
       1
100
AcDbLine
 10
57325.59409913
 20
135695.02603209
 30
0.0
 11
57325.59409913
 21
129993.90661894
 31
0.0
  0
LINE
  5
38F
100
AcDbEntity
  8
D-STR
  6
CONTINUOUS
 62
       1
100
AcDbLine
 10
57074.07412502
 20
135695.02603209
 30
0.0
 11
57074.07412502
 21
129993.90661894
 31
0.0
  0
LINE
  5
390
100
AcDbEntity
  8
D-STR
  6
CONTINUOUS
 62
       1
100
AcDbLine
 10
60867.83373451
 20
129574.70666209
 30
0.0
 11
57744.79405598
 21
129574.70666209
 31
0.0
  0
LINE
  5
391
100
AcDbEntity
  8
D-STR
  6
CONTINUOUS
 62
       1
100
AcDbLine
 10
60867.83373451
 20
129574.70666209
 30
0.0
 11
60867.83373451
 21
129176.46670309
 31
0.0
  0
ARC
  5
392
100
AcDbEntity
  8
D-STR
  6
CONTINUOUS
 62
       1
100
AcDbCircle
 10
57744.79405598
 20
129993.90661894
 30
0.0
 40
419.19995685
100
AcDbArc
 50
180.0
 51
270.0
  0
ARC
  5
393
100
AcDbEntity
  8
D-STR
  6
CONTINUOUS
 62
       1
100
AcDbCircle
 10
56654.87416817
 20
129993.90661894
 30
0.0
 40
419.19995685
100
AcDbArc
 50
270.0
 51
360.0
  0
LINE
  5
394
100
AcDbEntity
  8
D-STR
  6
CONTINUOUS
 62
       1
100
AcDbLine
 10
60867.83373451
 20
136114.22598894
 30
0.0
 11
57744.79405598
 21
136114.22598894
 31
0.0
  0
LINE
  5
395
100
AcDbEntity
  8
D-STR
  6
CONTINUOUS
 62
       1
100
AcDbLine
 10
60867.83373451
 20
136512.46594795
 30
0.0
 11
60867.83373451
 21
136114.22598894
 31
0.0
  0
ARC
  5
396
100
AcDbEntity
  8
D-STR
  6
CONTINUOUS
 62
       1
100
AcDbCircle
 10
57744.79405598
 20
135695.02603209
 30
0.0
 40
419.19995685
100
AcDbArc
 50
90.0
 51
180.0
  0
ARC
  5
397
100
AcDbEntity
  8
D-STR
  6
CONTINUOUS
 62
       1
100
AcDbCircle
 10
56654.87416817
 20
135695.02603209
 30
0.0
 40
419.19995685
100
AcDbArc
 50
0.0
 51
90.0
  0
LINE
  5
398
100
AcDbEntity
  8
D-STR
  6
CONTINUOUS
 62
       1
100
AcDbLine
 10
53531.83448964
 20
129574.70666209
 30
0.0
 11
53531.83448964
 21
129176.46670309
 31
0.0
  0
LINE
  5
399
100
AcDbEntity
  8
D-STR
  6
CONTINUOUS
 62
       1
100
AcDbLine
 10
53531.83448964
 20
136512.46594795
 30
0.0
 11
53531.83448964
 21
136114.22598894
 31
0.0
  0
ENDBLK
  5
39A
100
AcDbEntity
  8
0
100
AcDbBlockEnd
  0
BLOCK
  5
39B
100
AcDbEntity
  8
0
100
AcDbBlockBegin
  2
GROUP_46
 70
       0
 10
0.0
 20
0.0
 30
0.0
  3
GROUP_46
  1

  0
LINE
  5
39C
100
AcDbEntity
  8
D-STR
  6
CONTINUOUS
 62
       1
100
AcDbLine
 10
40997.75577985
 20
146049.26496627
 30
0.0
 11
38335.83605386
 21
146049.26496627
 31
0.0
  0
LINE
  5
39D
100
AcDbEntity
  8
D-STR
  6
CONTINUOUS
 62
       1
100
AcDbLine
 10
40997.75577985
 20
140390.0655488
 30
0.0
 11
38335.83605386
 21
140390.0655488
 31
0.0
  0
LINE
  5
39E
100
AcDbEntity
  8
D-STR
  6
CONTINUOUS
 62
       1
100
AcDbLine
 10
44623.8354066
 20
140075.66558117
 30
0.0
 11
38335.83605386
 21
140075.66558117
 31
0.0
  0
LINE
  5
39F
100
AcDbEntity
  8
D-STR
  6
CONTINUOUS
 62
       1
100
AcDbLine
 10
44623.8354066
 20
146363.6649339
 30
0.0
 11
38335.83605386
 21
146363.6649339
 31
0.0
  0
LINE
  5
3A0
100
AcDbEntity
  8
D-STR
  6
CONTINUOUS
 62
       1
100
AcDbLine
 10
41584.63571944
 20
145671.9850051
 30
0.0
 11
41584.63571944
 21
140767.34550997
 31
0.0
  0
LINE
  5
3A1
100
AcDbEntity
  8
D-STR
  6
CONTINUOUS
 62
       1
100
AcDbLine
 10
41375.03574102
 20
145671.9850051
 30
0.0
 11
41375.03574102
 21
140767.34550997
 31
0.0
  0
LINE
  5
3A2
100
AcDbEntity
  8
D-STR
  6
CONTINUOUS
 62
       1
100
AcDbLine
 10
44623.8354066
 20
140390.0655488
 30
0.0
 11
41961.91568061
 21
140390.0655488
 31
0.0
  0
LINE
  5
3A3
100
AcDbEntity
  8
D-STR
  6
CONTINUOUS
 62
       1
100
AcDbLine
 10
44623.8354066
 20
140390.0655488
 30
0.0
 11
44623.8354066
 21
140075.66558117
 31
0.0
  0
ARC
  5
3A4
100
AcDbEntity
  8
D-STR
  6
CONTINUOUS
 62
       1
100
AcDbCircle
 10
41961.91568061
 20
140767.34550997
 30
0.0
 40
377.27996116
100
AcDbArc
 50
180.0
 51
270.0
  0
ARC
  5
3A5
100
AcDbEntity
  8
D-STR
  6
CONTINUOUS
 62
       1
100
AcDbCircle
 10
40997.75577985
 20
140767.34550997
 30
0.0
 40
377.27996116
100
AcDbArc
 50
270.0
 51
360.0
  0
LINE
  5
3A6
100
AcDbEntity
  8
D-STR
  6
CONTINUOUS
 62
       1
100
AcDbLine
 10
44623.8354066
 20
146049.26496627
 30
0.0
 11
41961.91568061
 21
146049.26496627
 31
0.0
  0
LINE
  5
3A7
100
AcDbEntity
  8
D-STR
  6
CONTINUOUS
 62
       1
100
AcDbLine
 10
44623.8354066
 20
146363.6649339
 30
0.0
 11
44623.8354066
 21
146049.26496627
 31
0.0
  0
ARC
  5
3A8
100
AcDbEntity
  8
D-STR
  6
CONTINUOUS
 62
       1
100
AcDbCircle
 10
40997.75577985
 20
145671.9850051
 30
0.0
 40
377.27996116
100
AcDbArc
 50
0.0
 51
90.0
  0
ARC
  5
3A9
100
AcDbEntity
  8
D-STR
  6
CONTINUOUS
 62
       1
100
AcDbCircle
 10
41961.91568061
 20
145671.9850051
 30
0.0
 40
377.27996116
100
AcDbArc
 50
90.0
 51
180.0
  0
LINE
  5
3AA
100
AcDbEntity
  8
D-STR
  6
CONTINUOUS
 62
       1
100
AcDbLine
 10
38335.83605386
 20
140390.0655488
 30
0.0
 11
38335.83605386
 21
140075.66558117
 31
0.0
  0
LINE
  5
3AB
100
AcDbEntity
  8
D-STR
  6
CONTINUOUS
 62
       1
100
AcDbLine
 10
38335.83605386
 20
146363.6649339
 30
0.0
 11
38335.83605386
 21
146049.26496627
 31
0.0
  0
ENDBLK
  5
3AC
100
AcDbEntity
  8
0
100
AcDbBlockEnd
  0
BLOCK
  5
3AD
100
AcDbEntity
  8
0
100
AcDbBlockBegin
  2
GROUP_47
 70
       0
 10
0.0
 20
0.0
 30
0.0
  3
GROUP_47
  1

  0
LINE
  5
3AE
100
AcDbEntity
  8
D-STR
  6
CONTINUOUS
 62
       1
100
AcDbLine
 10
41050.15577446
 20
149738.22458654
 30
0.0
 11
38859.83599992
 21
149738.22458654
 31
0.0
  0
LINE
  5
3AF
100
AcDbEntity
  8
D-STR
  6
CONTINUOUS
 62
       1
100
AcDbLine
 10
41050.15577446
 20
154391.34410757
 30
0.0
 11
38859.83599992
 21
154391.34410757
 31
0.0
  0
LINE
  5
3B0
100
AcDbEntity
  8
D-STR
  6
CONTINUOUS
 62
       1
100
AcDbLine
 10
44099.83546054
 20
149444.78461675
 30
0.0
 11
38859.83599992
 21
149444.78461675
 31
0.0
  0
LINE
  5
3B1
100
AcDbEntity
  8
D-STR
  6
CONTINUOUS
 62
       1
100
AcDbLine
 10
44099.83546054
 20
154684.78407736
 30
0.0
 11
38859.83599992
 21
154684.78407736
 31
0.0
  0
LINE
  5
3B2
100
AcDbEntity
  8
D-STR
  6
CONTINUOUS
 62
       1
100
AcDbLine
 10
41574.15572052
 20
154055.98414209
 30
0.0
 11
41574.15572052
 21
150073.58455202
 31
0.0
  0
LINE
  5
3B3
100
AcDbEntity
  8
D-STR
  6
CONTINUOUS
 62
       1
100
AcDbLine
 10
41385.51573994
 20
154055.98414209
 30
0.0
 11
41385.51573994
 21
150073.58455202
 31
0.0
  0
LINE
  5
3B4
100
AcDbEntity
  8
D-STR
  6
CONTINUOUS
 62
       1
100
AcDbLine
 10
44099.83546054
 20
149738.22458654
 30
0.0
 11
41909.515686
 21
149738.22458654
 31
0.0
  0
LINE
  5
3B5
100
AcDbEntity
  8
D-STR
  6
CONTINUOUS
 62
       1
100
AcDbLine
 10
44099.83546054
 20
149738.22458654
 30
0.0
 11
44099.83546054
 21
149444.78461675
 31
0.0
  0
ARC
  5
3B6
100
AcDbEntity
  8
D-STR
  6
CONTINUOUS
 62
       1
100
AcDbCircle
 10
41909.515686
 20
150073.58455202
 30
0.0
 40
335.35996548
100
AcDbArc
 50
180.0
 51
270.0
  0
ARC
  5
3B7
100
AcDbEntity
  8
D-STR
  6
CONTINUOUS
 62
       1
100
AcDbCircle
 10
41050.15577446
 20
150073.58455202
 30
0.0
 40
335.35996548
100
AcDbArc
 50
270.0
 51
360.0
  0
LINE
  5
3B8
100
AcDbEntity
  8
D-STR
  6
CONTINUOUS
 62
       1
100
AcDbLine
 10
44099.83546054
 20
154391.34410757
 30
0.0
 11
41909.515686
 21
154391.34410757
 31
0.0
  0
LINE
  5
3B9
100
AcDbEntity
  8
D-STR
  6
CONTINUOUS
 62
       1
100
AcDbLine
 10
44099.83546054
 20
154684.78407736
 30
0.0
 11
44099.83546054
 21
154391.34410757
 31
0.0
  0
ARC
  5
3BA
100
AcDbEntity
  8
D-STR
  6
CONTINUOUS
 62
       1
100
AcDbCircle
 10
41909.515686
 20
154055.98414209
 30
0.0
 40
335.35996548
100
AcDbArc
 50
90.0
 51
180.0
  0
ARC
  5
3BB
100
AcDbEntity
  8
D-STR
  6
CONTINUOUS
 62
       1
100
AcDbCircle
 10
41050.15577446
 20
154055.98414209
 30
0.0
 40
335.35996548
100
AcDbArc
 50
0.0
 51
90.0
  0
LINE
  5
3BC
100
AcDbEntity
  8
D-STR
  6
CONTINUOUS
 62
       1
100
AcDbLine
 10
38859.83599992
 20
149738.22458654
 30
0.0
 11
38859.83599992
 21
149444.78461675
 31
0.0
  0
LINE
  5
3BD
100
AcDbEntity
  8
D-STR
  6
CONTINUOUS
 62
       1
100
AcDbLine
 10
38859.83599992
 20
154684.78407736
 30
0.0
 11
38859.83599992
 21
154391.34410757
 31
0.0
  0
ENDBLK
  5
3BE
100
AcDbEntity
  8
0
100
AcDbBlockEnd
  0
BLOCK
  5
3BF
100
AcDbEntity
  8
0
100
AcDbBlockBegin
  2
GROUP_48
 70
       0
 10
0.0
 20
0.0
 30
0.0
  3
GROUP_48
  1

  0
LINE
  5
3C0
100
AcDbEntity
  8
D-STR
  6
CONTINUOUS
 62
       1
100
AcDbLine
 10
25571.1973678
 20
-5156.15946925
 30
0.0
 11
25571.1973678
 21
11360.31883061
 31
0.0
  0
LINE
  5
3C1
100
AcDbEntity
  8
D-STR
  6
CONTINUOUS
 62
       1
100
AcDbLine
 10
25948.47732897
 20
-5156.15946925
 30
0.0
 11
25948.47732897
 21
11360.31883061
 31
0.0
  0
LINE
  5
3C2
100
AcDbEntity
  8
D-STR
  6
CONTINUOUS
 62
       1
100
AcDbLine
 10
22594.87767417
 20
-5743.03940883
 30
0.0
 11
24984.31742821
 21
-5743.03940883
 31
0.0
  0
LINE
  5
3C3
100
AcDbEntity
  8
D-STR
  6
CONTINUOUS
 62
       1
100
AcDbLine
 10
22594.87767417
 20
-6455.67933548
 30
0.0
 11
28924.7970226
 21
-6455.67933548
 31
0.0
  0
LINE
  5
3C4
100
AcDbEntity
  8
D-STR
  6
CONTINUOUS
 62
       1
100
AcDbLine
 10
26535.35726856
 20
-5743.03940883
 30
0.0
 11
28924.7970226
 21
-5743.03940883
 31
0.0
  0
LINE
  5
3C5
100
AcDbEntity
  8
D-STR
  6
CONTINUOUS
 62
       1
100
AcDbLine
 10
28924.7970226
 20
-6455.67933548
 30
0.0
 11
28924.7970226
 21
-5743.03940883
 31
0.0
  0
ARC
  5
3C6
100
AcDbEntity
  8
D-STR
  6
CONTINUOUS
 62
       1
100
AcDbCircle
 10
26535.35726856
 20
-5156.15946925
 30
0.0
 40
586.87993959
100
AcDbArc
 50
180.0
 51
270.0
  0
ARC
  5
3C7
100
AcDbEntity
  8
D-STR
  6
CONTINUOUS
 62
       1
100
AcDbCircle
 10
24984.31742821
 20
-5156.15946925
 30
0.0
 40
586.87993959
100
AcDbArc
 50
270.0
 51
360.0
  0
LINE
  5
3C8
100
AcDbEntity
  8
D-STR
  6
CONTINUOUS
 62
       1
100
AcDbLine
 10
22594.87767417
 20
-6455.67933548
 30
0.0
 11
22594.87767417
 21
-5743.03940883
 31
0.0
  0
LINE
  5
3C9
100
AcDbEntity
  8
D-STR
  6
CONTINUOUS
 62
       1
100
AcDbLine
 10
22594.87767417
 20
11947.1987702
 30
0.0
 11
24984.31742821
 21
11947.1987702
 31
0.0
  0
LINE
  5
3CA
100
AcDbEntity
  8
D-STR
  6
CONTINUOUS
 62
       1
100
AcDbLine
 10
22594.87767417
 20
12659.83869685
 30
0.0
 11
28924.7970226
 21
12659.83869685
 31
0.0
  0
LINE
  5
3CB
100
AcDbEntity
  8
D-STR
  6
CONTINUOUS
 62
       1
100
AcDbLine
 10
26535.35726856
 20
11947.1987702
 30
0.0
 11
28924.7970226
 21
11947.1987702
 31
0.0
  0
LINE
  5
3CC
100
AcDbEntity
  8
D-STR
  6
CONTINUOUS
 62
       1
100
AcDbLine
 10
28924.7970226
 20
11947.1987702
 30
0.0
 11
28924.7970226
 21
12659.83869685
 31
0.0
  0
ARC
  5
3CD
100
AcDbEntity
  8
D-STR
  6
CONTINUOUS
 62
       1
100
AcDbCircle
 10
26535.35726856
 20
11360.31883061
 30
0.0
 40
586.87993959
100
AcDbArc
 50
90.0
 51
180.0
  0
ARC
  5
3CE
100
AcDbEntity
  8
D-STR
  6
CONTINUOUS
 62
       1
100
AcDbCircle
 10
24984.31742821
 20
11360.31883061
 30
0.0
 40
586.87993959
100
AcDbArc
 50
0.0
 51
90.0
  0
LINE
  5
3CF
100
AcDbEntity
  8
D-STR
  6
CONTINUOUS
 62
       1
100
AcDbLine
 10
22594.87767417
 20
11947.1987702
 30
0.0
 11
22594.87767417
 21
12659.83869685
 31
0.0
  0
ENDBLK
  5
3D0
100
AcDbEntity
  8
0
100
AcDbBlockEnd
  0
BLOCK
  5
3D1
100
AcDbEntity
  8
0
100
AcDbBlockBegin
  2
GROUP_49
 70
       0
 10
0.0
 20
0.0
 30
0.0
  3
GROUP_49
  1

  0
LINE
  5
3D2
100
AcDbEntity
  8
D-STR
  6
CONTINUOUS
 62
       1
100
AcDbLine
 10
57053.11412718
 20
69503.3528456
 30
0.0
 11
57053.11412718
 21
79815.67178409
 31
0.0
  0
LINE
  5
3D3
100
AcDbEntity
  8
D-STR
  6
CONTINUOUS
 62
       1
100
AcDbLine
 10
57346.55409697
 20
69503.3528456
 30
0.0
 11
57346.55409697
 21
79815.67178409
 31
0.0
  0
LINE
  5
3D4
100
AcDbEntity
  8
D-STR
  6
CONTINUOUS
 62
       1
100
AcDbLine
 10
54034.87443786
 20
68916.47290601
 30
0.0
 11
56466.23418759
 21
68916.47290601
 31
0.0
  0
LINE
  5
3D5
100
AcDbEntity
  8
D-STR
  6
CONTINUOUS
 62
       1
100
AcDbLine
 10
54034.87443786
 20
68434.39295563
 30
0.0
 11
60364.79378629
 21
68434.39295563
 31
0.0
  0
LINE
  5
3D6
100
AcDbEntity
  8
D-STR
  6
CONTINUOUS
 62
       1
100
AcDbLine
 10
57933.43403656
 20
68916.47290601
 30
0.0
 11
60364.79378629
 21
68916.47290601
 31
0.0
  0
LINE
  5
3D7
100
AcDbEntity
  8
D-STR
  6
CONTINUOUS
 62
       1
100
AcDbLine
 10
60364.79378629
 20
68434.39295563
 30
0.0
 11
60364.79378629
 21
68916.47290601
 31
0.0
  0
ARC
  5
3D8
100
AcDbEntity
  8
D-STR
  6
CONTINUOUS
 62
       1
100
AcDbCircle
 10
57933.43403656
 20
69503.3528456
 30
0.0
 40
586.87993959
100
AcDbArc
 50
180.0
 51
270.0
  0
ARC
  5
3D9
100
AcDbEntity
  8
D-STR
  6
CONTINUOUS
 62
       1
100
AcDbCircle
 10
56466.23418759
 20
69503.3528456
 30
0.0
 40
586.87993959
100
AcDbArc
 50
270.0
 51
360.0
  0
LINE
  5
3DA
100
AcDbEntity
  8
D-STR
  6
CONTINUOUS
 62
       1
100
AcDbLine
 10
54034.87443786
 20
68434.39295563
 30
0.0
 11
54034.87443786
 21
68916.47290601
 31
0.0
  0
LINE
  5
3DB
100
AcDbEntity
  8
D-STR
  6
CONTINUOUS
 62
       1
100
AcDbLine
 10
54034.87443786
 20
80402.55172368
 30
0.0
 11
56466.23418759
 21
80402.55172368
 31
0.0
  0
LINE
  5
3DC
100
AcDbEntity
  8
D-STR
  6
CONTINUOUS
 62
       1
100
AcDbLine
 10
54034.87443786
 20
80884.63167406
 30
0.0
 11
60364.79378629
 21
80884.63167406
 31
0.0
  0
LINE
  5
3DD
100
AcDbEntity
  8
D-STR
  6
CONTINUOUS
 62
       1
100
AcDbLine
 10
57933.43403656
 20
80402.55172368
 30
0.0
 11
60364.79378629
 21
80402.55172368
 31
0.0
  0
LINE
  5
3DE
100
AcDbEntity
  8
D-STR
  6
CONTINUOUS
 62
       1
100
AcDbLine
 10
60364.79378629
 20
80402.55172368
 30
0.0
 11
60364.79378629
 21
80884.63167406
 31
0.0
  0
ARC
  5
3DF
100
AcDbEntity
  8
D-STR
  6
CONTINUOUS
 62
       1
100
AcDbCircle
 10
57933.43403656
 20
79815.67178409
 30
0.0
 40
586.87993959
100
AcDbArc
 50
90.0
 51
180.0
  0
ARC
  5
3E0
100
AcDbEntity
  8
D-STR
  6
CONTINUOUS
 62
       1
100
AcDbCircle
 10
56466.23418759
 20
79815.67178409
 30
0.0
 40
586.87993959
100
AcDbArc
 50
0.0
 51
90.0
  0
LINE
  5
3E1
100
AcDbEntity
  8
D-STR
  6
CONTINUOUS
 62
       1
100
AcDbLine
 10
54034.87443786
 20
80402.55172368
 30
0.0
 11
54034.87443786
 21
80884.63167406
 31
0.0
  0
ENDBLK
  5
3E2
100
AcDbEntity
  8
0
100
AcDbBlockEnd
  0
BLOCK
  5
3E3
100
AcDbEntity
  8
0
100
AcDbBlockBegin
  2
GROUP_50
 70
       0
 10
0.0
 20
0.0
 30
0.0
  3
GROUP_50
  1

  0
LINE
  5
3E4
100
AcDbEntity
  8
D-STR
  6
CONTINUOUS
 62
       1
100
AcDbLine
 10
99832.46972364
 20
126137.26701593
 30
0.0
 11
108887.18879158
 21
126137.26701593
 31
0.0
  0
LINE
  5
3E5
100
AcDbEntity
  8
D-STR
  6
CONTINUOUS
 62
       1
100
AcDbLine
 10
99832.46972364
 20
115699.18809038
 30
0.0
 11
108887.18879158
 21
115699.18809038
 31
0.0
  0
LINE
  5
3E6
100
AcDbEntity
  8
D-STR
  6
CONTINUOUS
 62
       1
100
AcDbLine
 10
108887.18879158
 20
115699.18809038
 30
0.0
 11
108887.18879158
 21
117166.38793936
 31
0.0
  0
LINE
  5
3E7
100
AcDbEntity
  8
D-STR
  6
CONTINUOUS
 62
       1
100
AcDbLine
 10
99832.46972364
 20
115699.18809038
 30
0.0
 11
99832.46972364
 21
117166.38793936
 31
0.0
  0
LINE
  5
3E8
100
AcDbEntity
  8
D-STR
  6
CONTINUOUS
 62
       1
100
AcDbLine
 10
99832.46972364
 20
117166.38793936
 30
0.0
 11
103427.10935362
 21
117166.38793936
 31
0.0
  0
LINE
  5
3E9
100
AcDbEntity
  8
D-STR
  6
CONTINUOUS
 62
       1
100
AcDbLine
 10
99832.46972364
 20
124670.06716696
 30
0.0
 11
103427.10935362
 21
124670.06716696
 31
0.0
  0
LINE
  5
3EA
100
AcDbEntity
  8
D-STR
  6
CONTINUOUS
 62
       1
100
AcDbLine
 10
104831.42920907
 20
117627.50789189
 30
0.0
 11
104831.42920907
 21
124208.94721442
 31
0.0
  0
LINE
  5
3EB
100
AcDbEntity
  8
D-STR
  6
CONTINUOUS
 62
       1
100
AcDbLine
 10
103888.22930616
 20
117627.50789189
 30
0.0
 11
103888.22930616
 21
124208.94721442
 31
0.0
  0
LINE
  5
3EC
100
AcDbEntity
  8
D-STR
  6
CONTINUOUS
 62
       1
100
AcDbLine
 10
108887.18879158
 20
124670.06716696
 30
0.0
 11
108887.18879158
 21
126137.26701593
 31
0.0
  0
LINE
  5
3ED
100
AcDbEntity
  8
D-STR
  6
CONTINUOUS
 62
       1
100
AcDbLine
 10
99832.46972364
 20
124670.06716696
 30
0.0
 11
99832.46972364
 21
126137.26701593
 31
0.0
  0
LINE
  5
3EE
100
AcDbEntity
  8
D-STR
  6
CONTINUOUS
 62
       1
100
AcDbLine
 10
105292.5491616
 20
124670.06716696
 30
0.0
 11
108887.18879158
 21
124670.06716696
 31
0.0
  0
LINE
  5
3EF
100
AcDbEntity
  8
D-STR
  6
CONTINUOUS
 62
       1
100
AcDbLine
 10
105292.5491616
 20
117166.38793936
 30
0.0
 11
108887.18879158
 21
117166.38793936
 31
0.0
  0
ARC
  5
3F0
100
AcDbEntity
  8
D-STR
  6
CONTINUOUS
 62
       1
100
AcDbCircle
 10
103427.10935362
 20
124208.94721442
 30
0.0
 40
461.11995253
100
AcDbArc
 50
0.0
 51
90.0
  0
ARC
  5
3F1
100
AcDbEntity
  8
D-STR
  6
CONTINUOUS
 62
       1
100
AcDbCircle
 10
105292.5491616
 20
124208.94721442
 30
0.0
 40
461.11995253
100
AcDbArc
 50
90.0
 51
180.0
  0
ARC
  5
3F2
100
AcDbEntity
  8
D-STR
  6
CONTINUOUS
 62
       1
100
AcDbCircle
 10
103427.10935362
 20
117627.50789189
 30
0.0
 40
461.11995253
100
AcDbArc
 50
270.0
 51
360.0
  0
ARC
  5
3F3
100
AcDbEntity
  8
D-STR
  6
CONTINUOUS
 62
       1
100
AcDbCircle
 10
105292.5491616
 20
117627.50789189
 30
0.0
 40
461.11995253
100
AcDbArc
 50
180.0
 51
270.0
  0
ENDBLK
  5
3F4
100
AcDbEntity
  8
0
100
AcDbBlockEnd
  0
BLOCK
  5
3F5
100
AcDbEntity
  8
0
100
AcDbBlockBegin
  2
GROUP_51
 70
       0
 10
0.0
 20
0.0
 30
0.0
  3
GROUP_51
  1

  0
LINE
  5
3F6
100
AcDbEntity
  8
D-STR
  6
CONTINUOUS
 62
       1
100
AcDbLine
 10
84269.67132561
 20
125718.06705908
 30
0.0
 11
93009.99042592
 21
125718.06705908
 31
0.0
  0
LINE
  5
3F7
100
AcDbEntity
  8
D-STR
  6
CONTINUOUS
 62
       1
100
AcDbLine
 10
84269.67132561
 20
116118.38804723
 30
0.0
 11
93009.99042592
 21
116118.38804723
 31
0.0
  0
LINE
  5
3F8
100
AcDbEntity
  8
D-STR
  6
CONTINUOUS
 62
       1
100
AcDbLine
 10
93009.99042592
 20
116118.38804723
 30
0.0
 11
93009.99042592
 21
117166.38793936
 31
0.0
  0
LINE
  5
3F9
100
AcDbEntity
  8
D-STR
  6
CONTINUOUS
 62
       1
100
AcDbLine
 10
84269.67132561
 20
116118.38804723
 30
0.0
 11
84269.67132561
 21
117166.38793936
 31
0.0
  0
LINE
  5
3FA
100
AcDbEntity
  8
D-STR
  6
CONTINUOUS
 62
       1
100
AcDbLine
 10
84269.67132561
 20
117166.38793936
 30
0.0
 11
87864.3109556
 21
117166.38793936
 31
0.0
  0
LINE
  5
3FB
100
AcDbEntity
  8
D-STR
  6
CONTINUOUS
 62
       1
100
AcDbLine
 10
84269.67132561
 20
124670.06716696
 30
0.0
 11
87864.3109556
 21
124670.06716696
 31
0.0
  0
LINE
  5
3FC
100
AcDbEntity
  8
D-STR
  6
CONTINUOUS
 62
       1
100
AcDbLine
 10
88954.2308434
 20
117627.50789189
 30
0.0
 11
88954.2308434
 21
124208.94721442
 31
0.0
  0
LINE
  5
3FD
100
AcDbEntity
  8
D-STR
  6
CONTINUOUS
 62
       1
100
AcDbLine
 10
88325.43090813
 20
117627.50789189
 30
0.0
 11
88325.43090813
 21
124208.94721442
 31
0.0
  0
LINE
  5
3FE
100
AcDbEntity
  8
D-STR
  6
CONTINUOUS
 62
       1
100
AcDbLine
 10
93009.99042592
 20
124670.06716696
 30
0.0
 11
93009.99042592
 21
125718.06705908
 31
0.0
  0
LINE
  5
3FF
100
AcDbEntity
  8
D-STR
  6
CONTINUOUS
 62
       1
100
AcDbLine
 10
84269.67132561
 20
124670.06716696
 30
0.0
 11
84269.67132561
 21
125718.06705908
 31
0.0
  0
LINE
  5
400
100
AcDbEntity
  8
D-STR
  6
CONTINUOUS
 62
       1
100
AcDbLine
 10
89415.35079594
 20
124670.06716696
 30
0.0
 11
93009.99042592
 21
124670.06716696
 31
0.0
  0
LINE
  5
401
100
AcDbEntity
  8
D-STR
  6
CONTINUOUS
 62
       1
100
AcDbLine
 10
89415.35079594
 20
117166.38793936
 30
0.0
 11
93009.99042592
 21
117166.38793936
 31
0.0
  0
ARC
  5
402
100
AcDbEntity
  8
D-STR
  6
CONTINUOUS
 62
       1
100
AcDbCircle
 10
87864.3109556
 20
124208.94721442
 30
0.0
 40
461.11995253
100
AcDbArc
 50
0.0
 51
90.0
  0
ARC
  5
403
100
AcDbEntity
  8
D-STR
  6
CONTINUOUS
 62
       1
100
AcDbCircle
 10
89415.35079594
 20
124208.94721442
 30
0.0
 40
461.11995253
100
AcDbArc
 50
90.0
 51
180.0
  0
ARC
  5
404
100
AcDbEntity
  8
D-STR
  6
CONTINUOUS
 62
       1
100
AcDbCircle
 10
87864.3109556
 20
117627.50789189
 30
0.0
 40
461.11995253
100
AcDbArc
 50
270.0
 51
360.0
  0
ARC
  5
405
100
AcDbEntity
  8
D-STR
  6
CONTINUOUS
 62
       1
100
AcDbCircle
 10
89415.35079594
 20
117627.50789189
 30
0.0
 40
461.11995253
100
AcDbArc
 50
180.0
 51
270.0
  0
ENDBLK
  5
406
100
AcDbEntity
  8
0
100
AcDbBlockEnd
  0
BLOCK
  5
407
100
AcDbEntity
  8
0
100
AcDbBlockBegin
  2
GROUP_52
 70
       0
 10
0.0
 20
0.0
 30
0.0
  3
GROUP_52
  1

  0
LINE
  5
408
100
AcDbEntity
  8
D-STR
  6
CONTINUOUS
 62
       1
100
AcDbLine
 10
68654.47293298
 20
125403.66709144
 30
0.0
 11
77185.19205486
 21
125403.66709144
 31
0.0
  0
LINE
  5
409
100
AcDbEntity
  8
D-STR
  6
CONTINUOUS
 62
       1
100
AcDbLine
 10
68654.47293298
 20
116432.78801487
 30
0.0
 11
77185.19205486
 21
116432.78801487
 31
0.0
  0
LINE
  5
40A
100
AcDbEntity
  8
D-STR
  6
CONTINUOUS
 62
       1
100
AcDbLine
 10
77185.19205486
 20
116432.78801487
 30
0.0
 11
77185.19205486
 21
117166.38793936
 31
0.0
  0
LINE
  5
40B
100
AcDbEntity
  8
D-STR
  6
CONTINUOUS
 62
       1
100
AcDbLine
 10
68654.47293298
 20
116432.78801487
 30
0.0
 11
68654.47293298
 21
117166.38793936
 31
0.0
  0
LINE
  5
40C
100
AcDbEntity
  8
D-STR
  6
CONTINUOUS
 62
       1
100
AcDbLine
 10
68654.47293298
 20
124670.06716696
 30
0.0
 11
72249.11256296
 21
124670.06716696
 31
0.0
  0
LINE
  5
40D
100
AcDbEntity
  8
D-STR
  6
CONTINUOUS
 62
       1
100
AcDbLine
 10
68654.47293298
 20
117166.38793936
 30
0.0
 11
72249.11256296
 21
117166.38793936
 31
0.0
  0
LINE
  5
40E
100
AcDbEntity
  8
D-STR
  6
CONTINUOUS
 62
       1
100
AcDbLine
 10
73129.43247235
 20
117627.50789189
 30
0.0
 11
73129.43247235
 21
124208.94721442
 31
0.0
  0
LINE
  5
40F
100
AcDbEntity
  8
D-STR
  6
CONTINUOUS
 62
       1
100
AcDbLine
 10
72710.2325155
 20
117627.50789189
 30
0.0
 11
72710.2325155
 21
124208.94721442
 31
0.0
  0
LINE
  5
410
100
AcDbEntity
  8
D-STR
  6
CONTINUOUS
 62
       1
100
AcDbLine
 10
77185.19205486
 20
124670.06716696
 30
0.0
 11
77185.19205486
 21
125403.66709144
 31
0.0
  0
LINE
  5
411
100
AcDbEntity
  8
D-STR
  6
CONTINUOUS
 62
       1
100
AcDbLine
 10
68654.47293298
 20
124670.06716696
 30
0.0
 11
68654.47293298
 21
125403.66709144
 31
0.0
  0
LINE
  5
412
100
AcDbEntity
  8
D-STR
  6
CONTINUOUS
 62
       1
100
AcDbLine
 10
73590.55242488
 20
124670.06716696
 30
0.0
 11
77185.19205486
 21
124670.06716696
 31
0.0
  0
LINE
  5
413
100
AcDbEntity
  8
D-STR
  6
CONTINUOUS
 62
       1
100
AcDbLine
 10
73590.55242488
 20
117166.38793936
 30
0.0
 11
77185.19205486
 21
117166.38793936
 31
0.0
  0
ARC
  5
414
100
AcDbEntity
  8
D-STR
  6
CONTINUOUS
 62
       1
100
AcDbCircle
 10
72249.11256296
 20
124208.94721442
 30
0.0
 40
461.11995253
100
AcDbArc
 50
0.0
 51
90.0
  0
ARC
  5
415
100
AcDbEntity
  8
D-STR
  6
CONTINUOUS
 62
       1
100
AcDbCircle
 10
73590.55242488
 20
124208.94721442
 30
0.0
 40
461.11995253
100
AcDbArc
 50
90.0
 51
180.0
  0
ARC
  5
416
100
AcDbEntity
  8
D-STR
  6
CONTINUOUS
 62
       1
100
AcDbCircle
 10
72249.11256296
 20
117627.50789189
 30
0.0
 40
461.11995253
100
AcDbArc
 50
270.0
 51
360.0
  0
ARC
  5
417
100
AcDbEntity
  8
D-STR
  6
CONTINUOUS
 62
       1
100
AcDbCircle
 10
73590.55242488
 20
117627.50789189
 30
0.0
 40
461.11995253
100
AcDbArc
 50
180.0
 51
270.0
  0
ENDBLK
  5
418
100
AcDbEntity
  8
0
100
AcDbBlockEnd
  0
BLOCK
  5
419
100
AcDbEntity
  8
0
100
AcDbBlockBegin
  2
GROUP_53
 70
       0
 10
0.0
 20
0.0
 30
0.0
  3
GROUP_53
  1

  0
LINE
  5
41A
100
AcDbEntity
  8
D-STR
  6
CONTINUOUS
 62
       1
100
AcDbLine
 10
52955.43454898
 20
116579.50799977
 30
0.0
 11
61444.23367517
 21
116579.50799977
 31
0.0
  0
LINE
  5
41B
100
AcDbEntity
  8
D-STR
  6
CONTINUOUS
 62
       1
100
AcDbLine
 10
52955.43454898
 20
125256.94710655
 30
0.0
 11
61444.23367517
 21
125256.94710655
 31
0.0
  0
LINE
  5
41C
100
AcDbEntity
  8
D-STR
  6
CONTINUOUS
 62
       1
100
AcDbLine
 10
61444.23367517
 20
116579.50799977
 30
0.0
 11
61444.23367517
 21
117166.38793936
 31
0.0
  0
LINE
  5
41D
100
AcDbEntity
  8
D-STR
  6
CONTINUOUS
 62
       1
100
AcDbLine
 10
52955.43454898
 20
116579.50799977
 30
0.0
 11
52955.43454898
 21
117166.38793936
 31
0.0
  0
LINE
  5
41E
100
AcDbEntity
  8
D-STR
  6
CONTINUOUS
 62
       1
100
AcDbLine
 10
52955.43454898
 20
117166.38793936
 30
0.0
 11
56550.07417896
 21
117166.38793936
 31
0.0
  0
LINE
  5
41F
100
AcDbEntity
  8
D-STR
  6
CONTINUOUS
 62
       1
100
AcDbLine
 10
52955.43454898
 20
124670.06716696
 30
0.0
 11
56550.07417896
 21
124670.06716696
 31
0.0
  0
LINE
  5
420
100
AcDbEntity
  8
D-STR
  6
CONTINUOUS
 62
       1
100
AcDbLine
 10
57388.47409266
 20
117627.50789189
 30
0.0
 11
57388.47409266
 21
124208.94721442
 31
0.0
  0
LINE
  5
421
100
AcDbEntity
  8
D-STR
  6
CONTINUOUS
 62
       1
100
AcDbLine
 10
57011.19413149
 20
117627.50789189
 30
0.0
 11
57011.19413149
 21
124208.94721442
 31
0.0
  0
LINE
  5
422
100
AcDbEntity
  8
D-STR
  6
CONTINUOUS
 62
       1
100
AcDbLine
 10
61444.23367517
 20
124670.06716696
 30
0.0
 11
61444.23367517
 21
125256.94710655
 31
0.0
  0
LINE
  5
423
100
AcDbEntity
  8
D-STR
  6
CONTINUOUS
 62
       1
100
AcDbLine
 10
52955.43454898
 20
124670.06716696
 30
0.0
 11
52955.43454898
 21
125256.94710655
 31
0.0
  0
LINE
  5
424
100
AcDbEntity
  8
D-STR
  6
CONTINUOUS
 62
       1
100
AcDbLine
 10
57849.59404519
 20
124670.06716696
 30
0.0
 11
61444.23367517
 21
124670.06716696
 31
0.0
  0
LINE
  5
425
100
AcDbEntity
  8
D-STR
  6
CONTINUOUS
 62
       1
100
AcDbLine
 10
57849.59404519
 20
117166.38793936
 30
0.0
 11
61444.23367517
 21
117166.38793936
 31
0.0
  0
ARC
  5
426
100
AcDbEntity
  8
D-STR
  6
CONTINUOUS
 62
       1
100
AcDbCircle
 10
56550.07417896
 20
124208.94721442
 30
0.0
 40
461.11995253
100
AcDbArc
 50
0.0
 51
90.0
  0
ARC
  5
427
100
AcDbEntity
  8
D-STR
  6
CONTINUOUS
 62
       1
100
AcDbCircle
 10
57849.59404519
 20
124208.94721442
 30
0.0
 40
461.11995253
100
AcDbArc
 50
90.0
 51
180.0
  0
ARC
  5
428
100
AcDbEntity
  8
D-STR
  6
CONTINUOUS
 62
       1
100
AcDbCircle
 10
56550.07417896
 20
117627.50789189
 30
0.0
 40
461.11995253
100
AcDbArc
 50
270.0
 51
360.0
  0
ARC
  5
429
100
AcDbEntity
  8
D-STR
  6
CONTINUOUS
 62
       1
100
AcDbCircle
 10
57849.59404519
 20
117627.50789189
 30
0.0
 40
461.11995253
100
AcDbArc
 50
180.0
 51
270.0
  0
ENDBLK
  5
42A
100
AcDbEntity
  8
0
100
AcDbBlockEnd
  0
BLOCK
  5
42B
100
AcDbEntity
  8
0
100
AcDbBlockBegin
  2
GROUP_54
 70
       0
 10
0.0
 20
0.0
 30
0.0
  3
GROUP_54
  1

  0
LINE
  5
42C
100
AcDbEntity
  8
D-STR
  6
CONTINUOUS
 62
       1
100
AcDbLine
 10
44655.27540336
 20
12722.71869037
 30
0.0
 11
38304.3960571
 21
12722.71869037
 31
0.0
  0
LINE
  5
42D
100
AcDbEntity
  8
D-STR
  6
CONTINUOUS
 62
       1
100
AcDbLine
 10
44655.27540336
 20
-6518.55932901
 30
0.0
 11
38304.3960571
 21
-6518.55932901
 31
0.0
  0
LINE
  5
42E
100
AcDbEntity
  8
D-STR
  6
CONTINUOUS
 62
       1
100
AcDbLine
 10
41678.95570973
 20
11569.91880904
 30
0.0
 11
41678.95570973
 21
-5365.75944767
 31
0.0
  0
LINE
  5
42F
100
AcDbEntity
  8
D-STR
  6
CONTINUOUS
 62
       1
100
AcDbLine
 10
41280.71575073
 20
-5365.75944767
 30
0.0
 11
41280.71575073
 21
11569.91880904
 31
0.0
  0
LINE
  5
430
100
AcDbEntity
  8
D-STR
  6
CONTINUOUS
 62
       1
100
AcDbLine
 10
42056.2356709
 20
11947.1987702
 30
0.0
 11
44655.27540336
 21
11947.1987702
 31
0.0
  0
LINE
  5
431
100
AcDbEntity
  8
D-STR
  6
CONTINUOUS
 62
       1
100
AcDbLine
 10
38304.3960571
 20
11947.1987702
 30
0.0
 11
40903.43578956
 21
11947.1987702
 31
0.0
  0
LINE
  5
432
100
AcDbEntity
  8
D-STR
  6
CONTINUOUS
 62
       1
100
AcDbLine
 10
38304.3960571
 20
12722.71869037
 30
0.0
 11
38304.3960571
 21
11947.1987702
 31
0.0
  0
LINE
  5
433
100
AcDbEntity
  8
D-STR
  6
CONTINUOUS
 62
       1
100
AcDbLine
 10
38304.3960571
 20
-5743.03940883
 30
0.0
 11
38304.3960571
 21
-6518.55932901
 31
0.0
  0
LINE
  5
434
100
AcDbEntity
  8
D-STR
  6
CONTINUOUS
 62
       1
100
AcDbLine
 10
44655.27540336
 20
12722.71869037
 30
0.0
 11
44655.27540336
 21
11947.1987702
 31
0.0
  0
LINE
  5
435
100
AcDbEntity
  8
D-STR
  6
CONTINUOUS
 62
       1
100
AcDbLine
 10
44655.27540336
 20
-5743.03940883
 30
0.0
 11
44655.27540336
 21
-6518.55932901
 31
0.0
  0
LINE
  5
436
100
AcDbEntity
  8
D-STR
  6
CONTINUOUS
 62
       1
100
AcDbLine
 10
42056.2356709
 20
-5743.03940883
 30
0.0
 11
44655.27540336
 21
-5743.03940883
 31
0.0
  0
LINE
  5
437
100
AcDbEntity
  8
D-STR
  6
CONTINUOUS
 62
       1
100
AcDbLine
 10
38304.3960571
 20
-5743.03940883
 30
0.0
 11
40903.43578956
 21
-5743.03940883
 31
0.0
  0
ARC
  5
438
100
AcDbEntity
  8
D-STR
  6
CONTINUOUS
 62
       1
100
AcDbCircle
 10
40903.43578956
 20
11569.91880904
 30
0.0
 40
377.27996116
100
AcDbArc
 50
0.0
 51
90.0
  0
ARC
  5
439
100
AcDbEntity
  8
D-STR
  6
CONTINUOUS
 62
       1
100
AcDbCircle
 10
42056.2356709
 20
11569.91880904
 30
0.0
 40
377.27996116
100
AcDbArc
 50
90.0
 51
180.0
  0
ARC
  5
43A
100
AcDbEntity
  8
D-STR
  6
CONTINUOUS
 62
       1
100
AcDbCircle
 10
42056.2356709
 20
-5365.75944767
 30
0.0
 40
377.27996116
100
AcDbArc
 50
180.0
 51
270.0
  0
ARC
  5
43B
100
AcDbEntity
  8
D-STR
  6
CONTINUOUS
 62
       1
100
AcDbCircle
 10
40903.43578956
 20
-5365.75944767
 30
0.0
 40
377.27996116
100
AcDbArc
 50
270.0
 51
360.0
  0
ENDBLK
  5
43C
100
AcDbEntity
  8
0
100
AcDbBlockEnd
  0
ENDSEC
  0
SECTION
  2
ENTITIES
  0
TEXT
  5
43D
100
AcDbEntity
  8
D-STR-TXT
 62
       7
100
AcDbText
 10
8467.83912835
 20
179731.9814991
 30
0.0
 40
523.99994606
  1
H100x100x6x8
 72
       5
 11
11611.83880472
 21
179731.9814991
 31
0.0
100
AcDbText
  0
TEXT
  5
43E
100
AcDbEntity
  8
D-STR-TXT
 62
       7
100
AcDbText
 10
8205.83915532
 20
176325.9818497
 30
0.0
 40
523.99994606
  1
H125x125x6.5x9
 72
       5
 11
11873.83877775
 21
176325.9818497
 31
0.0
100
AcDbText
  0
TEXT
  5
43F
100
AcDbEntity
  8
D-STR-TXT
 62
       7
100
AcDbText
 10
24056.83752368
 20
172133.98228121
 30
0.0
 40
523.99994606
  1
H150x150x7x10
 72
       5
 11
27462.83717308
 21
172133.98228121
 31
0.0
100
AcDbText
  0
TEXT
  5
440
100
AcDbEntity
  8
D-STR-TXT
 62
       7
100
AcDbText
 10
8074.83916881
 20
167155.98279363
 30
0.0
 40
523.99994606
  1
H175x175x7.5x11
 72
       5
 11
12004.83876427
 21
167155.98279363
 31
0.0
100
AcDbText
  0
TEXT
  5
441
100
AcDbEntity
  8
D-STR-TXT
 62
       7
100
AcDbText
 10
39776.83590553
 20
161433.90338263
 30
0.0
 40
523.99994606
  1
H200x200x8x12
 72
       5
 11
43182.83555493
 21
161433.90338263
 31
0.0
100
AcDbText
  0
TEXT
  5
442
100
AcDbEntity
  8
D-STR-TXT
 62
       7
100
AcDbText
 10
39776.83590553
 20
154684.78407736
 30
0.0
 40
523.99994606
  1
H250x250x9x14
 72
       5
 11
43182.83555493
 21
154684.78407736
 31
0.0
100
AcDbText
  0
TEXT
  5
443
100
AcDbEntity
  8
D-STR-TXT
 62
       7
100
AcDbText
 10
39645.83591901
 20
146363.6649339
 30
0.0
 40
523.99994606
  1
H300x300x10x15
 72
       5
 11
43313.83554145
 21
146363.6649339
 31
0.0
100
AcDbText
  0
TEXT
  5
444
100
AcDbEntity
  8
D-STR-TXT
 62
       7
100
AcDbText
 10
55365.83430086
 20
136512.46594795
 30
0.0
 40
523.99994606
  1
H350x350x12x19
 72
       5
 11
59033.83392329
 21
136512.46594795
 31
0.0
100
AcDbText
  0
TEXT
  5
445
100
AcDbEntity
  8
D-STR-TXT
 62
       7
100
AcDbText
 10
39645.83591901
 20
125110.22712165
 30
0.0
 40
523.99994606
  1
H400x400x13x21
 72
       5
 11
43313.83554145
 21
125110.22712165
 31
0.0
100
AcDbText
  0
TEXT
  5
446
100
AcDbEntity
  8
D-STR-TXT
 62
       7
100
AcDbText
 10
39645.83591901
 20
136449.58595442
 30
0.0
 40
523.99994606
  1
H344x348x10x16
 72
       5
 11
43313.83554145
 21
136449.58595442
 31
0.0
100
AcDbText
  0
TEXT
  5
447
100
AcDbEntity
  8
D-STR-TXT
 62
       7
100
AcDbText
 10
55365.83430086
 20
125256.94710655
 30
0.0
 40
523.99994606
  1
H414x405x18x28
 72
       5
 11
59033.83392329
 21
125256.94710655
 31
0.0
100
AcDbText
  0
TEXT
  5
448
100
AcDbEntity
  8
D-STR-TXT
 62
       7
100
AcDbText
 10
71085.83268271
 20
125403.66709144
 30
0.0
 40
523.99994606
  1
H428x407x20x35
 72
       5
 11
74753.83230514
 21
125403.66709144
 31
0.0
100
AcDbText
  0
TEXT
  5
449
100
AcDbEntity
  8
D-STR-TXT
 62
       7
100
AcDbText
 10
86805.83106455
 20
125718.06705908
 30
0.0
 40
523.99994606
  1
H458x417x30x50
 72
       5
 11
90473.83068698
 21
125718.06705908
 31
0.0
100
AcDbText
  0
TEXT
  5
44A
100
AcDbEntity
  8
D-STR-TXT
 62
       7
100
AcDbText
 10
102525.8294464
 20
126137.26701593
 30
0.0
 40
523.99994606
  1
H498x432x45x70
 72
       5
 11
106193.82906883
 21
126137.26701593
 31
0.0
100
AcDbText
  0
TEXT
  5
44B
100
AcDbEntity
  8
D-STR-TXT
 62
       7
100
AcDbText
 10
23925.83753717
 20
124900.62714322
 30
0.0
 40
523.99994606
  1
H390x300x10x16
 72
       5
 11
27593.8371596
 21
124900.62714322
 31
0.0
100
AcDbText
  0
TEXT
  5
44C
100
AcDbEntity
  8
D-STR-TXT
 62
       7
100
AcDbText
 10
24187.8375102
 20
161371.02338911
 30
0.0
 40
523.99994606
  1
H194x150x6x9
 72
       5
 11
27331.83718657
 21
161371.02338911
 31
0.0
100
AcDbText
  0
TEXT
  5
44D
100
AcDbEntity
  8
D-STR-TXT
 62
       7
100
AcDbText
 10
8467.83912835
 20
172113.02228337
 30
0.0
 40
523.99994606
  1
H148x100x6x9
 72
       5
 11
11611.83880472
 21
172113.02228337
 31
0.0
100
AcDbText
  0
TEXT
  5
44E
100
AcDbEntity
  8
D-STR-TXT
 62
       7
100
AcDbText
 10
24056.83752368
 20
146300.78494038
 30
0.0
 40
523.99994606
  1
H294x200x8x12
 72
       5
 11
27462.83717308
 21
146300.78494038
 31
0.0
100
AcDbText
  0
TEXT
  5
44F
100
AcDbEntity
  8
D-STR-TXT
 62
       7
100
AcDbText
 10
24056.83752368
 20
154726.70407305
 30
0.0
 40
523.99994606
  1
H244x175x7x11
 72
       5
 11
27462.83717308
 21
154726.70407305
 31
0.0
100
AcDbText
  0
TEXT
  5
450
100
AcDbEntity
  8
D-STR-TXT
 62
       7
100
AcDbText
 10
24056.83752368
 20
136407.66595873
 30
0.0
 40
523.99994606
  1
H340x250x9x14
 72
       5
 11
27462.83717308
 21
136407.66595873
 31
0.0
100
AcDbText
  0
TEXT
  5
451
100
AcDbEntity
  8
D-STR-TXT
 62
       7
100
AcDbText
 10
8205.83915532
 20
61245.11369567
 30
0.0
 40
523.99994606
  1
H700x300x13x24
 72
       5
 11
11873.83877775
 21
61245.11369567
 31
0.0
100
AcDbText
  0
TEXT
  5
452
100
AcDbEntity
  8
D-STR-TXT
 62
       7
100
AcDbText
 10
55365.83430086
 20
80884.63167406
 30
0.0
 40
523.99994606
  1
H594x302x14x23
 72
       5
 11
59033.83392329
 21
80884.63167406
 31
0.0
100
AcDbText
  0
TEXT
  5
453
100
AcDbEntity
  8
D-STR-TXT
 62
       7
100
AcDbText
 10
39645.83591901
 20
97463.98996744
 30
0.0
 40
523.99994606
  1
H488x300x11x18
 72
       5
 11
43313.83554145
 21
97463.98996744
 31
0.0
100
AcDbText
  0
TEXT
  5
454
100
AcDbEntity
  8
D-STR-TXT
 62
       7
100
AcDbText
 10
39645.83591901
 20
80821.75168053
 30
0.0
 40
523.99994606
  1
H588x300x12x20
 72
       5
 11
43313.83554145
 21
80821.75168053
 31
0.0
100
AcDbText
  0
TEXT
  5
455
100
AcDbEntity
  8
D-STR-TXT
 62
       7
100
AcDbText
 10
23925.83753717
 20
12659.83869685
 30
0.0
 40
523.99994606
  1
H912x302x18x34
 72
       5
 11
27593.8371596
 21
12659.83869685
 31
0.0
100
AcDbText
  0
TEXT
  5
456
100
AcDbEntity
  8
D-STR-TXT
 62
       7
100
AcDbText
 10
8205.83915532
 20
12534.07870979
 30
0.0
 40
523.99994606
  1
H900x300x16x28
 72
       5
 11
11873.83877775
 21
12534.07870979
 31
0.0
100
AcDbText
  0
TEXT
  5
457
100
AcDbEntity
  8
D-STR-TXT
 62
       7
100
AcDbText
 10
8205.83915532
 20
38440.63604307
 30
0.0
 40
523.99994606
  1
H800x300x14x26
 72
       5
 11
11873.83877775
 21
38440.63604307
 31
0.0
100
AcDbText
  0
TEXT
  5
458
100
AcDbEntity
  8
D-STR-TXT
 62
       7
100
AcDbText
 10
-7514.15922652
 20
61161.2737043
 30
0.0
 40
523.99994606
  1
H692x300x13x20
 72
       5
 11
-3846.15960409
 21
61161.2737043
 31
0.0
100
AcDbText
  0
TEXT
  5
459
100
AcDbEntity
  8
D-STR-TXT
 62
       7
100
AcDbText
 10
23925.83753717
 20
97401.10997392
 30
0.0
 40
523.99994606
  1
H482x300x11x15
 72
       5
 11
27593.8371596
 21
97401.10997392
 31
0.0
100
AcDbText
  0
TEXT
  5
45A
100
AcDbEntity
  8
D-STR-TXT
 62
       7
100
AcDbText
 10
23925.83753717
 20
112031.18846795
 30
0.0
 40
523.99994606
  1
H440x300x11x18
 72
       5
 11
27593.8371596
 21
112031.18846795
 31
0.0
100
AcDbText
  0
TEXT
  5
45B
100
AcDbEntity
  8
D-STR-TXT
 62
       7
100
AcDbText
 10
23925.83753717
 20
80758.871687
 30
0.0
 40
523.99994606
  1
H582x300x12x17
 72
       5
 11
27593.8371596
 21
80758.871687
 31
0.0
100
AcDbText
  0
TEXT
  5
45C
100
AcDbEntity
  8
D-STR-TXT
 62
       7
100
AcDbText
 10
-7514.15922652
 20
12429.27872058
 30
0.0
 40
523.99994606
  1
H890x299x15x23
 72
       5
 11
-3846.15960409
 21
12429.27872058
 31
0.0
100
AcDbText
  0
TEXT
  5
45D
100
AcDbEntity
  8
D-STR-TXT
 62
       7
100
AcDbText
 10
-7514.15922652
 20
38356.7960517
 30
0.0
 40
523.99994606
  1
H792x300x14x22
 72
       5
 11
-3846.15960409
 21
38356.7960517
 31
0.0
100
AcDbText
  0
TEXT
  5
45E
100
AcDbEntity
  8
D-STR-TXT
 62
       7
100
AcDbText
 10
8467.83912835
 20
154684.78407736
 30
0.0
 40
523.99994606
  1
H250x125x6x9
 72
       5
 11
11611.83880472
 21
154684.78407736
 31
0.0
100
AcDbText
  0
TEXT
  5
45F
100
AcDbEntity
  8
D-STR-TXT
 62
       7
100
AcDbText
 10
-7252.15925349
 20
154663.82407952
 30
0.0
 40
523.99994606
  1
H248x124x5x8
 72
       5
 11
-4108.15957712
 21
154663.82407952
 31
0.0
100
AcDbText
  0
TEXT
  5
460
100
AcDbEntity
  8
D-STR-TXT
 62
       7
100
AcDbText
 10
-7121.15926698
 20
176325.9818497
 30
0.0
 40
523.99994606
  1
H125x60x6x8
 72
       5
 11
-4239.15956364
 21
176325.9818497
 31
0.0
100
AcDbText
  0
TEXT
  5
461
100
AcDbEntity
  8
D-STR-TXT
 62
       7
100
AcDbText
 10
-7121.15926698
 20
179731.9814991
 30
0.0
 40
523.99994606
  1
H100x50x5x7
 72
       5
 11
-4239.15956364
 21
179731.9814991
 31
0.0
100
AcDbText
  0
TEXT
  5
462
100
AcDbEntity
  8
D-STR-TXT
 62
       7
100
AcDbText
 10
-7121.15926698
 20
167155.98279363
 30
0.0
 40
523.99994606
  1
H175x90x5x8
 72
       5
 11
-4239.15956364
 21
167155.98279363
 31
0.0
100
AcDbText
  0
TEXT
  5
463
100
AcDbEntity
  8
D-STR-TXT
 62
       7
100
AcDbText
 10
-7121.15926698
 20
172133.98228121
 30
0.0
 40
523.99994606
  1
H150x75x5x7
 72
       5
 11
-4239.15956364
 21
172133.98228121
 31
0.0
100
AcDbText
  0
TEXT
  5
464
100
AcDbEntity
  8
D-STR-TXT
 62
       7
100
AcDbText
 10
8205.83915532
 20
161433.90338263
 30
0.0
 40
523.99994606
  1
H200x100x5.5x8
 72
       5
 11
11873.83877775
 21
161433.90338263
 31
0.0
100
AcDbText
  0
TEXT
  5
465
100
AcDbEntity
  8
D-STR-TXT
 62
       7
100
AcDbText
 10
-7383.15924001
 20
161412.94338479
 30
0.0
 40
523.99994606
  1
H198x99x4.5x7
 72
       5
 11
-3977.15959061
 21
161412.94338479
 31
0.0
100
AcDbText
  0
TEXT
  5
466
100
AcDbEntity
  8
D-STR-TXT
 62
       7
100
AcDbText
 10
8336.83914184
 20
112135.98845717
 30
0.0
 40
523.99994606
  1
H450x200x9x14
 72
       5
 11
11742.83879124
 21
112135.98845717
 31
0.0
100
AcDbText
  0
TEXT
  5
467
100
AcDbEntity
  8
D-STR-TXT
 62
       7
100
AcDbText
 10
-7383.15924001
 20
112094.06846148
 30
0.0
 40
523.99994606
  1
H446x199x8x12
 72
       5
 11
-3977.15959061
 21
112094.06846148
 31
0.0
100
AcDbText
  0
TEXT
  5
468
100
AcDbEntity
  8
D-STR-TXT
 62
       7
100
AcDbText
 10
8336.83914184
 20
136512.46594795
 30
0.0
 40
523.99994606
  1
H350x175x7x11
 72
       5
 11
11742.83879124
 21
136512.46594795
 31
0.0
100
AcDbText
  0
TEXT
  5
469
100
AcDbEntity
  8
D-STR-TXT
 62
       7
100
AcDbText
 10
-7252.15925349
 20
136470.54595226
 30
0.0
 40
523.99994606
  1
H346x174x6x9
 72
       5
 11
-4108.15957712
 21
136470.54595226
 31
0.0
100
AcDbText
  0
TEXT
  5
46A
100
AcDbEntity
  8
D-STR-TXT
 62
       7
100
AcDbText
 10
8205.83915532
 20
146363.6649339
 30
0.0
 40
523.99994606
  1
H300x150x6.5x9
 72
       5
 11
11873.83877775
 21
146363.6649339
 31
0.0
100
AcDbText
  0
TEXT
  5
46B
100
AcDbEntity
  8
D-STR-TXT
 62
       7
100
AcDbText
 10
-7514.15922652
 20
146342.70493606
 30
0.0
 40
523.99994606
  1
H298x149x5.5x8
 72
       5
 11
-3846.15960409
 21
146342.70493606
 31
0.0
100
AcDbText
  0
TEXT
  5
46C
100
AcDbEntity
  8
D-STR-TXT
 62
       7
100
AcDbText
 10
8336.83914184
 20
125110.22712165
 30
0.0
 40
523.99994606
  1
H400x200x8x13
 72
       5
 11
11742.83879124
 21
125110.22712165
 31
0.0
100
AcDbText
  0
TEXT
  5
46D
100
AcDbEntity
  8
D-STR-TXT
 62
       7
100
AcDbText
 10
-7383.15924001
 20
125068.30712596
 30
0.0
 40
523.99994606
  1
H396x199x7x11
 72
       5
 11
-3977.15959061
 21
125068.30712596
 31
0.0
100
AcDbText
  0
TEXT
  5
46E
100
AcDbEntity
  8
D-STR-TXT
 62
       7
100
AcDbText
 10
8205.83915532
 20
80947.51166758
 30
0.0
 40
523.99994606
  1
H600x200x11x17
 72
       5
 11
11873.83877775
 21
80947.51166758
 31
0.0
100
AcDbText
  0
TEXT
  5
46F
100
AcDbEntity
  8
D-STR-TXT
 62
       7
100
AcDbText
 10
-7514.15922652
 20
80905.5916719
 30
0.0
 40
523.99994606
  1
H596x199x10x15
 72
       5
 11
-3846.15960409
 21
80905.5916719
 31
0.0
100
AcDbText
  0
TEXT
  5
470
100
AcDbEntity
  8
D-STR-TXT
 62
       7
100
AcDbText
 10
8205.83915532
 20
97589.7499545
 30
0.0
 40
523.99994606
  1
H500x200x10x16
 72
       5
 11
11873.83877775
 21
97589.7499545
 31
0.0
100
AcDbText
  0
TEXT
  5
471
100
AcDbEntity
  8
D-STR-TXT
 62
       7
100
AcDbText
 10
-7383.15924001
 20
97547.82995881
 30
0.0
 40
523.99994606
  1
H496x199x9x14
 72
       5
 11
-3977.15959061
 21
97547.82995881
 31
0.0
100
AcDbText
  0
TEXT
  5
472
100
AcDbEntity
  8
D-STR-TXT
 62
       7
100
AcDbText
 10
39645.83591901
 20
12722.71869037
 30
0.0
 40
523.99994606
  1
H918x303x19x37
 72
       5
 11
43313.83554145
 21
12722.71869037
 31
0.0
100
AcDbText
  0
INSERT
  5
473
100
AcDbEntity
  8
0
  6
CONTINUOUS
100
AcDbBlockReference
  2
GROUP_1
 10
0.0
 20
0.0
 30
0.0
  0
INSERT
  5
474
100
AcDbEntity
  8
0
  6
CONTINUOUS
100
AcDbBlockReference
  2
GROUP_2
 10
0.0
 20
0.0
 30
0.0
  0
INSERT
  5
475
100
AcDbEntity
  8
0
  6
CONTINUOUS
100
AcDbBlockReference
  2
GROUP_3
 10
0.0
 20
0.0
 30
0.0
  0
INSERT
  5
476
100
AcDbEntity
  8
0
  6
CONTINUOUS
100
AcDbBlockReference
  2
GROUP_4
 10
0.0
 20
0.0
 30
0.0
  0
INSERT
  5
477
100
AcDbEntity
  8
0
  6
CONTINUOUS
100
AcDbBlockReference
  2
GROUP_5
 10
0.0
 20
0.0
 30
0.0
  0
INSERT
  5
478
100
AcDbEntity
  8
0
  6
CONTINUOUS
100
AcDbBlockReference
  2
GROUP_6
 10
0.0
 20
0.0
 30
0.0
  0
INSERT
  5
479
100
AcDbEntity
  8
0
  6
CONTINUOUS
100
AcDbBlockReference
  2
GROUP_7
 10
0.0
 20
0.0
 30
0.0
  0
INSERT
  5
47A
100
AcDbEntity
  8
0
  6
CONTINUOUS
100
AcDbBlockReference
  2
GROUP_8
 10
0.0
 20
0.0
 30
0.0
  0
INSERT
  5
47B
100
AcDbEntity
  8
0
  6
CONTINUOUS
100
AcDbBlockReference
  2
GROUP_9
 10
0.0
 20
0.0
 30
0.0
  0
INSERT
  5
47C
100
AcDbEntity
  8
0
  6
CONTINUOUS
100
AcDbBlockReference
  2
GROUP_10
 10
0.0
 20
0.0
 30
0.0
  0
INSERT
  5
47D
100
AcDbEntity
  8
0
  6
CONTINUOUS
100
AcDbBlockReference
  2
GROUP_11
 10
0.0
 20
0.0
 30
0.0
  0
INSERT
  5
47E
100
AcDbEntity
  8
0
  6
CONTINUOUS
100
AcDbBlockReference
  2
GROUP_12
 10
0.0
 20
0.0
 30
0.0
  0
INSERT
  5
47F
100
AcDbEntity
  8
0
  6
CONTINUOUS
100
AcDbBlockReference
  2
GROUP_13
 10
0.0
 20
0.0
 30
0.0
  0
INSERT
  5
480
100
AcDbEntity
  8
0
  6
CONTINUOUS
100
AcDbBlockReference
  2
GROUP_14
 10
0.0
 20
0.0
 30
0.0
  0
INSERT
  5
481
100
AcDbEntity
  8
0
  6
CONTINUOUS
100
AcDbBlockReference
  2
GROUP_15
 10
0.0
 20
0.0
 30
0.0
  0
INSERT
  5
482
100
AcDbEntity
  8
0
  6
CONTINUOUS
100
AcDbBlockReference
  2
GROUP_16
 10
0.0
 20
0.0
 30
0.0
  0
INSERT
  5
483
100
AcDbEntity
  8
0
  6
CONTINUOUS
100
AcDbBlockReference
  2
GROUP_17
 10
0.0
 20
0.0
 30
0.0
  0
INSERT
  5
484
100
AcDbEntity
  8
0
  6
CONTINUOUS
100
AcDbBlockReference
  2
GROUP_18
 10
0.0
 20
0.0
 30
0.0
  0
INSERT
  5
485
100
AcDbEntity
  8
0
  6
CONTINUOUS
100
AcDbBlockReference
  2
GROUP_19
 10
0.0
 20
0.0
 30
0.0
  0
INSERT
  5
486
100
AcDbEntity
  8
0
  6
CONTINUOUS
100
AcDbBlockReference
  2
GROUP_20
 10
0.0
 20
0.0
 30
0.0
  0
INSERT
  5
487
100
AcDbEntity
  8
0
  6
CONTINUOUS
100
AcDbBlockReference
  2
GROUP_21
 10
0.0
 20
0.0
 30
0.0
  0
INSERT
  5
488
100
AcDbEntity
  8
0
  6
CONTINUOUS
100
AcDbBlockReference
  2
GROUP_22
 10
0.0
 20
0.0
 30
0.0
  0
INSERT
  5
489
100
AcDbEntity
  8
0
  6
CONTINUOUS
100
AcDbBlockReference
  2
GROUP_23
 10
0.0
 20
0.0
 30
0.0
  0
INSERT
  5
48A
100
AcDbEntity
  8
0
  6
CONTINUOUS
100
AcDbBlockReference
  2
GROUP_24
 10
0.0
 20
0.0
 30
0.0
  0
INSERT
  5
48B
100
AcDbEntity
  8
0
  6
CONTINUOUS
100
AcDbBlockReference
  2
GROUP_25
 10
0.0
 20
0.0
 30
0.0
  0
INSERT
  5
48C
100
AcDbEntity
  8
0
  6
CONTINUOUS
100
AcDbBlockReference
  2
GROUP_26
 10
0.0
 20
0.0
 30
0.0
  0
INSERT
  5
48D
100
AcDbEntity
  8
0
  6
CONTINUOUS
100
AcDbBlockReference
  2
GROUP_27
 10
0.0
 20
0.0
 30
0.0
  0
INSERT
  5
48E
100
AcDbEntity
  8
0
  6
CONTINUOUS
100
AcDbBlockReference
  2
GROUP_28
 10
0.0
 20
0.0
 30
0.0
  0
INSERT
  5
48F
100
AcDbEntity
  8
0
  6
CONTINUOUS
100
AcDbBlockReference
  2
GROUP_29
 10
0.0
 20
0.0
 30
0.0
  0
INSERT
  5
490
100
AcDbEntity
  8
0
  6
CONTINUOUS
100
AcDbBlockReference
  2
GROUP_30
 10
0.0
 20
0.0
 30
0.0
  0
INSERT
  5
491
100
AcDbEntity
  8
0
  6
CONTINUOUS
100
AcDbBlockReference
  2
GROUP_31
 10
0.0
 20
0.0
 30
0.0
  0
INSERT
  5
492
100
AcDbEntity
  8
0
  6
CONTINUOUS
100
AcDbBlockReference
  2
GROUP_32
 10
0.0
 20
0.0
 30
0.0
  0
INSERT
  5
493
100
AcDbEntity
  8
0
  6
CONTINUOUS
100
AcDbBlockReference
  2
GROUP_33
 10
0.0
 20
0.0
 30
0.0
  0
INSERT
  5
494
100
AcDbEntity
  8
0
  6
CONTINUOUS
100
AcDbBlockReference
  2
GROUP_34
 10
0.0
 20
0.0
 30
0.0
  0
INSERT
  5
495
100
AcDbEntity
  8
0
  6
CONTINUOUS
100
AcDbBlockReference
  2
GROUP_35
 10
0.0
 20
0.0
 30
0.0
  0
INSERT
  5
496
100
AcDbEntity
  8
0
  6
CONTINUOUS
100
AcDbBlockReference
  2
GROUP_36
 10
0.0
 20
0.0
 30
0.0
  0
INSERT
  5
497
100
AcDbEntity
  8
0
  6
CONTINUOUS
100
AcDbBlockReference
  2
GROUP_37
 10
0.0
 20
0.0
 30
0.0
  0
INSERT
  5
498
100
AcDbEntity
  8
0
  6
CONTINUOUS
100
AcDbBlockReference
  2
GROUP_38
 10
0.0
 20
0.0
 30
0.0
  0
INSERT
  5
499
100
AcDbEntity
  8
0
  6
CONTINUOUS
100
AcDbBlockReference
  2
GROUP_39
 10
0.0
 20
0.0
 30
0.0
  0
INSERT
  5
49A
100
AcDbEntity
  8
0
  6
CONTINUOUS
100
AcDbBlockReference
  2
GROUP_40
 10
0.0
 20
0.0
 30
0.0
  0
INSERT
  5
49B
100
AcDbEntity
  8
0
  6
CONTINUOUS
100
AcDbBlockReference
  2
GROUP_41
 10
0.0
 20
0.0
 30
0.0
  0
INSERT
  5
49C
100
AcDbEntity
  8
0
  6
CONTINUOUS
100
AcDbBlockReference
  2
GROUP_42
 10
0.0
 20
0.0
 30
0.0
  0
INSERT
  5
49D
100
AcDbEntity
  8
0
  6
CONTINUOUS
100
AcDbBlockReference
  2
GROUP_43
 10
0.0
 20
0.0
 30
0.0
  0
INSERT
  5
49E
100
AcDbEntity
  8
0
  6
CONTINUOUS
100
AcDbBlockReference
  2
GROUP_44
 10
0.0
 20
0.0
 30
0.0
  0
INSERT
  5
49F
100
AcDbEntity
  8
0
  6
CONTINUOUS
100
AcDbBlockReference
  2
GROUP_45
 10
0.0
 20
0.0
 30
0.0
  0
INSERT
  5
4A0
100
AcDbEntity
  8
0
  6
CONTINUOUS
100
AcDbBlockReference
  2
GROUP_46
 10
0.0
 20
0.0
 30
0.0
  0
INSERT
  5
4A1
100
AcDbEntity
  8
0
  6
CONTINUOUS
100
AcDbBlockReference
  2
GROUP_47
 10
0.0
 20
0.0
 30
0.0
  0
INSERT
  5
4A2
100
AcDbEntity
  8
0
  6
CONTINUOUS
100
AcDbBlockReference
  2
GROUP_48
 10
0.0
 20
0.0
 30
0.0
  0
INSERT
  5
4A3
100
AcDbEntity
  8
0
  6
CONTINUOUS
100
AcDbBlockReference
  2
GROUP_49
 10
0.0
 20
0.0
 30
0.0
  0
INSERT
  5
4A4
100
AcDbEntity
  8
0
  6
CONTINUOUS
100
AcDbBlockReference
  2
GROUP_50
 10
0.0
 20
0.0
 30
0.0
  0
INSERT
  5
4A5
100
AcDbEntity
  8
0
  6
CONTINUOUS
100
AcDbBlockReference
  2
GROUP_51
 10
0.0
 20
0.0
 30
0.0
  0
INSERT
  5
4A6
100
AcDbEntity
  8
0
  6
CONTINUOUS
100
AcDbBlockReference
  2
GROUP_52
 10
0.0
 20
0.0
 30
0.0
  0
INSERT
  5
4A7
100
AcDbEntity
  8
0
  6
CONTINUOUS
100
AcDbBlockReference
  2
GROUP_53
 10
0.0
 20
0.0
 30
0.0
  0
INSERT
  5
4A8
100
AcDbEntity
  8
0
  6
CONTINUOUS
100
AcDbBlockReference
  2
GROUP_54
 10
0.0
 20
0.0
 30
0.0
  0
ENDSEC
  0
SECTION
  2
OBJECTS
  0
DICTIONARY
  5
19
100
AcDbDictionary
  3
ACAD_GROUP
350
1A
  3
ACAD_MLINESTYLE
350
1B
  0
DICTIONARY
  5
1A
102
{ACAD_REACTORS
330
19
102
}
100
AcDbDictionary
  0
DICTIONARY
  5
1B
102
{ACAD_REACTORS
330
19
102
}
100
AcDbDictionary
  3
STANDARD
350
1C
  0
MLINESTYLE
  5
1C
102
{ACAD_REACTORS
330
1B
102
}
100
AcDbMlineStyle
  2
STANDARD
 70
       0
  3

 62
       0
 51
90.0
 52
90.0
 71
       2
 49
0.5
 62
     256
  6
BYLAYER
 49
-0.5
 62
     256
  6
BYLAYER
  0
ENDSEC
  0
EOF
