  0
SECTION
  2
HEADER
  9
$ACADVER
  1
AC1014
  9
$ACADMAINTVER
 70
       0
  9
$DWGCODEPAGE
  3
ANSI_932
  9
$INSBASE
 10
0.0
 20
0.0
 30
0.0
  9
$EXTMIN
 10
-445.0
 20
-4483.42
 30
0.0
  9
$EXTMAX
 10
569.0
 20
4508.42
 30
0.0
  9
$LIMMIN
 10
-476.6875
 20
-4764.415
  9
$LIMMAX
 10
600.6875
 20
4789.415
  9
$ORTHOMODE
 70
       0
  9
$REGENMODE
 70
       1
  9
$FILLMODE
 70
       1
  9
$QTEXTMODE
 70
       0
  9
$MIRRTEXT
 70
       1
  9
$DRAGMODE
 70
       2
  9
$LTSCALE
 40
1.0
  9
$OSMODE
 70
       0
  9
$ATTMODE
 70
       1
  9
$TEXTSIZE
 40
0.2
  9
$TRACEWID
 40
0.05
  9
$TEXTSTYLE
  7
STANDARD
  9
$CLAYER
  8
0
  9
$CELTYPE
  6
CONTINUOUS
  9
$CECOLOR
 62
     256
  9
$CELTSCALE
 40
1.0
  9
$DELOBJ
 70
       1
  9
$DISPSILH
 70
       0
  9
$DIMSCALE
 40
1.0
  9
$DIMASZ
 40
0.18
  9
$DIMEXO
 40
0.0625
  9
$DIMDLI
 40
0.38
  9
$DIMRND
 40
0.0
  9
$DIMDLE
 40
0.0
  9
$DIMEXE
 40
0.18
  9
$DIMTP
 40
0.0
  9
$DIMTM
 40
0.0
  9
$DIMTXT
 40
0.18
  9
$DIMCEN
 40
0.09
  9
$DIMTSZ
 40
0.0
  9
$DIMTOL
 70
       0
  9
$DIMLIM
 70
       0
  9
$DIMTIH
 70
       1
  9
$DIMTOH
 70
       1
  9
$DIMSE1
 70
       0
  9
$DIMSE2
 70
       0
  9
$DIMTAD
 70
       0
  9
$DIMZIN
 70
       0
  9
$DIMBLK
  1

  9
$DIMASO
 70
       1
  9
$DIMSHO
 70
       1
  9
$DIMPOST
  1

  9
$DIMAPOST
  1

  9
$DIMALT
 70
       0
  9
$DIMALTD
 70
       2
  9
$DIMALTF
 40
25.4
  9
$DIMLFAC
 40
1.0
  9
$DIMTOFL
 70
       0
  9
$DIMTVP
 40
0.0
  9
$DIMTIX
 70
       0
  9
$DIMSOXD
 70
       0
  9
$DIMSAH
 70
       0
  9
$DIMBLK1
  1

  9
$DIMBLK2
  1

  9
$DIMSTYLE
  2
STANDARD
  9
$DIMCLRD
 70
       0
  9
$DIMCLRE
 70
       0
  9
$DIMCLRT
 70
       0
  9
$DIMTFAC
 40
1.0
  9
$DIMGAP
 40
0.09
  9
$DIMJUST
 70
       0
  9
$DIMSD1
 70
       0
  9
$DIMSD2
 70
       0
  9
$DIMTOLJ
 70
       1
  9
$DIMTZIN
 70
       0
  9
$DIMALTZ
 70
       0
  9
$DIMALTTZ
 70
       0
  9
$DIMFIT
 70
       3
  9
$DIMUPT
 70
       0
  9
$DIMUNIT
 70
       2
  9
$DIMDEC
 70
       4
  9
$DIMTDEC
 70
       4
  9
$DIMALTU
 70
       2
  9
$DIMALTTD
 70
       2
  9
$DIMTXSTY
  7
STANDARD
  9
$DIMAUNIT
 70
       0
  9
$LUNITS
 70
       2
  9
$LUPREC
 70
       4
  9
$SKETCHINC
 40
0.1
  9
$FILLETRAD
 40
0.0
  9
$AUNITS
 70
       0
  9
$AUPREC
 70
       0
  9
$MENU
  1
acad
  9
$ELEVATION
 40
0.0
  9
$PELEVATION
 40
0.0
  9
$THICKNESS
 40
0.0
  9
$LIMCHECK
 70
       0
  9
$BLIPMODE
 70
       1
  9
$CHAMFERA
 40
0.0
  9
$CHAMFERB
 40
0.0
  9
$CHAMFERC
 40
0.0
  9
$CHAMFERD
 40
0.0
  9
$SKPOLY
 70
       0
  9
$TDCREATE
 40
0.000000000
  9
$TDUPDATE
 40
0.000000000
  9
$TDINDWG
 40
0.0000000000
  9
$TDUSRTIMER
 40
0.0000000000
  9
$USRTIMER
 70
       1
  9
$ANGBASE
 50
0.0
  9
$ANGDIR
 70
       0
  9
$PDMODE
 70
       0
  9
$PDSIZE
 40
1.0
  9
$PLINEWID
 40
0.0
  9
$COORDS
 70
       1
  9
$SPLFRAME
 70
       0
  9
$SPLINETYPE
 70
       6
  9
$SPLINESEGS
 70
       8
  9
$ATTDIA
 70
       0
  9
$ATTREQ
 70
       1
  9
$HANDLING
 70
       1
  9
$HANDSEED
  5
22F
  9
$SURFTAB1
 70
       6
  9
$SURFTAB2
 70
       6
  9
$SURFTYPE
 70
       6
  9
$SURFU
 70
       6
  9
$SURFV
 70
       6
  9
$UCSNAME
  2

  9
$UCSORG
 10
0.0
 20
0.0
 30
0.0
  9
$UCSXDIR
 10
1.0
 20
0.0
 30
0.0
  9
$UCSYDIR
 10
0.0
 20
1.0
 30
0.0
  9
$PUCSNAME
  2

  9
$PUCSORG
 10
0.0
 20
0.0
 30
0.0
  9
$PUCSXDIR
 10
1.0
 20
0.0
 30
0.0
  9
$PUCSYDIR
 10
0.0
 20
1.0
 30
0.0
  9
$USERI1
 70
       0
  9
$USERI2
 70
       0
  9
$USERI3
 70
       0
  9
$USERI4
 70
       0
  9
$USERI5
 70
       0
  9
$USERR1
 40
0.0
  9
$USERR2
 40
0.0
  9
$USERR3
 40
0.0
  9
$USERR4
 40
0.0
  9
$USERR5
 40
0.0
  9
$WORLDVIEW
 70
       1
  9
$SHADEDGE
 70
       3
  9
$SHADEDIF
 70
      70
  9
$TILEMODE
 70
       1
  9
$MAXACTVP
 70
      16
  9
$PINSBASE
 10
0.0
 20
0.0
 30
0.0
  9
$PLIMCHECK
 70
       0
  9
$PEXTMIN
 10
1.00000000E+20
 20
1.00000000E+20
 30
1.00000000E+20
  9
$PEXTMAX
 10
-1.00000000E+20
 20
-1.00000000E+20
 30
-1.00000000E+20
  9
$PLIMMIN
 10
0.0
 20
0.0
  9
$PLIMMAX
 10
12.0
 20
9.0
  9
$UNITMODE
 70
       0
  9
$VISRETAIN
 70
       0
  9
$PLINEGEN
 70
       1
  9
$PSLTSCALE
 70
       0
  9
$TREEDEPTH
 70
    3020
  9
$PICKSTYLE
 70
       1
  9
$CMLSTYLE
  2
STANDARD
  9
$CMLJUST
 70
       0
  9
$CMLSCALE
 40
1.0
  9
$PROXYGRAPHICS
 70
       0
  9
$MEASUREMENT
 70
       0
  0
ENDSEC
  0
SECTION
  2
CLASSES
  0
CLASS
  1
LWPOLYLINE
  2
AcDbPolyline
  3
"AutoCAD"
 90
        0
280
       0
281
       1
  0
CLASS
  1
IMAGE
  2
AcDbRasterImage
  3
ISM
 90
      127
280
       0
281
       1
  0
CLASS
  1
OLE2FRAME
  2
AcDbOle2Frame
  3
""
 90
        0
280
       0
281
       1
  0
CLASS
  1
HATCH
  2
AcDbHatch
  3
"ACAD_SEDONA"
 90
        0
280
       0
281
       1
  0
CLASS
  1
DICTIONARYVAR
  2
AcDbDictionaryVar
  3
"AutoCAD"
 90
        0
280
       0
281
       0
  0
CLASS
  1
RASTERVARIABLES
  2
AcDbRasterVariables
  3
ISM
 90
        0
280
       0
281
       0
  0
CLASS
  1
IMAGEDEF
  2
AcDbRasterImageDef
  3
ISM
 90
        0
280
       0
281
       0
  0
CLASS
  1
IMAGEDEF_REACTOR
  2
AcDbRasterImageDefReactor
  3
ISM
 90
        1
280
       0
281
       0
  0
CLASS
  1
IDBUFFER
  2
AcDbIdBuffer
  3
"Acad"
 90
        0
280
       0
281
       0
  0
CLASS
  1
SPATIAL_FILTER
  2
AcDbSpatialFilter
  3
"Acad"
 90
        0
280
       0
281
       0
  0
CLASS
  1
XRECORD
  2
AcDbXrecord
  3
"<Built In>"
 90
        0
280
       0
281
       0
  0
CLASS
  1
SORTENTSTABLE
  2
AcDbSortentsTable
  3
"AutoCAD"
 90
        0
280
       0
281
       0
  0
CLASS
  1
LAYER_INDEX
  2
AcDbLayerIndex
  3
"Acad"
 90
        0
280
       0
281
       0
  0
CLASS
  1
SPATIAL_INDEX
  2
AcDbSpatialIndex
  3
"Acad"
 90
        0
280
       0
281
       0
  0
CLASS
  1
OBJECT_PTR
  2
CAseDLPNTableRecord
  3
"ASE-LPNTableRecord"
 90
        1
280
       0
281
       0
  0
CLASS
  1
LAYOUT
  2
AcDbLayout
  3
"AutoCAD 2000"
 90
        1
280
       0
281
       0
  0
CLASS
  1
PLOTSETTINGS
  2
AcDbPlotSettings
  3
"AutoCAD 2000"
 90
        1
280
       0
281
       0
  0
CLASS
  1
ACDBDICTIONARYWDFLT
  2
AcDbDictionaryWithDefault
  3
"AutoCAD 2000"
 90
        1
280
       0
281
       0
  0
CLASS
  1
ACDBPLACEHOLDER
  2
AcDbPlaceHolder
  3
"AutoCAD 2000"
 90
        1
280
       0
281
       0
  0
CLASS
  1
VBA_PROJECT
  2
AcDbVbaProject
  3
"acadvba"
 90
        1
280
       0
281
       0
  0
CLASS
  1
WIPEOUT
  2
AcDbWipeout
  3
WipeOut|AutoCAD Express Tool|expresstools@autodesk.com
 90
      127
280
       0
281
       1
  0
CLASS
  1
WIPEOUTVARIABLES
  2
AcDbWipeoutVariables
  3
WipeOut|AutoCAD Express Tool|expresstools@autodesk.com
 90
        0
280
       0
281
       0
  0
CLASS
  1
RTEXT
  2
RText
  3
RText|AutoCAD Express Tool|expresstools@autodesk.com
 90
        0
280
       0
281
       1
  0
CLASS
  1
ARCALIGNEDTEXT
  2
AcDbArcAlignedText
  3
ATEXT|AutoCAD Express Tool|expresstools@autodesk.com
 90
        0
280
       0
281
       1
  0
ENDSEC
  0
SECTION
  2
TABLES
  0
TABLE
  2
VPORT
  5
7
100
AcDbSymbolTable
 70
       1
  0
VPORT
  5
15
100
AcDbSymbolTableRecord
100
AcDbViewportTableRecord
  2
*ACTIVE
 70
       0
 10
0.0
 20
0.0
 11
1.0
 21
1.0
 12
62.0
 22
12.5
 13
0.0
 23
0.0
 14
1.0
 24
1.0
 15
0.0
 25
0.0
 16
0.0
 26
0.0
 36
1.0
 17
0.0
 27
0.0
 37
0.0
 40
9553.83
 41
0.11276891
 42
50.0
 43
0.0
 44
0.0
 50
0.0
 51
0.0
 71
       0
 72
     100
 73
       1
 74
       1
 75
       0
 76
       0
 77
       0
 78
       0
  0
ENDTAB
  0
TABLE
  2
LTYPE
  5
4
100
AcDbSymbolTable
 70
      30
  0
LTYPE
  5
11
100
AcDbSymbolTableRecord
100
AcDbLinetypeTableRecord
  2
BYBLOCK
 70
      64
  3

 72
      65
 73
       0
 40
0.0
  0
LTYPE
  5
12
100
AcDbSymbolTableRecord
100
AcDbLinetypeTableRecord
  2
BYLAYER
 70
      64
  3

 72
      65
 73
       0
 40
0.0
  0
LTYPE
  5
13
100
AcDbSymbolTableRecord
100
AcDbLinetypeTableRecord
  2
CONTINUOUS
 70
      64
  3
Solid line
 72
      65
 73
       0
 40
0.0
  0
LTYPE
  5
1D
100
AcDbSymbolTableRecord
100
AcDbLinetypeTableRecord
  2
HIDDENX2
 70
      64
  3
CADPAC LINETYPE
 72
      65
 73
       2
 40
33.64
 49
25.23
 74
       0
 49
-8.41
 74
       0
  0
LTYPE
  5
1E
100
AcDbSymbolTableRecord
100
AcDbLinetypeTableRecord
  2
HIDDEN
 70
      64
  3
CADPAC LINETYPE
 72
      65
 73
       2
 40
25.23
 49
16.82
 74
       0
 49
-8.41
 74
       0
  0
LTYPE
  5
1F
100
AcDbSymbolTableRecord
100
AcDbLinetypeTableRecord
  2
HIDDEN2
 70
      64
  3
CADPAC LINETYPE
 72
      65
 73
       2
 40
21.025
 49
12.615
 74
       0
 49
-8.41
 74
       0
  0
LTYPE
  5
20
100
AcDbSymbolTableRecord
100
AcDbLinetypeTableRecord
  2
DASHED
 70
      64
  3
CADPAC LINETYPE
 72
      65
 73
       2
 40
25.23
 49
16.82
 74
       0
 49
-8.41
 74
       0
  0
LTYPE
  5
21
100
AcDbSymbolTableRecord
100
AcDbLinetypeTableRecord
  2
DASHED2
 70
      64
  3
CADPAC LINETYPE
 72
      65
 73
       2
 40
18.9225
 49
12.615
 74
       0
 49
-6.3075
 74
       0
  0
LTYPE
  5
22
100
AcDbSymbolTableRecord
100
AcDbLinetypeTableRecord
  2
DASHEDX2
 70
      64
  3
CADPAC LINETYPE
 72
      65
 73
       2
 40
37.845
 49
25.23
 74
       0
 49
-12.615
 74
       0
  0
LTYPE
  5
23
100
AcDbSymbolTableRecord
100
AcDbLinetypeTableRecord
  2
DOTX2
 70
      64
  3
CADPAC LINETYPE
 72
      65
 73
       2
 40
10.5125
 49
0.0
 74
       0
 49
-10.5125
 74
       0
  0
LTYPE
  5
24
100
AcDbSymbolTableRecord
100
AcDbLinetypeTableRecord
  2
DOT
 70
      64
  3
CADPAC LINETYPE
 72
      65
 73
       2
 40
8.41
 49
0.0
 74
       0
 49
-8.41
 74
       0
  0
LTYPE
  5
25
100
AcDbSymbolTableRecord
100
AcDbLinetypeTableRecord
  2
DOT2
 70
      64
  3
CADPAC LINETYPE
 72
      65
 73
       2
 40
6.3075
 49
0.0
 74
       0
 49
-6.3075
 74
       0
  0
LTYPE
  5
26
100
AcDbSymbolTableRecord
100
AcDbLinetypeTableRecord
  2
CENTERX2
 70
      64
  3
CADPAC LINETYPE
 72
      65
 73
       4
 40
50.46
 49
21.025
 74
       0
 49
-10.5125
 74
       0
 49
8.41
 74
       0
 49
-10.5125
 74
       0
  0
LTYPE
  5
27
100
AcDbSymbolTableRecord
100
AcDbLinetypeTableRecord
  2
CENTER
 70
      64
  3
CADPAC LINETYPE
 72
      65
 73
       4
 40
38.686
 49
16.82
 74
       0
 49
-8.41
 74
       0
 49
5.046
 74
       0
 49
-8.41
 74
       0
  0
LTYPE
  5
28
100
AcDbSymbolTableRecord
100
AcDbLinetypeTableRecord
  2
CENTER2
 70
      64
  3
CADPAC LINETYPE
 72
      65
 73
       4
 40
26.912
 49
12.615
 74
       0
 49
-6.3075
 74
       0
 49
1.682
 74
       0
 49
-6.3075
 74
       0
  0
LTYPE
  5
29
100
AcDbSymbolTableRecord
100
AcDbLinetypeTableRecord
  2
DASHDOTX2
 70
      64
  3
CADPAC LINETYPE
 72
      65
 73
       4
 40
42.05
 49
21.025
 74
       0
 49
-10.5125
 74
       0
 49
0.0
 74
       0
 49
-10.5125
 74
       0
  0
LTYPE
  5
2A
100
AcDbSymbolTableRecord
100
AcDbLinetypeTableRecord
  2
DASHDOT
 70
      64
  3
CADPAC LINETYPE
 72
      65
 73
       4
 40
33.64
 49
16.82
 74
       0
 49
-8.41
 74
       0
 49
0.0
 74
       0
 49
-8.41
 74
       0
  0
LTYPE
  5
2B
100
AcDbSymbolTableRecord
100
AcDbLinetypeTableRecord
  2
DASHDOT2
 70
      64
  3
CADPAC LINETYPE
 72
      65
 73
       4
 40
25.23
 49
12.615
 74
       0
 49
-6.3075
 74
       0
 49
0.0
 74
       0
 49
-6.3075
 74
       0
  0
LTYPE
  5
2C
100
AcDbSymbolTableRecord
100
AcDbLinetypeTableRecord
  2
DIVIDEX2
 70
      64
  3
CADPAC LINETYPE
 72
      65
 73
       6
 40
52.5625
 49
21.025
 74
       0
 49
-10.5125
 74
       0
 49
0.0
 74
       0
 49
-10.5125
 74
       0
 49
0.0
 74
       0
 49
-10.5125
 74
       0
  0
LTYPE
  5
2D
100
AcDbSymbolTableRecord
100
AcDbLinetypeTableRecord
  2
DIVIDE
 70
      64
  3
CADPAC LINETYPE
 72
      65
 73
       6
 40
42.05
 49
16.82
 74
       0
 49
-8.41
 74
       0
 49
0.0
 74
       0
 49
-8.41
 74
       0
 49
0.0
 74
       0
 49
-8.41
 74
       0
  0
LTYPE
  5
2E
100
AcDbSymbolTableRecord
100
AcDbLinetypeTableRecord
  2
DIVIDE2
 70
      64
  3
CADPAC LINETYPE
 72
      65
 73
       6
 40
31.5375
 49
12.615
 74
       0
 49
-6.3075
 74
       0
 49
0.0
 74
       0
 49
-6.3075
 74
       0
 49
0.0
 74
       0
 49
-6.3075
 74
       0
  0
LTYPE
  5
2F
100
AcDbSymbolTableRecord
100
AcDbLinetypeTableRecord
  2
BORDERX2
 70
      64
  3
CADPAC LINETYPE
 72
      65
 73
       6
 40
73.5875
 49
21.025
 74
       0
 49
-10.5125
 74
       0
 49
21.025
 74
       0
 49
-10.5125
 74
       0
 49
0.0
 74
       0
 49
-10.5125
 74
       0
  0
LTYPE
  5
30
100
AcDbSymbolTableRecord
100
AcDbLinetypeTableRecord
  2
BORDER
 70
      64
  3
CADPAC LINETYPE
 72
      65
 73
       6
 40
58.87
 49
16.82
 74
       0
 49
-8.41
 74
       0
 49
16.82
 74
       0
 49
-8.41
 74
       0
 49
0.0
 74
       0
 49
-8.41
 74
       0
  0
LTYPE
  5
31
100
AcDbSymbolTableRecord
100
AcDbLinetypeTableRecord
  2
BORDER2
 70
      64
  3
CADPAC LINETYPE
 72
      65
 73
       6
 40
44.1525
 49
12.615
 74
       0
 49
-6.3075
 74
       0
 49
12.615
 74
       0
 49
-6.3075
 74
       0
 49
0.0
 74
       0
 49
-6.3075
 74
       0
  0
LTYPE
  5
32
100
AcDbSymbolTableRecord
100
AcDbLinetypeTableRecord
  2
PHANTOMX2
 70
      64
  3
CADPAC LINETYPE
 72
      65
 73
       6
 40
63.075
 49
21.025
 74
       0
 49
-8.41
 74
       0
 49
8.41
 74
       0
 49
-8.41
 74
       0
 49
8.41
 74
       0
 49
-8.41
 74
       0
  0
LTYPE
  5
33
100
AcDbSymbolTableRecord
100
AcDbLinetypeTableRecord
  2
PHANTOM
 70
      64
  3
CADPAC LINETYPE
 72
      65
 73
       6
 40
52.142
 49
16.82
 74
       0
 49
-8.41
 74
       0
 49
5.046
 74
       0
 49
-8.41
 74
       0
 49
5.046
 74
       0
 49
-8.41
 74
       0
  0
LTYPE
  5
34
100
AcDbSymbolTableRecord
100
AcDbLinetypeTableRecord
  2
PHANTOM2
 70
      64
  3
CADPAC LINETYPE
 72
      65
 73
       6
 40
44.573
 49
12.615
 74
       0
 49
-8.41
 74
       0
 49
3.364
 74
       0
 49
-8.41
 74
       0
 49
3.364
 74
       0
 49
-8.41
 74
       0
  0
LTYPE
  5
35
100
AcDbSymbolTableRecord
100
AcDbLinetypeTableRecord
  2
ACAD_ISO06W100
 70
      64
  3
CADPAC LINETYPE
 72
      65
 73
       8
 40
56.7675
 49
21.025
 74
       0
 49
-10.5125
 74
       0
 49
0.0
 74
       0
 49
-8.41
 74
       0
 49
0.0
 74
       0
 49
-8.41
 74
       0
 49
0.0
 74
       0
 49
-8.41
 74
       0
  0
LTYPE
  5
36
100
AcDbSymbolTableRecord
100
AcDbLinetypeTableRecord
  2
ACAD_ISO13W100
 70
      64
  3
CADPAC LINETYPE
 72
      65
 73
       8
 40
67.28
 49
16.82
 74
       0
 49
-8.41
 74
       0
 49
16.82
 74
       0
 49
-8.41
 74
       0
 49
0.0
 74
       0
 49
-8.41
 74
       0
 49
0.0
 74
       0
 49
-8.41
 74
       0
  0
LTYPE
  5
37
100
AcDbSymbolTableRecord
100
AcDbLinetypeTableRecord
  2
ACAD_ISO14W100
 70
      64
  3
CADPAC LINETYPE
 72
      65
 73
       8
 40
50.46
 49
16.82
 74
       0
 49
-8.41
 74
       0
 49
0.0
 74
       0
 49
-8.41
 74
       0
 49
0.0
 74
       0
 49
-8.41
 74
       0
 49
0.0
 74
       0
 49
-8.41
 74
       0
  0
ENDTAB
  0
TABLE
  2
LAYER
  5
2
100
AcDbSymbolTable
 70
       3
  0
LAYER
  5
14
100
AcDbSymbolTableRecord
100
AcDbLayerTableRecord
  2
0
 70
       0
 62
       7
  6
CONTINUOUS
  0
LAYER
  5
38
100
AcDbSymbolTableRecord
100
AcDbLayerTableRecord
  2
D-STR
 70
       0
 62
       7
  6
CONTINUOUS
  0
LAYER
  5
39
100
AcDbSymbolTableRecord
100
AcDbLayerTableRecord
  2
D-STR-TXT
 70
       0
 62
       7
  6
CONTINUOUS
  0
ENDTAB
  0
TABLE
  2
STYLE
  5
3
100
AcDbSymbolTable
 70
       1
  0
STYLE
  5
17
100
AcDbSymbolTableRecord
100
AcDbTextStyleTableRecord
  2
STANDARD
 70
       0
 40
0.0
 41
1.0
 50
0.0
 71
       0
 42
25.0
  3
MS Gothic.ttf
  4

1001
ACAD
1000
MS Gothic
1071
    32786
  0
ENDTAB
  0
TABLE
  2
VIEW
  5
5
100
AcDbSymbolTable
 70
       1
  0
VIEW
  5
3A
100
AcDbSymbolTableRecord
100
AcDbViewTableRecord
  2
QQQQ
 70
       0
 40
9553.83
 10
62.0
 20
12.5
 41
1077.375
 11
0.0
 21
0.0
 31
1.0
 12
100.0
 22
100.0
 32
0.0
 42
50.0
 43
0.0
 44
0.0
 50
0.0
 71
       0
  0
ENDTAB
  0
TABLE
  2
UCS
  5
6
100
AcDbSymbolTable
 70
       0
  0
ENDTAB
  0
TABLE
  2
APPID
  5
8
100
AcDbSymbolTable
 70
       1
  0
APPID
  5
16
100
AcDbSymbolTableRecord
100
AcDbRegAppTableRecord
  2
ACAD
 70
       0
  0
ENDTAB
  0
TABLE
  2
DIMSTYLE
  5
9
100
AcDbSymbolTable
 70
       1
  0
DIMSTYLE
105
18
100
AcDbSymbolTableRecord
100
AcDbDimStyleTableRecord
  2
STANDARD
 70
       0
  3

  4

  5

  6

  7

 40
1.0
 41
0.18
 42
0.0625
 43
0.38
 44
0.18
 45
0.0
 46
0.0
 47
0.0
 48
0.0
 71
       0
 72
       0
 73
       1
 74
       1
 75
       0
 76
       0
 77
       0
 78
       0
140
0.18
141
0.09
142
0.0
143
25.4
144
1.0
145
0.0
146
1.0
147
0.09
170
       0
171
       2
172
       0
173
       0
174
       0
175
       0
176
       0
177
       0
178
       0
270
       2
271
       4
272
       4
273
       2
274
       2
275
       0
280
       0
281
       0
282
       0
283
       1
284
       0
285
       0
286
       0
287
       0
288
       0
340
17
  0
ENDTAB
  0
TABLE
  2
BLOCK_RECORD
  5
1
100
AcDbSymbolTable
 70
      20
  0
BLOCK_RECORD
  5
A
100
AcDbSymbolTableRecord
100
AcDbBlockTableRecord
  2
*MODEL_SPACE
  0
BLOCK_RECORD
  5
B
100
AcDbSymbolTableRecord
100
AcDbBlockTableRecord
  2
*PAPER_SPACE
  0
BLOCK_RECORD
  5
3B
100
AcDbSymbolTableRecord
100
AcDbBlockTableRecord
  2
GROUP_1
  0
BLOCK_RECORD
  5
3C
100
AcDbSymbolTableRecord
100
AcDbBlockTableRecord
  2
GROUP_2
  0
BLOCK_RECORD
  5
3D
100
AcDbSymbolTableRecord
100
AcDbBlockTableRecord
  2
GROUP_3
  0
BLOCK_RECORD
  5
3E
100
AcDbSymbolTableRecord
100
AcDbBlockTableRecord
  2
GROUP_4
  0
BLOCK_RECORD
  5
3F
100
AcDbSymbolTableRecord
100
AcDbBlockTableRecord
  2
GROUP_5
  0
BLOCK_RECORD
  5
40
100
AcDbSymbolTableRecord
100
AcDbBlockTableRecord
  2
GROUP_6
  0
BLOCK_RECORD
  5
41
100
AcDbSymbolTableRecord
100
AcDbBlockTableRecord
  2
GROUP_7
  0
BLOCK_RECORD
  5
42
100
AcDbSymbolTableRecord
100
AcDbBlockTableRecord
  2
GROUP_8
  0
BLOCK_RECORD
  5
43
100
AcDbSymbolTableRecord
100
AcDbBlockTableRecord
  2
GROUP_9
  0
BLOCK_RECORD
  5
44
100
AcDbSymbolTableRecord
100
AcDbBlockTableRecord
  2
GROUP_10
  0
BLOCK_RECORD
  5
45
100
AcDbSymbolTableRecord
100
AcDbBlockTableRecord
  2
GROUP_11
  0
BLOCK_RECORD
  5
46
100
AcDbSymbolTableRecord
100
AcDbBlockTableRecord
  2
GROUP_12
  0
BLOCK_RECORD
  5
47
100
AcDbSymbolTableRecord
100
AcDbBlockTableRecord
  2
GROUP_13
  0
BLOCK_RECORD
  5
48
100
AcDbSymbolTableRecord
100
AcDbBlockTableRecord
  2
GROUP_14
  0
BLOCK_RECORD
  5
49
100
AcDbSymbolTableRecord
100
AcDbBlockTableRecord
  2
GROUP_15
  0
BLOCK_RECORD
  5
4A
100
AcDbSymbolTableRecord
100
AcDbBlockTableRecord
  2
GROUP_16
  0
BLOCK_RECORD
  5
4B
100
AcDbSymbolTableRecord
100
AcDbBlockTableRecord
  2
GROUP_17
  0
BLOCK_RECORD
  5
4C
100
AcDbSymbolTableRecord
100
AcDbBlockTableRecord
  2
GROUP_18
  0
BLOCK_RECORD
  5
4D
100
AcDbSymbolTableRecord
100
AcDbBlockTableRecord
  2
GROUP_19
  0
BLOCK_RECORD
  5
4E
100
AcDbSymbolTableRecord
100
AcDbBlockTableRecord
  2
GROUP_20
  0
ENDTAB
  0
ENDSEC
  0
SECTION
  2
BLOCKS
  0
BLOCK
  5
D
100
AcDbEntity
  8
0
100
AcDbBlockBegin
  2
*MODEL_SPACE
 70
       0
 10
0.0
 20
0.0
 30
0.0
  3
*MODEL_SPACE
  1

  0
ENDBLK
  5
E
100
AcDbEntity
  8
0
100
AcDbBlockEnd
  0
BLOCK
  5
F
100
AcDbEntity
 67
       1
  8
0
100
AcDbBlockBegin
  2
*PAPER_SPACE
 70
       0
 10
0.0
 20
0.0
 30
0.0
  3
*PAPER_SPACE
  1

  0
ENDBLK
  5
10
100
AcDbEntity
 67
       1
  8
0
100
AcDbBlockEnd
  0
BLOCK
  5
4F
100
AcDbEntity
  8
0
100
AcDbBlockBegin
  2
GROUP_1
 70
       0
 10
0.0
 20
0.0
 30
0.0
  3
GROUP_1
  1

  0
LINE
  5
50
100
AcDbEntity
  8
D-STR
  6
CONTINUOUS
 62
       1
100
AcDbLine
 10
-323.0
 20
4293.95552823
 30
0.0
 11
-323.0
 21
4227.04447177
 31
0.0
  0
LINE
  5
51
100
AcDbEntity
  8
D-STR
  6
CONTINUOUS
 62
       1
100
AcDbLine
 10
-328.0
 20
4293.95552823
 30
0.0
 11
-328.0
 21
4227.04447177
 31
0.0
  0
LINE
  5
52
100
AcDbEntity
  8
D-STR
  6
CONTINUOUS
 62
       1
100
AcDbLine
 10
-288.0
 20
4210.5
 30
0.0
 11
-363.0
 21
4210.5
 31
0.0
  0
ARC
  5
53
100
AcDbEntity
  8
D-STR
  6
CONTINUOUS
 62
       1
100
AcDbCircle
 10
-316.0
 20
4227.04447177
 30
0.0
 40
7.0
100
AcDbArc
 50
180.0
 51
262.0
  0
ARC
  5
54
100
AcDbEntity
  8
D-STR
  6
CONTINUOUS
 62
       1
100
AcDbCircle
 10
-291.5
 20
4212.99803181
 30
0.0
 40
3.5
100
AcDbArc
 50
0.0
 51
82.0
  0
LINE
  5
55
100
AcDbEntity
  8
D-STR
  6
CONTINUOUS
 62
       1
100
AcDbLine
 10
-288.0
 20
4212.99803181
 30
0.0
 11
-288.0
 21
4210.5
 31
0.0
  0
LINE
  5
56
100
AcDbEntity
  8
D-STR
  6
CONTINUOUS
 62
       1
100
AcDbLine
 10
-316.97421171
 20
4220.11259529
 30
0.0
 11
-291.01289415
 21
4216.46397005
 31
0.0
  0
ARC
  5
57
100
AcDbEntity
  8
D-STR
  6
CONTINUOUS
 62
       1
100
AcDbCircle
 10
-335.0
 20
4227.04447177
 30
0.0
 40
7.0
100
AcDbArc
 50
278.0
 51
360.0
  0
ARC
  5
58
100
AcDbEntity
  8
D-STR
  6
CONTINUOUS
 62
       1
100
AcDbCircle
 10
-359.5
 20
4212.99803181
 30
0.0
 40
3.5
100
AcDbArc
 50
98.0
 51
180.0
  0
LINE
  5
59
100
AcDbEntity
  8
D-STR
  6
CONTINUOUS
 62
       1
100
AcDbLine
 10
-334.02578829
 20
4220.11259529
 30
0.0
 11
-359.98710585
 21
4216.46397005
 31
0.0
  0
LINE
  5
5A
100
AcDbEntity
  8
D-STR
  6
CONTINUOUS
 62
       1
100
AcDbLine
 10
-363.0
 20
4212.99803181
 30
0.0
 11
-363.0
 21
4210.5
 31
0.0
  0
ARC
  5
5B
100
AcDbEntity
  8
D-STR
  6
CONTINUOUS
 62
       1
100
AcDbCircle
 10
-335.0
 20
4293.95552823
 30
0.0
 40
7.0
100
AcDbArc
 50
0.0
 51
82.0
  0
ARC
  5
5C
100
AcDbEntity
  8
D-STR
  6
CONTINUOUS
 62
       1
100
AcDbCircle
 10
-316.0
 20
4293.95552823
 30
0.0
 40
7.0
100
AcDbArc
 50
98.0
 51
180.0
  0
LINE
  5
5D
100
AcDbEntity
  8
D-STR
  6
CONTINUOUS
 62
       1
100
AcDbLine
 10
-288.0
 20
4310.5
 30
0.0
 11
-363.0
 21
4310.5
 31
0.0
  0
ARC
  5
5E
100
AcDbEntity
  8
D-STR
  6
CONTINUOUS
 62
       1
100
AcDbCircle
 10
-291.5
 20
4308.00196819
 30
0.0
 40
3.5
100
AcDbArc
 50
278.0
 51
360.0
  0
LINE
  5
5F
100
AcDbEntity
  8
D-STR
  6
CONTINUOUS
 62
       1
100
AcDbLine
 10
-288.0
 20
4310.5
 30
0.0
 11
-288.0
 21
4308.00196819
 31
0.0
  0
LINE
  5
60
100
AcDbEntity
  8
D-STR
  6
CONTINUOUS
 62
       1
100
AcDbLine
 10
-316.97421171
 20
4300.88740471
 30
0.0
 11
-291.01289415
 21
4304.53602995
 31
0.0
  0
ARC
  5
61
100
AcDbEntity
  8
D-STR
  6
CONTINUOUS
 62
       1
100
AcDbCircle
 10
-359.5
 20
4308.00196819
 30
0.0
 40
3.5
100
AcDbArc
 50
180.0
 51
262.0
  0
LINE
  5
62
100
AcDbEntity
  8
D-STR
  6
CONTINUOUS
 62
       1
100
AcDbLine
 10
-334.02578829
 20
4300.88740471
 30
0.0
 11
-359.98710585
 21
4304.53602995
 31
0.0
  0
LINE
  5
63
100
AcDbEntity
  8
D-STR
  6
CONTINUOUS
 62
       1
100
AcDbLine
 10
-363.0
 20
4310.5
 30
0.0
 11
-363.0
 21
4308.00196819
 31
0.0
  0
ENDBLK
  5
64
100
AcDbEntity
  8
0
100
AcDbBlockEnd
  0
BLOCK
  5
65
100
AcDbEntity
  8
0
100
AcDbBlockBegin
  2
GROUP_2
 70
       0
 10
0.0
 20
0.0
 30
0.0
  3
GROUP_2
  1

  0
LINE
  5
66
100
AcDbEntity
  8
D-STR
  6
CONTINUOUS
 62
       1
100
AcDbLine
 10
-328.25
 20
4128.23452236
 30
0.0
 11
-328.25
 21
4042.76547764
 31
0.0
  0
LINE
  5
67
100
AcDbEntity
  8
D-STR
  6
CONTINUOUS
 62
       1
100
AcDbLine
 10
-322.75
 20
4128.23452236
 30
0.0
 11
-322.75
 21
4042.76547764
 31
0.0
  0
ARC
  5
68
100
AcDbEntity
  8
D-STR
  6
CONTINUOUS
 62
       1
100
AcDbCircle
 10
-358.5
 20
4026.14631268
 30
0.0
 40
4.5
100
AcDbArc
 50
98.0
 51
180.0
  0
LINE
  5
69
100
AcDbEntity
  8
D-STR
  6
CONTINUOUS
 62
       1
100
AcDbLine
 10
-288.0
 20
4023.0
 30
0.0
 11
-363.0
 21
4023.0
 31
0.0
  0
ARC
  5
6A
100
AcDbEntity
  8
D-STR
  6
CONTINUOUS
 62
       1
100
AcDbCircle
 10
-337.25
 20
4042.76547764
 30
0.0
 40
9.0
100
AcDbArc
 50
278.0
 51
360.0
  0
ARC
  5
6B
100
AcDbEntity
  8
D-STR
  6
CONTINUOUS
 62
       1
100
AcDbCircle
 10
-313.75
 20
4042.76547764
 30
0.0
 40
9.0
100
AcDbArc
 50
180.0
 51
262.0
  0
LINE
  5
6C
100
AcDbEntity
  8
D-STR
  6
CONTINUOUS
 62
       1
100
AcDbLine
 10
-315.00255791
 20
4033.85306502
 30
0.0
 11
-291.87372105
 21
4030.60251899
 31
0.0
  0
LINE
  5
6D
100
AcDbEntity
  8
D-STR
  6
CONTINUOUS
 62
       1
100
AcDbLine
 10
-335.99744209
 20
4033.85306502
 30
0.0
 11
-359.12627895
 21
4030.60251899
 31
0.0
  0
LINE
  5
6E
100
AcDbEntity
  8
D-STR
  6
CONTINUOUS
 62
       1
100
AcDbLine
 10
-288.0
 20
4026.14631268
 30
0.0
 11
-288.0
 21
4023.0
 31
0.0
  0
ARC
  5
6F
100
AcDbEntity
  8
D-STR
  6
CONTINUOUS
 62
       1
100
AcDbCircle
 10
-292.5
 20
4026.14631268
 30
0.0
 40
4.5
100
AcDbArc
 50
0.0
 51
82.0
  0
LINE
  5
70
100
AcDbEntity
  8
D-STR
  6
CONTINUOUS
 62
       1
100
AcDbLine
 10
-363.0
 20
4026.14631268
 30
0.0
 11
-363.0
 21
4023.0
 31
0.0
  0
LINE
  5
71
100
AcDbEntity
  8
D-STR
  6
CONTINUOUS
 62
       1
100
AcDbLine
 10
-363.0
 20
4148.0
 30
0.0
 11
-363.0
 21
4144.85368732
 31
0.0
  0
LINE
  5
72
100
AcDbEntity
  8
D-STR
  6
CONTINUOUS
 62
       1
100
AcDbLine
 10
-288.0
 20
4148.0
 30
0.0
 11
-288.0
 21
4144.85368732
 31
0.0
  0
ARC
  5
73
100
AcDbEntity
  8
D-STR
  6
CONTINUOUS
 62
       1
100
AcDbCircle
 10
-358.5
 20
4144.85368732
 30
0.0
 40
4.5
100
AcDbArc
 50
180.0
 51
262.0
  0
ARC
  5
74
100
AcDbEntity
  8
D-STR
  6
CONTINUOUS
 62
       1
100
AcDbCircle
 10
-313.75
 20
4128.23452236
 30
0.0
 40
9.0
100
AcDbArc
 50
98.0
 51
180.0
  0
ARC
  5
75
100
AcDbEntity
  8
D-STR
  6
CONTINUOUS
 62
       1
100
AcDbCircle
 10
-337.25
 20
4128.23452236
 30
0.0
 40
9.0
100
AcDbArc
 50
0.0
 51
82.0
  0
ARC
  5
76
100
AcDbEntity
  8
D-STR
  6
CONTINUOUS
 62
       1
100
AcDbCircle
 10
-292.5
 20
4144.85368732
 30
0.0
 40
4.5
100
AcDbArc
 50
278.0
 51
360.0
  0
LINE
  5
77
100
AcDbEntity
  8
D-STR
  6
CONTINUOUS
 62
       1
100
AcDbLine
 10
-315.00255791
 20
4137.14693498
 30
0.0
 11
-291.87372105
 21
4140.39748101
 31
0.0
  0
LINE
  5
78
100
AcDbEntity
  8
D-STR
  6
CONTINUOUS
 62
       1
100
AcDbLine
 10
-335.99744209
 20
4137.14693498
 30
0.0
 11
-359.12627895
 21
4140.39748101
 31
0.0
  0
LINE
  5
79
100
AcDbEntity
  8
D-STR
  6
CONTINUOUS
 62
       1
100
AcDbLine
 10
-288.0
 20
4148.0
 30
0.0
 11
-363.0
 21
4148.0
 31
0.0
  0
ENDBLK
  5
7A
100
AcDbEntity
  8
0
100
AcDbBlockEnd
  0
BLOCK
  5
7B
100
AcDbEntity
  8
0
100
AcDbBlockBegin
  2
GROUP_3
 70
       0
 10
0.0
 20
0.0
 30
0.0
  3
GROUP_3
  1

  0
LINE
  5
7C
100
AcDbEntity
  8
D-STR
  6
CONTINUOUS
 62
       1
100
AcDbLine
 10
-328.25
 20
3928.23452236
 30
0.0
 11
-328.25
 21
3817.76547764
 31
0.0
  0
LINE
  5
7D
100
AcDbEntity
  8
D-STR
  6
CONTINUOUS
 62
       1
100
AcDbLine
 10
-322.75
 20
3928.23452236
 30
0.0
 11
-322.75
 21
3817.76547764
 31
0.0
  0
LINE
  5
7E
100
AcDbEntity
  8
D-STR
  6
CONTINUOUS
 62
       1
100
AcDbLine
 10
-315.00255791
 20
3808.85306502
 30
0.0
 11
-291.87372105
 21
3805.60251899
 31
0.0
  0
LINE
  5
7F
100
AcDbEntity
  8
D-STR
  6
CONTINUOUS
 62
       1
100
AcDbLine
 10
-288.0
 20
3798.0
 30
0.0
 11
-363.0
 21
3798.0
 31
0.0
  0
LINE
  5
80
100
AcDbEntity
  8
D-STR
  6
CONTINUOUS
 62
       1
100
AcDbLine
 10
-288.0
 20
3801.14631268
 30
0.0
 11
-288.0
 21
3798.0
 31
0.0
  0
ARC
  5
81
100
AcDbEntity
  8
D-STR
  6
CONTINUOUS
 62
       1
100
AcDbCircle
 10
-292.5
 20
3801.14631268
 30
0.0
 40
4.5
100
AcDbArc
 50
0.0
 51
82.0
  0
LINE
  5
82
100
AcDbEntity
  8
D-STR
  6
CONTINUOUS
 62
       1
100
AcDbLine
 10
-335.99744209
 20
3808.85306502
 30
0.0
 11
-359.12627895
 21
3805.60251899
 31
0.0
  0
ARC
  5
83
100
AcDbEntity
  8
D-STR
  6
CONTINUOUS
 62
       1
100
AcDbCircle
 10
-337.25
 20
3817.76547764
 30
0.0
 40
9.0
100
AcDbArc
 50
278.0
 51
360.0
  0
ARC
  5
84
100
AcDbEntity
  8
D-STR
  6
CONTINUOUS
 62
       1
100
AcDbCircle
 10
-313.75
 20
3817.76547764
 30
0.0
 40
9.0
100
AcDbArc
 50
180.0
 51
262.0
  0
LINE
  5
85
100
AcDbEntity
  8
D-STR
  6
CONTINUOUS
 62
       1
100
AcDbLine
 10
-363.0
 20
3801.14631268
 30
0.0
 11
-363.0
 21
3798.0
 31
0.0
  0
ARC
  5
86
100
AcDbEntity
  8
D-STR
  6
CONTINUOUS
 62
       1
100
AcDbCircle
 10
-358.5
 20
3801.14631268
 30
0.0
 40
4.5
100
AcDbArc
 50
98.0
 51
180.0
  0
LINE
  5
87
100
AcDbEntity
  8
D-STR
  6
CONTINUOUS
 62
       1
100
AcDbLine
 10
-315.00255791
 20
3937.14693498
 30
0.0
 11
-291.87372105
 21
3940.39748101
 31
0.0
  0
LINE
  5
88
100
AcDbEntity
  8
D-STR
  6
CONTINUOUS
 62
       1
100
AcDbLine
 10
-288.0
 20
3948.0
 30
0.0
 11
-363.0
 21
3948.0
 31
0.0
  0
LINE
  5
89
100
AcDbEntity
  8
D-STR
  6
CONTINUOUS
 62
       1
100
AcDbLine
 10
-288.0
 20
3948.0
 30
0.0
 11
-288.0
 21
3944.85368732
 31
0.0
  0
ARC
  5
8A
100
AcDbEntity
  8
D-STR
  6
CONTINUOUS
 62
       1
100
AcDbCircle
 10
-292.5
 20
3944.85368732
 30
0.0
 40
4.5
100
AcDbArc
 50
278.0
 51
360.0
  0
ARC
  5
8B
100
AcDbEntity
  8
D-STR
  6
CONTINUOUS
 62
       1
100
AcDbCircle
 10
-313.75
 20
3928.23452236
 30
0.0
 40
9.0
100
AcDbArc
 50
98.0
 51
180.0
  0
ARC
  5
8C
100
AcDbEntity
  8
D-STR
  6
CONTINUOUS
 62
       1
100
AcDbCircle
 10
-337.25
 20
3928.23452236
 30
0.0
 40
9.0
100
AcDbArc
 50
0.0
 51
82.0
  0
LINE
  5
8D
100
AcDbEntity
  8
D-STR
  6
CONTINUOUS
 62
       1
100
AcDbLine
 10
-335.99744209
 20
3937.14693498
 30
0.0
 11
-359.12627895
 21
3940.39748101
 31
0.0
  0
LINE
  5
8E
100
AcDbEntity
  8
D-STR
  6
CONTINUOUS
 62
       1
100
AcDbLine
 10
-363.0
 20
3948.0
 30
0.0
 11
-363.0
 21
3944.85368732
 31
0.0
  0
ARC
  5
8F
100
AcDbEntity
  8
D-STR
  6
CONTINUOUS
 62
       1
100
AcDbCircle
 10
-358.5
 20
3944.85368732
 30
0.0
 40
4.5
100
AcDbArc
 50
180.0
 51
262.0
  0
ENDBLK
  5
90
100
AcDbEntity
  8
0
100
AcDbBlockEnd
  0
BLOCK
  5
91
100
AcDbEntity
  8
0
100
AcDbBlockBegin
  2
GROUP_4
 70
       0
 10
0.0
 20
0.0
 30
0.0
  3
GROUP_4
  1

  0
ARC
  5
92
100
AcDbEntity
  8
D-STR
  6
CONTINUOUS
 62
       1
100
AcDbCircle
 10
57.25
 20
3827.3939794
 30
0.0
 40
13.0
100
AcDbArc
 50
278.0
 51
360.0
  0
ARC
  5
93
100
AcDbEntity
  8
D-STR
  6
CONTINUOUS
 62
       1
100
AcDbCircle
 10
91.75
 20
3827.3939794
 30
0.0
 40
13.0
100
AcDbArc
 50
180.0
 51
262.0
  0
LINE
  5
94
100
AcDbEntity
  8
D-STR
  6
CONTINUOUS
 62
       1
100
AcDbLine
 10
137.0
 20
3798.0
 30
0.0
 11
12.0
 21
3798.0
 31
0.0
  0
ARC
  5
95
100
AcDbEntity
  8
D-STR
  6
CONTINUOUS
 62
       1
100
AcDbCircle
 10
130.5
 20
3802.25638439
 30
0.0
 40
6.5
100
AcDbArc
 50
0.0
 51
82.0
  0
LINE
  5
96
100
AcDbEntity
  8
D-STR
  6
CONTINUOUS
 62
       1
100
AcDbLine
 10
89.94074969
 20
3814.52049451
 30
0.0
 11
131.40462516
 21
3808.69312684
 31
0.0
  0
LINE
  5
97
100
AcDbEntity
  8
D-STR
  6
CONTINUOUS
 62
       1
100
AcDbLine
 10
137.0
 20
3802.25638439
 30
0.0
 11
137.0
 21
3798.0
 31
0.0
  0
ARC
  5
98
100
AcDbEntity
  8
D-STR
  6
CONTINUOUS
 62
       1
100
AcDbCircle
 10
18.5
 20
3802.25638439
 30
0.0
 40
6.5
100
AcDbArc
 50
98.0
 51
180.0
  0
LINE
  5
99
100
AcDbEntity
  8
D-STR
  6
CONTINUOUS
 62
       1
100
AcDbLine
 10
59.05925031
 20
3814.52049451
 30
0.0
 11
17.59537484
 21
3808.69312684
 31
0.0
  0
LINE
  5
9A
100
AcDbEntity
  8
D-STR
  6
CONTINUOUS
 62
       1
100
AcDbLine
 10
12.0
 20
3802.25638439
 30
0.0
 11
12.0
 21
3798.0
 31
0.0
  0
LINE
  5
9B
100
AcDbEntity
  8
D-STR
  6
CONTINUOUS
 62
       1
100
AcDbLine
 10
70.25
 20
3918.6060206
 30
0.0
 11
70.25
 21
3827.3939794
 31
0.0
  0
LINE
  5
9C
100
AcDbEntity
  8
D-STR
  6
CONTINUOUS
 62
       1
100
AcDbLine
 10
78.75
 20
3918.6060206
 30
0.0
 11
78.75
 21
3827.3939794
 31
0.0
  0
ARC
  5
9D
100
AcDbEntity
  8
D-STR
  6
CONTINUOUS
 62
       1
100
AcDbCircle
 10
91.75
 20
3918.6060206
 30
0.0
 40
13.0
100
AcDbArc
 50
98.0
 51
180.0
  0
ARC
  5
9E
100
AcDbEntity
  8
D-STR
  6
CONTINUOUS
 62
       1
100
AcDbCircle
 10
57.25
 20
3918.6060206
 30
0.0
 40
13.0
100
AcDbArc
 50
0.0
 51
82.0
  0
LINE
  5
9F
100
AcDbEntity
  8
D-STR
  6
CONTINUOUS
 62
       1
100
AcDbLine
 10
137.0
 20
3948.0
 30
0.0
 11
12.0
 21
3948.0
 31
0.0
  0
LINE
  5
A0
100
AcDbEntity
  8
D-STR
  6
CONTINUOUS
 62
       1
100
AcDbLine
 10
89.94074969
 20
3931.47950549
 30
0.0
 11
131.40462516
 21
3937.30687316
 31
0.0
  0
LINE
  5
A1
100
AcDbEntity
  8
D-STR
  6
CONTINUOUS
 62
       1
100
AcDbLine
 10
137.0
 20
3948.0
 30
0.0
 11
137.0
 21
3943.74361561
 31
0.0
  0
ARC
  5
A2
100
AcDbEntity
  8
D-STR
  6
CONTINUOUS
 62
       1
100
AcDbCircle
 10
130.5
 20
3943.74361561
 30
0.0
 40
6.5
100
AcDbArc
 50
278.0
 51
360.0
  0
LINE
  5
A3
100
AcDbEntity
  8
D-STR
  6
CONTINUOUS
 62
       1
100
AcDbLine
 10
59.05925031
 20
3931.47950549
 30
0.0
 11
17.59537484
 21
3937.30687316
 31
0.0
  0
LINE
  5
A4
100
AcDbEntity
  8
D-STR
  6
CONTINUOUS
 62
       1
100
AcDbLine
 10
12.0
 20
3948.0
 30
0.0
 11
12.0
 21
3943.74361561
 31
0.0
  0
ARC
  5
A5
100
AcDbEntity
  8
D-STR
  6
CONTINUOUS
 62
       1
100
AcDbCircle
 10
18.5
 20
3943.74361561
 30
0.0
 40
6.5
100
AcDbArc
 50
180.0
 51
262.0
  0
ENDBLK
  5
A6
100
AcDbEntity
  8
0
100
AcDbBlockEnd
  0
BLOCK
  5
A7
100
AcDbEntity
  8
0
100
AcDbBlockBegin
  2
GROUP_5
 70
       0
 10
0.0
 20
0.0
 30
0.0
  3
GROUP_5
  1

  0
LINE
  5
A8
100
AcDbEntity
  8
D-STR
  6
CONTINUOUS
 62
       1
100
AcDbLine
 10
-328.5
 20
3686.00442301
 30
0.0
 11
-328.5
 21
3549.99557699
 31
0.0
  0
LINE
  5
A9
100
AcDbEntity
  8
D-STR
  6
CONTINUOUS
 62
       1
100
AcDbLine
 10
-322.5
 20
3686.00442301
 30
0.0
 11
-322.5
 21
3549.99557699
 31
0.0
  0
LINE
  5
AA
100
AcDbEntity
  8
D-STR
  6
CONTINUOUS
 62
       1
100
AcDbLine
 10
-337.10826899
 20
3540.09289631
 30
0.0
 11
-371.1958655
 21
3535.30219704
 31
0.0
  0
LINE
  5
AB
100
AcDbEntity
  8
D-STR
  6
CONTINUOUS
 62
       1
100
AcDbLine
 10
-275.5
 20
3528.0
 30
0.0
 11
-375.5
 21
3528.0
 31
0.0
  0
LINE
  5
AC
100
AcDbEntity
  8
D-STR
  6
CONTINUOUS
 62
       1
100
AcDbLine
 10
-313.89173101
 20
3540.09289631
 30
0.0
 11
-279.8041345
 21
3535.30219704
 31
0.0
  0
LINE
  5
AD
100
AcDbEntity
  8
D-STR
  6
CONTINUOUS
 62
       1
100
AcDbLine
 10
-275.5
 20
3530.3508567
 30
0.0
 11
-275.5
 21
3528.0
 31
0.0
  0
ARC
  5
AE
100
AcDbEntity
  8
D-STR
  6
CONTINUOUS
 62
       1
100
AcDbCircle
 10
-280.5
 20
3530.3508567
 30
0.0
 40
5.0
100
AcDbArc
 50
0.0
 51
82.0
  0
ARC
  5
AF
100
AcDbEntity
  8
D-STR
  6
CONTINUOUS
 62
       1
100
AcDbCircle
 10
-312.5
 20
3549.99557699
 30
0.0
 40
10.0
100
AcDbArc
 50
180.0
 51
262.0
  0
ARC
  5
B0
100
AcDbEntity
  8
D-STR
  6
CONTINUOUS
 62
       1
100
AcDbCircle
 10
-338.5
 20
3549.99557699
 30
0.0
 40
10.0
100
AcDbArc
 50
278.0
 51
360.0
  0
LINE
  5
B1
100
AcDbEntity
  8
D-STR
  6
CONTINUOUS
 62
       1
100
AcDbLine
 10
-375.5
 20
3530.3508567
 30
0.0
 11
-375.5
 21
3528.0
 31
0.0
  0
ARC
  5
B2
100
AcDbEntity
  8
D-STR
  6
CONTINUOUS
 62
       1
100
AcDbCircle
 10
-370.5
 20
3530.3508567
 30
0.0
 40
5.0
100
AcDbArc
 50
98.0
 51
180.0
  0
LINE
  5
B3
100
AcDbEntity
  8
D-STR
  6
CONTINUOUS
 62
       1
100
AcDbLine
 10
-337.10826899
 20
3695.90710369
 30
0.0
 11
-371.1958655
 21
3700.69780296
 31
0.0
  0
LINE
  5
B4
100
AcDbEntity
  8
D-STR
  6
CONTINUOUS
 62
       1
100
AcDbLine
 10
-275.5
 20
3708.0
 30
0.0
 11
-375.5
 21
3708.0
 31
0.0
  0
LINE
  5
B5
100
AcDbEntity
  8
D-STR
  6
CONTINUOUS
 62
       1
100
AcDbLine
 10
-313.89173101
 20
3695.90710369
 30
0.0
 11
-279.8041345
 21
3700.69780296
 31
0.0
  0
LINE
  5
B6
100
AcDbEntity
  8
D-STR
  6
CONTINUOUS
 62
       1
100
AcDbLine
 10
-275.5
 20
3708.0
 30
0.0
 11
-275.5
 21
3705.6491433
 31
0.0
  0
ARC
  5
B7
100
AcDbEntity
  8
D-STR
  6
CONTINUOUS
 62
       1
100
AcDbCircle
 10
-280.5
 20
3705.6491433
 30
0.0
 40
5.0
100
AcDbArc
 50
278.0
 51
360.0
  0
ARC
  5
B8
100
AcDbEntity
  8
D-STR
  6
CONTINUOUS
 62
       1
100
AcDbCircle
 10
-312.5
 20
3686.00442301
 30
0.0
 40
10.0
100
AcDbArc
 50
98.0
 51
180.0
  0
ARC
  5
B9
100
AcDbEntity
  8
D-STR
  6
CONTINUOUS
 62
       1
100
AcDbCircle
 10
-338.5
 20
3686.00442301
 30
0.0
 40
10.0
100
AcDbArc
 50
0.0
 51
82.0
  0
LINE
  5
BA
100
AcDbEntity
  8
D-STR
  6
CONTINUOUS
 62
       1
100
AcDbLine
 10
-375.5
 20
3708.0
 30
0.0
 11
-375.5
 21
3705.6491433
 31
0.0
  0
ARC
  5
BB
100
AcDbEntity
  8
D-STR
  6
CONTINUOUS
 62
       1
100
AcDbCircle
 10
-370.5
 20
3705.6491433
 30
0.0
 40
5.0
100
AcDbArc
 50
180.0
 51
262.0
  0
ENDBLK
  5
BC
100
AcDbEntity
  8
0
100
AcDbBlockEnd
  0
BLOCK
  5
BD
100
AcDbEntity
  8
0
100
AcDbBlockBegin
  2
GROUP_6
 70
       0
 10
0.0
 20
0.0
 30
0.0
  3
GROUP_6
  1

  0
LINE
  5
BE
100
AcDbEntity
  8
D-STR
  6
CONTINUOUS
 62
       1
100
AcDbLine
 10
-337.60826899
 20
3415.9422389
 30
0.0
 11
-371.1958655
 21
3420.66266775
 31
0.0
  0
LINE
  5
BF
100
AcDbEntity
  8
D-STR
  6
CONTINUOUS
 62
       1
100
AcDbLine
 10
-275.5
 20
3428.0
 30
0.0
 11
-375.5
 21
3428.0
 31
0.0
  0
LINE
  5
C0
100
AcDbEntity
  8
D-STR
  6
CONTINUOUS
 62
       1
100
AcDbLine
 10
-337.60826899
 20
3240.0577611
 30
0.0
 11
-371.1958655
 21
3235.33733225
 31
0.0
  0
LINE
  5
C1
100
AcDbEntity
  8
D-STR
  6
CONTINUOUS
 62
       1
100
AcDbLine
 10
-275.5
 20
3228.0
 30
0.0
 11
-375.5
 21
3228.0
 31
0.0
  0
LINE
  5
C2
100
AcDbEntity
  8
D-STR
  6
CONTINUOUS
 62
       1
100
AcDbLine
 10
-329.0
 20
3406.03955822
 30
0.0
 11
-329.0
 21
3249.96044178
 31
0.0
  0
LINE
  5
C3
100
AcDbEntity
  8
D-STR
  6
CONTINUOUS
 62
       1
100
AcDbLine
 10
-322.0
 20
3406.03955822
 30
0.0
 11
-322.0
 21
3249.96044178
 31
0.0
  0
ARC
  5
C4
100
AcDbEntity
  8
D-STR
  6
CONTINUOUS
 62
       1
100
AcDbCircle
 10
-280.5
 20
3230.3859919
 30
0.0
 40
5.0
100
AcDbArc
 50
0.0
 51
82.0
  0
ARC
  5
C5
100
AcDbEntity
  8
D-STR
  6
CONTINUOUS
 62
       1
100
AcDbCircle
 10
-339.0
 20
3249.96044178
 30
0.0
 40
10.0
100
AcDbArc
 50
278.0
 51
360.0
  0
ARC
  5
C6
100
AcDbEntity
  8
D-STR
  6
CONTINUOUS
 62
       1
100
AcDbCircle
 10
-312.0
 20
3249.96044178
 30
0.0
 40
10.0
100
AcDbArc
 50
180.0
 51
262.0
  0
LINE
  5
C7
100
AcDbEntity
  8
D-STR
  6
CONTINUOUS
 62
       1
100
AcDbLine
 10
-313.39173101
 20
3240.0577611
 30
0.0
 11
-279.8041345
 21
3235.33733225
 31
0.0
  0
LINE
  5
C8
100
AcDbEntity
  8
D-STR
  6
CONTINUOUS
 62
       1
100
AcDbLine
 10
-275.5
 20
3230.3859919
 30
0.0
 11
-275.5
 21
3228.0
 31
0.0
  0
ARC
  5
C9
100
AcDbEntity
  8
D-STR
  6
CONTINUOUS
 62
       1
100
AcDbCircle
 10
-312.0
 20
3406.03955822
 30
0.0
 40
10.0
100
AcDbArc
 50
98.0
 51
180.0
  0
ARC
  5
CA
100
AcDbEntity
  8
D-STR
  6
CONTINUOUS
 62
       1
100
AcDbCircle
 10
-339.0
 20
3406.03955822
 30
0.0
 40
10.0
100
AcDbArc
 50
0.0
 51
82.0
  0
ARC
  5
CB
100
AcDbEntity
  8
D-STR
  6
CONTINUOUS
 62
       1
100
AcDbCircle
 10
-280.5
 20
3425.6140081
 30
0.0
 40
5.0
100
AcDbArc
 50
278.0
 51
360.0
  0
LINE
  5
CC
100
AcDbEntity
  8
D-STR
  6
CONTINUOUS
 62
       1
100
AcDbLine
 10
-313.39173101
 20
3415.9422389
 30
0.0
 11
-279.8041345
 21
3420.66266775
 31
0.0
  0
LINE
  5
CD
100
AcDbEntity
  8
D-STR
  6
CONTINUOUS
 62
       1
100
AcDbLine
 10
-275.5
 20
3428.0
 30
0.0
 11
-275.5
 21
3425.6140081
 31
0.0
  0
LINE
  5
CE
100
AcDbEntity
  8
D-STR
  6
CONTINUOUS
 62
       1
100
AcDbLine
 10
-375.5
 20
3230.3859919
 30
0.0
 11
-375.5
 21
3228.0
 31
0.0
  0
ARC
  5
CF
100
AcDbEntity
  8
D-STR
  6
CONTINUOUS
 62
       1
100
AcDbCircle
 10
-370.5
 20
3230.3859919
 30
0.0
 40
5.0
100
AcDbArc
 50
98.0
 51
180.0
  0
LINE
  5
D0
100
AcDbEntity
  8
D-STR
  6
CONTINUOUS
 62
       1
100
AcDbLine
 10
-375.5
 20
3428.0
 30
0.0
 11
-375.5
 21
3425.6140081
 31
0.0
  0
ARC
  5
D1
100
AcDbEntity
  8
D-STR
  6
CONTINUOUS
 62
       1
100
AcDbCircle
 10
-370.5
 20
3425.6140081
 30
0.0
 40
5.0
100
AcDbArc
 50
180.0
 51
262.0
  0
ENDBLK
  5
D2
100
AcDbEntity
  8
0
100
AcDbBlockEnd
  0
BLOCK
  5
D3
100
AcDbEntity
  8
0
100
AcDbBlockBegin
  2
GROUP_7
 70
       0
 10
0.0
 20
0.0
 30
0.0
  3
GROUP_7
  1

  0
ARC
  5
D4
100
AcDbEntity
  8
D-STR
  6
CONTINUOUS
 62
       1
100
AcDbCircle
 10
55.0
 20
3261.99336549
 30
0.0
 40
15.0
100
AcDbArc
 50
278.0
 51
360.0
  0
ARC
  5
D5
100
AcDbEntity
  8
D-STR
  6
CONTINUOUS
 62
       1
100
AcDbCircle
 10
94.0
 20
3261.99336549
 30
0.0
 40
15.0
100
AcDbArc
 50
180.0
 51
262.0
  0
LINE
  5
D6
100
AcDbEntity
  8
D-STR
  6
CONTINUOUS
 62
       1
100
AcDbLine
 10
91.91240349
 20
3247.13934446
 30
0.0
 11
143.04379826
 21
3239.95329556
 31
0.0
  0
LINE
  5
D7
100
AcDbEntity
  8
D-STR
  6
CONTINUOUS
 62
       1
100
AcDbLine
 10
149.5
 20
3228.0
 30
0.0
 11
-0.5
 21
3228.0
 31
0.0
  0
ARC
  5
D8
100
AcDbEntity
  8
D-STR
  6
CONTINUOUS
 62
       1
100
AcDbCircle
 10
142.0
 20
3232.52628504
 30
0.0
 40
7.5
100
AcDbArc
 50
0.0
 51
82.0
  0
LINE
  5
D9
100
AcDbEntity
  8
D-STR
  6
CONTINUOUS
 62
       1
100
AcDbLine
 10
149.5
 20
3232.52628504
 30
0.0
 11
149.5
 21
3228.0
 31
0.0
  0
LINE
  5
DA
100
AcDbEntity
  8
D-STR
  6
CONTINUOUS
 62
       1
100
AcDbLine
 10
57.08759651
 20
3247.13934446
 30
0.0
 11
5.95620174
 21
3239.95329556
 31
0.0
  0
ARC
  5
DB
100
AcDbEntity
  8
D-STR
  6
CONTINUOUS
 62
       1
100
AcDbCircle
 10
7.0
 20
3232.52628504
 30
0.0
 40
7.5
100
AcDbArc
 50
98.0
 51
180.0
  0
LINE
  5
DC
100
AcDbEntity
  8
D-STR
  6
CONTINUOUS
 62
       1
100
AcDbLine
 10
-0.5
 20
3232.52628504
 30
0.0
 11
-0.5
 21
3228.0
 31
0.0
  0
LINE
  5
DD
100
AcDbEntity
  8
D-STR
  6
CONTINUOUS
 62
       1
100
AcDbLine
 10
70.0
 20
3394.00663451
 30
0.0
 11
70.0
 21
3261.99336549
 31
0.0
  0
LINE
  5
DE
100
AcDbEntity
  8
D-STR
  6
CONTINUOUS
 62
       1
100
AcDbLine
 10
79.0
 20
3394.00663451
 30
0.0
 11
79.0
 21
3261.99336549
 31
0.0
  0
LINE
  5
DF
100
AcDbEntity
  8
D-STR
  6
CONTINUOUS
 62
       1
100
AcDbLine
 10
149.5
 20
3428.0
 30
0.0
 11
-0.5
 21
3428.0
 31
0.0
  0
LINE
  5
E0
100
AcDbEntity
  8
D-STR
  6
CONTINUOUS
 62
       1
100
AcDbLine
 10
91.91240349
 20
3408.86065554
 30
0.0
 11
143.04379826
 21
3416.04670444
 31
0.0
  0
LINE
  5
E1
100
AcDbEntity
  8
D-STR
  6
CONTINUOUS
 62
       1
100
AcDbLine
 10
149.5
 20
3428.0
 30
0.0
 11
149.5
 21
3423.47371496
 31
0.0
  0
ARC
  5
E2
100
AcDbEntity
  8
D-STR
  6
CONTINUOUS
 62
       1
100
AcDbCircle
 10
142.0
 20
3423.47371496
 30
0.0
 40
7.5
100
AcDbArc
 50
278.0
 51
360.0
  0
LINE
  5
E3
100
AcDbEntity
  8
D-STR
  6
CONTINUOUS
 62
       1
100
AcDbLine
 10
57.08759651
 20
3408.86065554
 30
0.0
 11
5.95620174
 21
3416.04670444
 31
0.0
  0
ARC
  5
E4
100
AcDbEntity
  8
D-STR
  6
CONTINUOUS
 62
       1
100
AcDbCircle
 10
94.0
 20
3394.00663451
 30
0.0
 40
15.0
100
AcDbArc
 50
98.0
 51
180.0
  0
ARC
  5
E5
100
AcDbEntity
  8
D-STR
  6
CONTINUOUS
 62
       1
100
AcDbCircle
 10
55.0
 20
3394.00663451
 30
0.0
 40
15.0
100
AcDbArc
 50
0.0
 51
82.0
  0
LINE
  5
E6
100
AcDbEntity
  8
D-STR
  6
CONTINUOUS
 62
       1
100
AcDbLine
 10
-0.5
 20
3428.0
 30
0.0
 11
-0.5
 21
3423.47371496
 31
0.0
  0
ARC
  5
E7
100
AcDbEntity
  8
D-STR
  6
CONTINUOUS
 62
       1
100
AcDbCircle
 10
7.0
 20
3423.47371496
 30
0.0
 40
7.5
100
AcDbArc
 50
180.0
 51
262.0
  0
ENDBLK
  5
E8
100
AcDbEntity
  8
0
100
AcDbBlockEnd
  0
BLOCK
  5
E9
100
AcDbEntity
  8
0
100
AcDbBlockBegin
  2
GROUP_8
 70
       0
 10
0.0
 20
0.0
 30
0.0
  3
GROUP_8
  1

  0
ARC
  5
EA
100
AcDbEntity
  8
D-STR
  6
CONTINUOUS
 62
       1
100
AcDbCircle
 10
-309.75
 20
2880.05982787
 30
0.0
 40
12.0
100
AcDbArc
 50
180.0
 51
262.0
  0
ARC
  5
EB
100
AcDbEntity
  8
D-STR
  6
CONTINUOUS
 62
       1
100
AcDbCircle
 10
-341.25
 20
2880.05982787
 30
0.0
 40
12.0
100
AcDbArc
 50
278.0
 51
360.0
  0
LINE
  5
EC
100
AcDbEntity
  8
D-STR
  6
CONTINUOUS
 62
       1
100
AcDbLine
 10
-311.42007721
 20
2868.17661105
 30
0.0
 11
-268.16496139
 21
2862.09750097
 31
0.0
  0
LINE
  5
ED
100
AcDbEntity
  8
D-STR
  6
CONTINUOUS
 62
       1
100
AcDbLine
 10
-263.0
 20
2853.0
 30
0.0
 11
-388.0
 21
2853.0
 31
0.0
  0
LINE
  5
EE
100
AcDbEntity
  8
D-STR
  6
CONTINUOUS
 62
       1
100
AcDbLine
 10
-263.0
 20
2856.15589255
 30
0.0
 11
-263.0
 21
2853.0
 31
0.0
  0
ARC
  5
EF
100
AcDbEntity
  8
D-STR
  6
CONTINUOUS
 62
       1
100
AcDbCircle
 10
-269.0
 20
2856.15589255
 30
0.0
 40
6.0
100
AcDbArc
 50
0.0
 51
82.0
  0
LINE
  5
F0
100
AcDbEntity
  8
D-STR
  6
CONTINUOUS
 62
       1
100
AcDbLine
 10
-339.57992279
 20
2868.17661105
 30
0.0
 11
-382.83503861
 21
2862.09750097
 31
0.0
  0
ARC
  5
F1
100
AcDbEntity
  8
D-STR
  6
CONTINUOUS
 62
       1
100
AcDbCircle
 10
-382.0
 20
2856.15589255
 30
0.0
 40
6.0
100
AcDbArc
 50
98.0
 51
180.0
  0
LINE
  5
F2
100
AcDbEntity
  8
D-STR
  6
CONTINUOUS
 62
       1
100
AcDbLine
 10
-388.0
 20
2856.15589255
 30
0.0
 11
-388.0
 21
2853.0
 31
0.0
  0
LINE
  5
F3
100
AcDbEntity
  8
D-STR
  6
CONTINUOUS
 62
       1
100
AcDbLine
 10
-329.25
 20
3075.94017213
 30
0.0
 11
-329.25
 21
2880.05982787
 31
0.0
  0
LINE
  5
F4
100
AcDbEntity
  8
D-STR
  6
CONTINUOUS
 62
       1
100
AcDbLine
 10
-321.75
 20
3075.94017213
 30
0.0
 11
-321.75
 21
2880.05982787
 31
0.0
  0
LINE
  5
F5
100
AcDbEntity
  8
D-STR
  6
CONTINUOUS
 62
       1
100
AcDbLine
 10
-263.0
 20
3103.0
 30
0.0
 11
-388.0
 21
3103.0
 31
0.0
  0
LINE
  5
F6
100
AcDbEntity
  8
D-STR
  6
CONTINUOUS
 62
       1
100
AcDbLine
 10
-311.42007721
 20
3087.82338895
 30
0.0
 11
-268.16496139
 21
3093.90249903
 31
0.0
  0
LINE
  5
F7
100
AcDbEntity
  8
D-STR
  6
CONTINUOUS
 62
       1
100
AcDbLine
 10
-263.0
 20
3103.0
 30
0.0
 11
-263.0
 21
3099.84410745
 31
0.0
  0
ARC
  5
F8
100
AcDbEntity
  8
D-STR
  6
CONTINUOUS
 62
       1
100
AcDbCircle
 10
-269.0
 20
3099.84410745
 30
0.0
 40
6.0
100
AcDbArc
 50
278.0
 51
360.0
  0
LINE
  5
F9
100
AcDbEntity
  8
D-STR
  6
CONTINUOUS
 62
       1
100
AcDbLine
 10
-388.0
 20
3103.0
 30
0.0
 11
-388.0
 21
3099.84410745
 31
0.0
  0
LINE
  5
FA
100
AcDbEntity
  8
D-STR
  6
CONTINUOUS
 62
       1
100
AcDbLine
 10
-339.57992279
 20
3087.82338895
 30
0.0
 11
-382.83503861
 21
3093.90249903
 31
0.0
  0
ARC
  5
FB
100
AcDbEntity
  8
D-STR
  6
CONTINUOUS
 62
       1
100
AcDbCircle
 10
-309.75
 20
3075.94017213
 30
0.0
 40
12.0
100
AcDbArc
 50
98.0
 51
180.0
  0
ARC
  5
FC
100
AcDbEntity
  8
D-STR
  6
CONTINUOUS
 62
       1
100
AcDbCircle
 10
-341.25
 20
3075.94017213
 30
0.0
 40
12.0
100
AcDbArc
 50
0.0
 51
82.0
  0
ARC
  5
FD
100
AcDbEntity
  8
D-STR
  6
CONTINUOUS
 62
       1
100
AcDbCircle
 10
-382.0
 20
3099.84410745
 30
0.0
 40
6.0
100
AcDbArc
 50
180.0
 51
262.0
  0
ENDBLK
  5
FE
100
AcDbEntity
  8
0
100
AcDbBlockEnd
  0
BLOCK
  5
FF
100
AcDbEntity
  8
0
100
AcDbBlockBegin
  2
GROUP_9
 70
       0
 10
0.0
 20
0.0
 30
0.0
  3
GROUP_9
  1

  0
ARC
  5
100
100
AcDbEntity
  8
D-STR
  6
CONTINUOUS
 62
       1
100
AcDbCircle
 10
-341.5
 20
2431.42064049
 30
0.0
 40
12.0
100
AcDbArc
 50
278.0
 51
360.0
  0
ARC
  5
101
100
AcDbEntity
  8
D-STR
  6
CONTINUOUS
 62
       1
100
AcDbCircle
 10
-309.5
 20
2431.42064049
 30
0.0
 40
12.0
100
AcDbArc
 50
180.0
 51
262.0
  0
LINE
  5
102
100
AcDbEntity
  8
D-STR
  6
CONTINUOUS
 62
       1
100
AcDbLine
 10
-339.82992279
 20
2419.53742366
 30
0.0
 11
-395.33503861
 21
2411.73668835
 31
0.0
  0
LINE
  5
103
100
AcDbEntity
  8
D-STR
  6
CONTINUOUS
 62
       1
100
AcDbLine
 10
-250.5
 20
2403.0
 30
0.0
 11
-400.5
 21
2403.0
 31
0.0
  0
LINE
  5
104
100
AcDbEntity
  8
D-STR
  6
CONTINUOUS
 62
       1
100
AcDbLine
 10
-311.17007721
 20
2419.53742366
 30
0.0
 11
-255.66496139
 21
2411.73668835
 31
0.0
  0
ARC
  5
105
100
AcDbEntity
  8
D-STR
  6
CONTINUOUS
 62
       1
100
AcDbCircle
 10
-256.5
 20
2405.79507994
 30
0.0
 40
6.0
100
AcDbArc
 50
0.0
 51
82.0
  0
LINE
  5
106
100
AcDbEntity
  8
D-STR
  6
CONTINUOUS
 62
       1
100
AcDbLine
 10
-250.5
 20
2405.79507994
 30
0.0
 11
-250.5
 21
2403.0
 31
0.0
  0
ARC
  5
107
100
AcDbEntity
  8
D-STR
  6
CONTINUOUS
 62
       1
100
AcDbCircle
 10
-394.5
 20
2405.79507994
 30
0.0
 40
6.0
100
AcDbArc
 50
98.0
 51
180.0
  0
LINE
  5
108
100
AcDbEntity
  8
D-STR
  6
CONTINUOUS
 62
       1
100
AcDbLine
 10
-400.5
 20
2405.79507994
 30
0.0
 11
-400.5
 21
2403.0
 31
0.0
  0
ARC
  5
109
100
AcDbEntity
  8
D-STR
  6
CONTINUOUS
 62
       1
100
AcDbCircle
 10
-309.5
 20
2674.57935951
 30
0.0
 40
12.0
100
AcDbArc
 50
98.0
 51
180.0
  0
ARC
  5
10A
100
AcDbEntity
  8
D-STR
  6
CONTINUOUS
 62
       1
100
AcDbCircle
 10
-341.5
 20
2674.57935951
 30
0.0
 40
12.0
100
AcDbArc
 50
0.0
 51
82.0
  0
LINE
  5
10B
100
AcDbEntity
  8
D-STR
  6
CONTINUOUS
 62
       1
100
AcDbLine
 10
-329.5
 20
2674.57935951
 30
0.0
 11
-329.5
 21
2431.42064049
 31
0.0
  0
LINE
  5
10C
100
AcDbEntity
  8
D-STR
  6
CONTINUOUS
 62
       1
100
AcDbLine
 10
-321.5
 20
2674.57935951
 30
0.0
 11
-321.5
 21
2431.42064049
 31
0.0
  0
LINE
  5
10D
100
AcDbEntity
  8
D-STR
  6
CONTINUOUS
 62
       1
100
AcDbLine
 10
-339.82992279
 20
2686.46257634
 30
0.0
 11
-395.33503861
 21
2694.26331165
 31
0.0
  0
LINE
  5
10E
100
AcDbEntity
  8
D-STR
  6
CONTINUOUS
 62
       1
100
AcDbLine
 10
-250.5
 20
2703.0
 30
0.0
 11
-400.5
 21
2703.0
 31
0.0
  0
LINE
  5
10F
100
AcDbEntity
  8
D-STR
  6
CONTINUOUS
 62
       1
100
AcDbLine
 10
-311.17007721
 20
2686.46257634
 30
0.0
 11
-255.66496139
 21
2694.26331165
 31
0.0
  0
ARC
  5
110
100
AcDbEntity
  8
D-STR
  6
CONTINUOUS
 62
       1
100
AcDbCircle
 10
-256.5
 20
2700.20492006
 30
0.0
 40
6.0
100
AcDbArc
 50
278.0
 51
360.0
  0
LINE
  5
111
100
AcDbEntity
  8
D-STR
  6
CONTINUOUS
 62
       1
100
AcDbLine
 10
-250.5
 20
2703.0
 30
0.0
 11
-250.5
 21
2700.20492006
 31
0.0
  0
ARC
  5
112
100
AcDbEntity
  8
D-STR
  6
CONTINUOUS
 62
       1
100
AcDbCircle
 10
-394.5
 20
2700.20492006
 30
0.0
 40
6.0
100
AcDbArc
 50
180.0
 51
262.0
  0
LINE
  5
113
100
AcDbEntity
  8
D-STR
  6
CONTINUOUS
 62
       1
100
AcDbLine
 10
-400.5
 20
2703.0
 30
0.0
 11
-400.5
 21
2700.20492006
 31
0.0
  0
ENDBLK
  5
114
100
AcDbEntity
  8
0
100
AcDbBlockEnd
  0
BLOCK
  5
115
100
AcDbEntity
  8
0
100
AcDbBlockBegin
  2
GROUP_10
 70
       0
 10
0.0
 20
0.0
 30
0.0
  3
GROUP_10
  1

  0
ARC
  5
116
100
AcDbEntity
  8
D-STR
  6
CONTINUOUS
 62
       1
100
AcDbCircle
 10
-308.0
 20
1909.25479201
 30
0.0
 40
13.0
100
AcDbArc
 50
180.0
 51
262.0
  0
ARC
  5
117
100
AcDbEntity
  8
D-STR
  6
CONTINUOUS
 62
       1
100
AcDbCircle
 10
-343.0
 20
1909.25479201
 30
0.0
 40
13.0
100
AcDbArc
 50
278.0
 51
360.0
  0
LINE
  5
118
100
AcDbEntity
  8
D-STR
  6
CONTINUOUS
 62
       1
100
AcDbLine
 10
-250.5
 20
1878.0
 30
0.0
 11
-400.5
 21
1878.0
 31
0.0
  0
LINE
  5
119
100
AcDbEntity
  8
D-STR
  6
CONTINUOUS
 62
       1
100
AcDbLine
 10
-309.80925031
 20
1896.38130712
 30
0.0
 11
-256.09537484
 21
1888.83231423
 31
0.0
  0
ARC
  5
11A
100
AcDbEntity
  8
D-STR
  6
CONTINUOUS
 62
       1
100
AcDbCircle
 10
-257.0
 20
1882.39557178
 30
0.0
 40
6.5
100
AcDbArc
 50
0.0
 51
82.0
  0
LINE
  5
11B
100
AcDbEntity
  8
D-STR
  6
CONTINUOUS
 62
       1
100
AcDbLine
 10
-250.5
 20
1878.0
 30
0.0
 11
-250.5
 21
1882.39557178
 31
0.0
  0
ARC
  5
11C
100
AcDbEntity
  8
D-STR
  6
CONTINUOUS
 62
       1
100
AcDbCircle
 10
-394.0
 20
1882.39557178
 30
0.0
 40
6.5
100
AcDbArc
 50
98.0
 51
180.0
  0
LINE
  5
11D
100
AcDbEntity
  8
D-STR
  6
CONTINUOUS
 62
       1
100
AcDbLine
 10
-400.5
 20
1878.0
 30
0.0
 11
-400.5
 21
1882.39557178
 31
0.0
  0
LINE
  5
11E
100
AcDbEntity
  8
D-STR
  6
CONTINUOUS
 62
       1
100
AcDbLine
 10
-341.19074969
 20
1896.38130712
 30
0.0
 11
-394.90462516
 21
1888.83231423
 31
0.0
  0
LINE
  5
11F
100
AcDbEntity
  8
D-STR
  6
CONTINUOUS
 62
       1
100
AcDbLine
 10
-330.0
 20
2196.74520799
 30
0.0
 11
-330.0
 21
1909.25479201
 31
0.0
  0
LINE
  5
120
100
AcDbEntity
  8
D-STR
  6
CONTINUOUS
 62
       1
100
AcDbLine
 10
-321.0
 20
2196.74520799
 30
0.0
 11
-321.0
 21
1909.25479201
 31
0.0
  0
ARC
  5
121
100
AcDbEntity
  8
D-STR
  6
CONTINUOUS
 62
       1
100
AcDbCircle
 10
-394.0
 20
2223.60442822
 30
0.0
 40
6.5
100
AcDbArc
 50
180.0
 51
262.0
  0
ARC
  5
122
100
AcDbEntity
  8
D-STR
  6
CONTINUOUS
 62
       1
100
AcDbCircle
 10
-257.0
 20
2223.60442822
 30
0.0
 40
6.5
100
AcDbArc
 50
278.0
 51
360.0
  0
ARC
  5
123
100
AcDbEntity
  8
D-STR
  6
CONTINUOUS
 62
       1
100
AcDbCircle
 10
-343.0
 20
2196.74520799
 30
0.0
 40
13.0
100
AcDbArc
 50
0.0
 51
82.0
  0
LINE
  5
124
100
AcDbEntity
  8
D-STR
  6
CONTINUOUS
 62
       1
100
AcDbLine
 10
-309.80925031
 20
2209.61869288
 30
0.0
 11
-256.09537484
 21
2217.16768577
 31
0.0
  0
ARC
  5
125
100
AcDbEntity
  8
D-STR
  6
CONTINUOUS
 62
       1
100
AcDbCircle
 10
-308.0
 20
2196.74520799
 30
0.0
 40
13.0
100
AcDbArc
 50
98.0
 51
180.0
  0
LINE
  5
126
100
AcDbEntity
  8
D-STR
  6
CONTINUOUS
 62
       1
100
AcDbLine
 10
-341.19074969
 20
2209.61869288
 30
0.0
 11
-394.90462516
 21
2217.16768577
 31
0.0
  0
LINE
  5
127
100
AcDbEntity
  8
D-STR
  6
CONTINUOUS
 62
       1
100
AcDbLine
 10
-250.5
 20
2228.0
 30
0.0
 11
-400.5
 21
2228.0
 31
0.0
  0
LINE
  5
128
100
AcDbEntity
  8
D-STR
  6
CONTINUOUS
 62
       1
100
AcDbLine
 10
-250.5
 20
2228.0
 30
0.0
 11
-250.5
 21
2223.60442822
 31
0.0
  0
LINE
  5
129
100
AcDbEntity
  8
D-STR
  6
CONTINUOUS
 62
       1
100
AcDbLine
 10
-400.5
 20
2228.0
 30
0.0
 11
-400.5
 21
2223.60442822
 31
0.0
  0
ENDBLK
  5
12A
100
AcDbEntity
  8
0
100
AcDbBlockEnd
  0
BLOCK
  5
12B
100
AcDbEntity
  8
0
100
AcDbBlockBegin
  2
GROUP_11
 70
       0
 10
0.0
 20
0.0
 30
0.0
  3
GROUP_11
  1

  0
ARC
  5
12C
100
AcDbEntity
  8
D-STR
  6
CONTINUOUS
 62
       1
100
AcDbCircle
 10
-303.5
 20
1315.69680376
 30
0.0
 40
17.0
100
AcDbArc
 50
180.0
 51
262.0
  0
ARC
  5
12D
100
AcDbEntity
  8
D-STR
  6
CONTINUOUS
 62
       1
100
AcDbCircle
 10
-347.5
 20
1315.69680376
 30
0.0
 40
17.0
100
AcDbArc
 50
278.0
 51
360.0
  0
LINE
  5
12E
100
AcDbEntity
  8
D-STR
  6
CONTINUOUS
 62
       1
100
AcDbLine
 10
-305.86594272
 20
1298.86224659
 30
0.0
 11
-257.81702864
 21
1292.1094121
 31
0.0
  0
LINE
  5
12F
100
AcDbEntity
  8
D-STR
  6
CONTINUOUS
 62
       1
100
AcDbLine
 10
-250.5
 20
1278.0
 30
0.0
 11
-400.5
 21
1278.0
 31
0.0
  0
ARC
  5
130
100
AcDbEntity
  8
D-STR
  6
CONTINUOUS
 62
       1
100
AcDbCircle
 10
-259.0
 20
1283.69213351
 30
0.0
 40
8.5
100
AcDbArc
 50
0.0
 51
82.0
  0
LINE
  5
131
100
AcDbEntity
  8
D-STR
  6
CONTINUOUS
 62
       1
100
AcDbLine
 10
-250.5
 20
1278.0
 30
0.0
 11
-250.5
 21
1283.69213351
 31
0.0
  0
LINE
  5
132
100
AcDbEntity
  8
D-STR
  6
CONTINUOUS
 62
       1
100
AcDbLine
 10
-345.13405728
 20
1298.86224659
 30
0.0
 11
-393.18297136
 21
1292.1094121
 31
0.0
  0
ARC
  5
133
100
AcDbEntity
  8
D-STR
  6
CONTINUOUS
 62
       1
100
AcDbCircle
 10
-392.0
 20
1283.69213351
 30
0.0
 40
8.5
100
AcDbArc
 50
98.0
 51
180.0
  0
LINE
  5
134
100
AcDbEntity
  8
D-STR
  6
CONTINUOUS
 62
       1
100
AcDbLine
 10
-400.5
 20
1278.0
 30
0.0
 11
-400.5
 21
1283.69213351
 31
0.0
  0
LINE
  5
135
100
AcDbEntity
  8
D-STR
  6
CONTINUOUS
 62
       1
100
AcDbLine
 10
-330.5
 20
1640.30319624
 30
0.0
 11
-330.5
 21
1315.69680376
 31
0.0
  0
LINE
  5
136
100
AcDbEntity
  8
D-STR
  6
CONTINUOUS
 62
       1
100
AcDbLine
 10
-320.5
 20
1640.30319624
 30
0.0
 11
-320.5
 21
1315.69680376
 31
0.0
  0
LINE
  5
137
100
AcDbEntity
  8
D-STR
  6
CONTINUOUS
 62
       1
100
AcDbLine
 10
-250.5
 20
1678.0
 30
0.0
 11
-400.5
 21
1678.0
 31
0.0
  0
LINE
  5
138
100
AcDbEntity
  8
D-STR
  6
CONTINUOUS
 62
       1
100
AcDbLine
 10
-305.86594272
 20
1657.13775341
 30
0.0
 11
-257.81702864
 21
1663.8905879
 31
0.0
  0
ARC
  5
139
100
AcDbEntity
  8
D-STR
  6
CONTINUOUS
 62
       1
100
AcDbCircle
 10
-259.0
 20
1672.30786649
 30
0.0
 40
8.5
100
AcDbArc
 50
278.0
 51
360.0
  0
LINE
  5
13A
100
AcDbEntity
  8
D-STR
  6
CONTINUOUS
 62
       1
100
AcDbLine
 10
-250.5
 20
1678.0
 30
0.0
 11
-250.5
 21
1672.30786649
 31
0.0
  0
ARC
  5
13B
100
AcDbEntity
  8
D-STR
  6
CONTINUOUS
 62
       1
100
AcDbCircle
 10
-303.5
 20
1640.30319624
 30
0.0
 40
17.0
100
AcDbArc
 50
98.0
 51
180.0
  0
ARC
  5
13C
100
AcDbEntity
  8
D-STR
  6
CONTINUOUS
 62
       1
100
AcDbCircle
 10
-347.5
 20
1640.30319624
 30
0.0
 40
17.0
100
AcDbArc
 50
0.0
 51
82.0
  0
LINE
  5
13D
100
AcDbEntity
  8
D-STR
  6
CONTINUOUS
 62
       1
100
AcDbLine
 10
-345.13405728
 20
1657.13775341
 30
0.0
 11
-393.18297136
 21
1663.8905879
 31
0.0
  0
ARC
  5
13E
100
AcDbEntity
  8
D-STR
  6
CONTINUOUS
 62
       1
100
AcDbCircle
 10
-392.0
 20
1672.30786649
 30
0.0
 40
8.5
100
AcDbArc
 50
180.0
 51
262.0
  0
LINE
  5
13F
100
AcDbEntity
  8
D-STR
  6
CONTINUOUS
 62
       1
100
AcDbLine
 10
-400.5
 20
1678.0
 30
0.0
 11
-400.5
 21
1672.30786649
 31
0.0
  0
ENDBLK
  5
140
100
AcDbEntity
  8
0
100
AcDbBlockEnd
  0
BLOCK
  5
141
100
AcDbEntity
  8
0
100
AcDbBlockBegin
  2
GROUP_12
 70
       0
 10
0.0
 20
0.0
 30
0.0
  3
GROUP_12
  1

  0
LINE
  5
142
100
AcDbEntity
  8
D-STR
  6
CONTINUOUS
 62
       1
100
AcDbLine
 10
-413.0
 20
1053.0
 30
0.0
 11
-238.0
 21
1053.0
 31
0.0
  0
LINE
  5
143
100
AcDbEntity
  8
D-STR
  6
CONTINUOUS
 62
       1
100
AcDbLine
 10
-413.0
 20
1047.02039823
 30
0.0
 11
-413.0
 21
1053.0
 31
0.0
  0
LINE
  5
144
100
AcDbEntity
  8
D-STR
  6
CONTINUOUS
 62
       1
100
AcDbLine
 10
-320.0
 20
645.27862224
 30
0.0
 11
-320.0
 21
1010.72137776
 31
0.0
  0
LINE
  5
145
100
AcDbEntity
  8
D-STR
  6
CONTINUOUS
 62
       1
100
AcDbLine
 10
-331.0
 20
645.27862224
 30
0.0
 11
-331.0
 21
1010.72137776
 31
0.0
  0
LINE
  5
146
100
AcDbEntity
  8
D-STR
  6
CONTINUOUS
 62
       1
100
AcDbLine
 10
-347.35571108
 20
1029.53647106
 30
0.0
 11
-404.82214446
 21
1037.61285158
 31
0.0
  0
ARC
  5
147
100
AcDbEntity
  8
D-STR
  6
CONTINUOUS
 62
       1
100
AcDbCircle
 10
-403.5
 20
1047.02039823
 30
0.0
 40
9.5
100
AcDbArc
 50
180.0
 51
262.0
  0
ARC
  5
148
100
AcDbEntity
  8
D-STR
  6
CONTINUOUS
 62
       1
100
AcDbCircle
 10
-350.0
 20
1010.72137776
 30
0.0
 40
19.0
100
AcDbArc
 50
0.0
 51
82.0
  0
LINE
  5
149
100
AcDbEntity
  8
D-STR
  6
CONTINUOUS
 62
       1
100
AcDbLine
 10
-303.64428892
 20
1029.53647106
 30
0.0
 11
-246.17785554
 21
1037.61285158
 31
0.0
  0
LINE
  5
14A
100
AcDbEntity
  8
D-STR
  6
CONTINUOUS
 62
       1
100
AcDbLine
 10
-238.0
 20
1047.02039823
 30
0.0
 11
-238.0
 21
1053.0
 31
0.0
  0
ARC
  5
14B
100
AcDbEntity
  8
D-STR
  6
CONTINUOUS
 62
       1
100
AcDbCircle
 10
-247.5
 20
1047.02039823
 30
0.0
 40
9.5
100
AcDbArc
 50
278.0
 51
360.0
  0
ARC
  5
14C
100
AcDbEntity
  8
D-STR
  6
CONTINUOUS
 62
       1
100
AcDbCircle
 10
-301.0
 20
1010.72137776
 30
0.0
 40
19.0
100
AcDbArc
 50
98.0
 51
180.0
  0
LINE
  5
14D
100
AcDbEntity
  8
D-STR
  6
CONTINUOUS
 62
       1
100
AcDbLine
 10
-413.0
 20
603.0
 30
0.0
 11
-238.0
 21
603.0
 31
0.0
  0
LINE
  5
14E
100
AcDbEntity
  8
D-STR
  6
CONTINUOUS
 62
       1
100
AcDbLine
 10
-347.35571108
 20
626.46352894
 30
0.0
 11
-404.82214446
 21
618.38714842
 31
0.0
  0
LINE
  5
14F
100
AcDbEntity
  8
D-STR
  6
CONTINUOUS
 62
       1
100
AcDbLine
 10
-303.64428892
 20
626.46352894
 30
0.0
 11
-246.17785554
 21
618.38714842
 31
0.0
  0
ARC
  5
150
100
AcDbEntity
  8
D-STR
  6
CONTINUOUS
 62
       1
100
AcDbCircle
 10
-301.0
 20
645.27862224
 30
0.0
 40
19.0
100
AcDbArc
 50
180.0
 51
262.0
  0
ARC
  5
151
100
AcDbEntity
  8
D-STR
  6
CONTINUOUS
 62
       1
100
AcDbCircle
 10
-350.0
 20
645.27862224
 30
0.0
 40
19.0
100
AcDbArc
 50
278.0
 51
360.0
  0
ARC
  5
152
100
AcDbEntity
  8
D-STR
  6
CONTINUOUS
 62
       1
100
AcDbCircle
 10
-247.5
 20
608.97960177
 30
0.0
 40
9.5
100
AcDbArc
 50
0.0
 51
82.0
  0
LINE
  5
153
100
AcDbEntity
  8
D-STR
  6
CONTINUOUS
 62
       1
100
AcDbLine
 10
-238.0
 20
608.97960177
 30
0.0
 11
-238.0
 21
603.0
 31
0.0
  0
LINE
  5
154
100
AcDbEntity
  8
D-STR
  6
CONTINUOUS
 62
       1
100
AcDbLine
 10
-413.0
 20
608.97960177
 30
0.0
 11
-413.0
 21
603.0
 31
0.0
  0
ARC
  5
155
100
AcDbEntity
  8
D-STR
  6
CONTINUOUS
 62
       1
100
AcDbCircle
 10
-403.5
 20
608.97960177
 30
0.0
 40
9.5
100
AcDbArc
 50
98.0
 51
180.0
  0
ENDBLK
  5
156
100
AcDbEntity
  8
0
100
AcDbBlockEnd
  0
BLOCK
  5
157
100
AcDbEntity
  8
0
100
AcDbBlockBegin
  2
GROUP_13
 70
       0
 10
0.0
 20
0.0
 30
0.0
  3
GROUP_13
  1

  0
LINE
  5
158
100
AcDbEntity
  8
D-STR
  6
CONTINUOUS
 62
       1
100
AcDbLine
 10
-420.5
 20
303.0
 30
0.0
 11
-230.5
 21
303.0
 31
0.0
  0
LINE
  5
159
100
AcDbEntity
  8
D-STR
  6
CONTINUOUS
 62
       1
100
AcDbLine
 10
-420.5
 20
295.08501616
 30
0.0
 11
-420.5
 21
303.0
 31
0.0
  0
LINE
  5
15A
100
AcDbEntity
  8
D-STR
  6
CONTINUOUS
 62
       1
100
AcDbLine
 10
-332.0
 20
-244.04889962
 30
0.0
 11
-332.0
 21
250.04889962
 31
0.0
  0
LINE
  5
15B
100
AcDbEntity
  8
D-STR
  6
CONTINUOUS
 62
       1
100
AcDbLine
 10
-353.52067248
 20
274.80560134
 30
0.0
 11
-409.73966376
 21
282.7066653
 31
0.0
  0
ARC
  5
15C
100
AcDbEntity
  8
D-STR
  6
CONTINUOUS
 62
       1
100
AcDbCircle
 10
-408.0
 20
295.08501616
 30
0.0
 40
12.5
100
AcDbArc
 50
180.0
 51
262.0
  0
ARC
  5
15D
100
AcDbEntity
  8
D-STR
  6
CONTINUOUS
 62
       1
100
AcDbCircle
 10
-357.0
 20
250.04889962
 30
0.0
 40
25.0
100
AcDbArc
 50
0.0
 51
82.0
  0
ARC
  5
15E
100
AcDbEntity
  8
D-STR
  6
CONTINUOUS
 62
       1
100
AcDbCircle
 10
-294.0
 20
250.04889962
 30
0.0
 40
25.0
100
AcDbArc
 50
98.0
 51
180.0
  0
LINE
  5
15F
100
AcDbEntity
  8
D-STR
  6
CONTINUOUS
 62
       1
100
AcDbLine
 10
-297.47932752
 20
274.80560134
 30
0.0
 11
-241.26033624
 21
282.7066653
 31
0.0
  0
ARC
  5
160
100
AcDbEntity
  8
D-STR
  6
CONTINUOUS
 62
       1
100
AcDbCircle
 10
-243.0
 20
295.08501616
 30
0.0
 40
12.5
100
AcDbArc
 50
278.0
 51
360.0
  0
LINE
  5
161
100
AcDbEntity
  8
D-STR
  6
CONTINUOUS
 62
       1
100
AcDbLine
 10
-319.0
 20
-244.04889962
 30
0.0
 11
-319.0
 21
250.04889962
 31
0.0
  0
LINE
  5
162
100
AcDbEntity
  8
D-STR
  6
CONTINUOUS
 62
       1
100
AcDbLine
 10
-230.5
 20
295.08501616
 30
0.0
 11
-230.5
 21
303.0
 31
0.0
  0
LINE
  5
163
100
AcDbEntity
  8
D-STR
  6
CONTINUOUS
 62
       1
100
AcDbLine
 10
-297.47932752
 20
-268.80560134
 30
0.0
 11
-241.26033624
 21
-276.7066653
 31
0.0
  0
ARC
  5
164
100
AcDbEntity
  8
D-STR
  6
CONTINUOUS
 62
       1
100
AcDbCircle
 10
-243.0
 20
-289.08501616
 30
0.0
 40
12.5
100
AcDbArc
 50
0.0
 51
82.0
  0
ARC
  5
165
100
AcDbEntity
  8
D-STR
  6
CONTINUOUS
 62
       1
100
AcDbCircle
 10
-294.0
 20
-244.04889962
 30
0.0
 40
25.0
100
AcDbArc
 50
180.0
 51
262.0
  0
ARC
  5
166
100
AcDbEntity
  8
D-STR
  6
CONTINUOUS
 62
       1
100
AcDbCircle
 10
-357.0
 20
-244.04889962
 30
0.0
 40
25.0
100
AcDbArc
 50
278.0
 51
360.0
  0
LINE
  5
167
100
AcDbEntity
  8
D-STR
  6
CONTINUOUS
 62
       1
100
AcDbLine
 10
-353.52067248
 20
-268.80560134
 30
0.0
 11
-409.73966376
 21
-276.7066653
 31
0.0
  0
ARC
  5
168
100
AcDbEntity
  8
D-STR
  6
CONTINUOUS
 62
       1
100
AcDbCircle
 10
-408.0
 20
-289.08501616
 30
0.0
 40
12.5
100
AcDbArc
 50
98.0
 51
180.0
  0
LINE
  5
169
100
AcDbEntity
  8
D-STR
  6
CONTINUOUS
 62
       1
100
AcDbLine
 10
-420.5
 20
-297.0
 30
0.0
 11
-230.5
 21
-297.0
 31
0.0
  0
LINE
  5
16A
100
AcDbEntity
  8
D-STR
  6
CONTINUOUS
 62
       1
100
AcDbLine
 10
-230.5
 20
-289.08501616
 30
0.0
 11
-230.5
 21
-297.0
 31
0.0
  0
LINE
  5
16B
100
AcDbEntity
  8
D-STR
  6
CONTINUOUS
 62
       1
100
AcDbLine
 10
-420.5
 20
-289.08501616
 30
0.0
 11
-420.5
 21
-297.0
 31
0.0
  0
ENDBLK
  5
16C
100
AcDbEntity
  8
0
100
AcDbBlockEnd
  0
BLOCK
  5
16D
100
AcDbEntity
  8
0
100
AcDbBlockBegin
  2
GROUP_14
 70
       0
 10
0.0
 20
0.0
 30
0.0
  3
GROUP_14
  1

  0
ARC
  5
16E
100
AcDbEntity
  8
D-STR
  6
CONTINUOUS
 62
       1
100
AcDbCircle
 10
48.5
 20
2894.29557049
 30
0.0
 40
21.0
100
AcDbArc
 50
278.0
 51
360.0
  0
ARC
  5
16F
100
AcDbEntity
  8
D-STR
  6
CONTINUOUS
 62
       1
100
AcDbCircle
 10
100.5
 20
2894.29557049
 30
0.0
 40
21.0
100
AcDbArc
 50
180.0
 51
262.0
  0
LINE
  5
170
100
AcDbEntity
  8
D-STR
  6
CONTINUOUS
 62
       1
100
AcDbLine
 10
137.0
 20
2853.0
 30
0.0
 11
12.0
 21
2853.0
 31
0.0
  0
ARC
  5
171
100
AcDbEntity
  8
D-STR
  6
CONTINUOUS
 62
       1
100
AcDbCircle
 10
126.5
 20
2858.83194026
 30
0.0
 40
10.5
100
AcDbArc
 50
0.0
 51
82.0
  0
LINE
  5
172
100
AcDbEntity
  8
D-STR
  6
CONTINUOUS
 62
       1
100
AcDbLine
 10
137.0
 20
2858.83194026
 30
0.0
 11
137.0
 21
2853.0
 31
0.0
  0
LINE
  5
173
100
AcDbEntity
  8
D-STR
  6
CONTINUOUS
 62
       1
100
AcDbLine
 10
97.57736488
 20
2873.49994105
 30
0.0
 11
127.96131756
 21
2869.22975498
 31
0.0
  0
ARC
  5
174
100
AcDbEntity
  8
D-STR
  6
CONTINUOUS
 62
       1
100
AcDbCircle
 10
22.5
 20
2858.83194026
 30
0.0
 40
10.5
100
AcDbArc
 50
98.0
 51
180.0
  0
LINE
  5
175
100
AcDbEntity
  8
D-STR
  6
CONTINUOUS
 62
       1
100
AcDbLine
 10
12.0
 20
2858.83194026
 30
0.0
 11
12.0
 21
2853.0
 31
0.0
  0
LINE
  5
176
100
AcDbEntity
  8
D-STR
  6
CONTINUOUS
 62
       1
100
AcDbLine
 10
51.42263512
 20
2873.49994105
 30
0.0
 11
21.03868244
 21
2869.22975498
 31
0.0
  0
LINE
  5
177
100
AcDbEntity
  8
D-STR
  6
CONTINUOUS
 62
       1
100
AcDbLine
 10
69.5
 20
3061.70442951
 30
0.0
 11
69.5
 21
2894.29557049
 31
0.0
  0
LINE
  5
178
100
AcDbEntity
  8
D-STR
  6
CONTINUOUS
 62
       1
100
AcDbLine
 10
79.5
 20
3061.70442951
 30
0.0
 11
79.5
 21
2894.29557049
 31
0.0
  0
ARC
  5
179
100
AcDbEntity
  8
D-STR
  6
CONTINUOUS
 62
       1
100
AcDbCircle
 10
100.5
 20
3061.70442951
 30
0.0
 40
21.0
100
AcDbArc
 50
98.0
 51
180.0
  0
ARC
  5
17A
100
AcDbEntity
  8
D-STR
  6
CONTINUOUS
 62
       1
100
AcDbCircle
 10
48.5
 20
3061.70442951
 30
0.0
 40
21.0
100
AcDbArc
 50
0.0
 51
82.0
  0
LINE
  5
17B
100
AcDbEntity
  8
D-STR
  6
CONTINUOUS
 62
       1
100
AcDbLine
 10
12.0
 20
3103.0
 30
0.0
 11
12.0
 21
3097.16805974
 31
0.0
  0
LINE
  5
17C
100
AcDbEntity
  8
D-STR
  6
CONTINUOUS
 62
       1
100
AcDbLine
 10
137.0
 20
3103.0
 30
0.0
 11
137.0
 21
3097.16805974
 31
0.0
  0
ARC
  5
17D
100
AcDbEntity
  8
D-STR
  6
CONTINUOUS
 62
       1
100
AcDbCircle
 10
126.5
 20
3097.16805974
 30
0.0
 40
10.5
100
AcDbArc
 50
278.0
 51
360.0
  0
LINE
  5
17E
100
AcDbEntity
  8
D-STR
  6
CONTINUOUS
 62
       1
100
AcDbLine
 10
97.57736488
 20
3082.50005895
 30
0.0
 11
127.96131756
 21
3086.77024502
 31
0.0
  0
LINE
  5
17F
100
AcDbEntity
  8
D-STR
  6
CONTINUOUS
 62
       1
100
AcDbLine
 10
51.42263512
 20
3082.50005895
 30
0.0
 11
21.03868244
 21
3086.77024502
 31
0.0
  0
ARC
  5
180
100
AcDbEntity
  8
D-STR
  6
CONTINUOUS
 62
       1
100
AcDbCircle
 10
22.5
 20
3097.16805974
 30
0.0
 40
10.5
100
AcDbArc
 50
180.0
 51
262.0
  0
LINE
  5
181
100
AcDbEntity
  8
D-STR
  6
CONTINUOUS
 62
       1
100
AcDbLine
 10
137.0
 20
3103.0
 30
0.0
 11
12.0
 21
3103.0
 31
0.0
  0
ENDBLK
  5
182
100
AcDbEntity
  8
0
100
AcDbBlockEnd
  0
BLOCK
  5
183
100
AcDbEntity
  8
0
100
AcDbBlockBegin
  2
GROUP_15
 70
       0
 10
0.0
 20
0.0
 30
0.0
  3
GROUP_15
  1

  0
ARC
  5
184
100
AcDbEntity
  8
D-STR
  6
CONTINUOUS
 62
       1
100
AcDbCircle
 10
98.5
 20
2442.93537723
 30
0.0
 40
19.0
100
AcDbArc
 50
180.0
 51
262.0
  0
ARC
  5
185
100
AcDbEntity
  8
D-STR
  6
CONTINUOUS
 62
       1
100
AcDbCircle
 10
50.5
 20
2442.93537723
 30
0.0
 40
19.0
100
AcDbArc
 50
278.0
 51
360.0
  0
LINE
  5
186
100
AcDbEntity
  8
D-STR
  6
CONTINUOUS
 62
       1
100
AcDbLine
 10
95.85571108
 20
2424.12028393
 30
0.0
 11
141.32214446
 21
2417.73039343
 31
0.0
  0
LINE
  5
187
100
AcDbEntity
  8
D-STR
  6
CONTINUOUS
 62
       1
100
AcDbLine
 10
149.5
 20
2403.0
 30
0.0
 11
-0.5
 21
2403.0
 31
0.0
  0
ARC
  5
188
100
AcDbEntity
  8
D-STR
  6
CONTINUOUS
 62
       1
100
AcDbCircle
 10
140.0
 20
2408.32284678
 30
0.0
 40
9.5
100
AcDbArc
 50
0.0
 51
82.0
  0
LINE
  5
189
100
AcDbEntity
  8
D-STR
  6
CONTINUOUS
 62
       1
100
AcDbLine
 10
149.5
 20
2408.32284678
 30
0.0
 11
149.5
 21
2403.0
 31
0.0
  0
ARC
  5
18A
100
AcDbEntity
  8
D-STR
  6
CONTINUOUS
 62
       1
100
AcDbCircle
 10
9.0
 20
2408.32284678
 30
0.0
 40
9.5
100
AcDbArc
 50
98.0
 51
180.0
  0
LINE
  5
18B
100
AcDbEntity
  8
D-STR
  6
CONTINUOUS
 62
       1
100
AcDbLine
 10
-0.5
 20
2408.32284678
 30
0.0
 11
-0.5
 21
2403.0
 31
0.0
  0
LINE
  5
18C
100
AcDbEntity
  8
D-STR
  6
CONTINUOUS
 62
       1
100
AcDbLine
 10
53.14428892
 20
2424.12028393
 30
0.0
 11
7.67785554
 21
2417.73039343
 31
0.0
  0
ARC
  5
18D
100
AcDbEntity
  8
D-STR
  6
CONTINUOUS
 62
       1
100
AcDbCircle
 10
98.5
 20
2663.06462277
 30
0.0
 40
19.0
100
AcDbArc
 50
98.0
 51
180.0
  0
ARC
  5
18E
100
AcDbEntity
  8
D-STR
  6
CONTINUOUS
 62
       1
100
AcDbCircle
 10
50.5
 20
2663.06462277
 30
0.0
 40
19.0
100
AcDbArc
 50
0.0
 51
82.0
  0
LINE
  5
18F
100
AcDbEntity
  8
D-STR
  6
CONTINUOUS
 62
       1
100
AcDbLine
 10
53.14428892
 20
2681.87971607
 30
0.0
 11
7.67785554
 21
2688.26960657
 31
0.0
  0
LINE
  5
190
100
AcDbEntity
  8
D-STR
  6
CONTINUOUS
 62
       1
100
AcDbLine
 10
95.85571108
 20
2681.87971607
 30
0.0
 11
141.32214446
 21
2688.26960657
 31
0.0
  0
LINE
  5
191
100
AcDbEntity
  8
D-STR
  6
CONTINUOUS
 62
       1
100
AcDbLine
 10
69.5
 20
2663.06462277
 30
0.0
 11
69.5
 21
2442.93537723
 31
0.0
  0
LINE
  5
192
100
AcDbEntity
  8
D-STR
  6
CONTINUOUS
 62
       1
100
AcDbLine
 10
79.5
 20
2663.06462277
 30
0.0
 11
79.5
 21
2442.93537723
 31
0.0
  0
LINE
  5
193
100
AcDbEntity
  8
D-STR
  6
CONTINUOUS
 62
       1
100
AcDbLine
 10
149.5
 20
2703.0
 30
0.0
 11
-0.5
 21
2703.0
 31
0.0
  0
LINE
  5
194
100
AcDbEntity
  8
D-STR
  6
CONTINUOUS
 62
       1
100
AcDbLine
 10
149.5
 20
2703.0
 30
0.0
 11
149.5
 21
2697.67715322
 31
0.0
  0
ARC
  5
195
100
AcDbEntity
  8
D-STR
  6
CONTINUOUS
 62
       1
100
AcDbCircle
 10
140.0
 20
2697.67715322
 30
0.0
 40
9.5
100
AcDbArc
 50
278.0
 51
360.0
  0
LINE
  5
196
100
AcDbEntity
  8
D-STR
  6
CONTINUOUS
 62
       1
100
AcDbLine
 10
-0.5
 20
2703.0
 30
0.0
 11
-0.5
 21
2697.67715322
 31
0.0
  0
ARC
  5
197
100
AcDbEntity
  8
D-STR
  6
CONTINUOUS
 62
       1
100
AcDbCircle
 10
9.0
 20
2697.67715322
 30
0.0
 40
9.5
100
AcDbArc
 50
180.0
 51
262.0
  0
ENDBLK
  5
198
100
AcDbEntity
  8
0
100
AcDbBlockEnd
  0
BLOCK
  5
199
100
AcDbEntity
  8
0
100
AcDbBlockBegin
  2
GROUP_16
 70
       0
 10
0.0
 20
0.0
 30
0.0
  3
GROUP_16
  1

  0
ARC
  5
19A
100
AcDbEntity
  8
D-STR
  6
CONTINUOUS
 62
       1
100
AcDbCircle
 10
43.5
 20
1928.58082724
 30
0.0
 40
25.0
100
AcDbArc
 50
278.0
 51
360.0
  0
ARC
  5
19B
100
AcDbEntity
  8
D-STR
  6
CONTINUOUS
 62
       1
100
AcDbCircle
 10
105.5
 20
1928.58082724
 30
0.0
 40
25.0
100
AcDbArc
 50
180.0
 51
262.0
  0
LINE
  5
19C
100
AcDbEntity
  8
D-STR
  6
CONTINUOUS
 62
       1
100
AcDbLine
 10
46.97932752
 20
1903.82412552
 30
0.0
 11
10.26033624
 21
1898.66360784
 31
0.0
  0
LINE
  5
19D
100
AcDbEntity
  8
D-STR
  6
CONTINUOUS
 62
       1
100
AcDbLine
 10
149.5
 20
1878.0
 30
0.0
 11
-0.5
 21
1878.0
 31
0.0
  0
ARC
  5
19E
100
AcDbEntity
  8
D-STR
  6
CONTINUOUS
 62
       1
100
AcDbCircle
 10
137.0
 20
1886.28525698
 30
0.0
 40
12.5
100
AcDbArc
 50
0.0
 51
82.0
  0
LINE
  5
19F
100
AcDbEntity
  8
D-STR
  6
CONTINUOUS
 62
       1
100
AcDbLine
 10
149.5
 20
1878.0
 30
0.0
 11
149.5
 21
1886.28525698
 31
0.0
  0
LINE
  5
1A0
100
AcDbEntity
  8
D-STR
  6
CONTINUOUS
 62
       1
100
AcDbLine
 10
102.02067248
 20
1903.82412552
 30
0.0
 11
138.73966376
 21
1898.66360784
 31
0.0
  0
ARC
  5
1A1
100
AcDbEntity
  8
D-STR
  6
CONTINUOUS
 62
       1
100
AcDbCircle
 10
12.0
 20
1886.28525698
 30
0.0
 40
12.5
100
AcDbArc
 50
98.0
 51
180.0
  0
LINE
  5
1A2
100
AcDbEntity
  8
D-STR
  6
CONTINUOUS
 62
       1
100
AcDbLine
 10
-0.5
 20
1878.0
 30
0.0
 11
-0.5
 21
1886.28525698
 31
0.0
  0
LINE
  5
1A3
100
AcDbEntity
  8
D-STR
  6
CONTINUOUS
 62
       1
100
AcDbLine
 10
68.5
 20
2177.41917276
 30
0.0
 11
68.5
 21
1928.58082724
 31
0.0
  0
LINE
  5
1A4
100
AcDbEntity
  8
D-STR
  6
CONTINUOUS
 62
       1
100
AcDbLine
 10
80.5
 20
2177.41917276
 30
0.0
 11
80.5
 21
1928.58082724
 31
0.0
  0
LINE
  5
1A5
100
AcDbEntity
  8
D-STR
  6
CONTINUOUS
 62
       1
100
AcDbLine
 10
-0.5
 20
2228.0
 30
0.0
 11
-0.5
 21
2219.71474302
 31
0.0
  0
LINE
  5
1A6
100
AcDbEntity
  8
D-STR
  6
CONTINUOUS
 62
       1
100
AcDbLine
 10
149.5
 20
2228.0
 30
0.0
 11
149.5
 21
2219.71474302
 31
0.0
  0
LINE
  5
1A7
100
AcDbEntity
  8
D-STR
  6
CONTINUOUS
 62
       1
100
AcDbLine
 10
46.97932752
 20
2202.17587448
 30
0.0
 11
10.26033624
 21
2207.33639216
 31
0.0
  0
ARC
  5
1A8
100
AcDbEntity
  8
D-STR
  6
CONTINUOUS
 62
       1
100
AcDbCircle
 10
43.5
 20
2177.41917276
 30
0.0
 40
25.0
100
AcDbArc
 50
0.0
 51
82.0
  0
ARC
  5
1A9
100
AcDbEntity
  8
D-STR
  6
CONTINUOUS
 62
       1
100
AcDbCircle
 10
105.5
 20
2177.41917276
 30
0.0
 40
25.0
100
AcDbArc
 50
98.0
 51
180.0
  0
LINE
  5
1AA
100
AcDbEntity
  8
D-STR
  6
CONTINUOUS
 62
       1
100
AcDbLine
 10
102.02067248
 20
2202.17587448
 30
0.0
 11
138.73966376
 21
2207.33639216
 31
0.0
  0
ARC
  5
1AB
100
AcDbEntity
  8
D-STR
  6
CONTINUOUS
 62
       1
100
AcDbCircle
 10
137.0
 20
2219.71474302
 30
0.0
 40
12.5
100
AcDbArc
 50
278.0
 51
360.0
  0
ARC
  5
1AC
100
AcDbEntity
  8
D-STR
  6
CONTINUOUS
 62
       1
100
AcDbCircle
 10
12.0
 20
2219.71474302
 30
0.0
 40
12.5
100
AcDbArc
 50
180.0
 51
262.0
  0
LINE
  5
1AD
100
AcDbEntity
  8
D-STR
  6
CONTINUOUS
 62
       1
100
AcDbLine
 10
149.5
 20
2228.0
 30
0.0
 11
-0.5
 21
2228.0
 31
0.0
  0
ENDBLK
  5
1AE
100
AcDbEntity
  8
0
100
AcDbBlockEnd
  0
BLOCK
  5
1AF
100
AcDbEntity
  8
0
100
AcDbBlockBegin
  2
GROUP_17
 70
       0
 10
0.0
 20
0.0
 30
0.0
  3
GROUP_17
  1

  0
LINE
  5
1B0
100
AcDbEntity
  8
D-STR
  6
CONTINUOUS
 62
       1
100
AcDbLine
 10
149.5
 20
1678.0
 30
0.0
 11
-0.5
 21
1678.0
 31
0.0
  0
LINE
  5
1B1
100
AcDbEntity
  8
D-STR
  6
CONTINUOUS
 62
       1
100
AcDbLine
 10
-0.5
 20
1678.0
 30
0.0
 11
-0.5
 21
1669.56646215
 31
0.0
  0
LINE
  5
1B2
100
AcDbEntity
  8
D-STR
  6
CONTINUOUS
 62
       1
100
AcDbLine
 10
68.25
 20
1331.30183311
 30
0.0
 11
68.25
 21
1624.69816689
 31
0.0
  0
LINE
  5
1B3
100
AcDbEntity
  8
D-STR
  6
CONTINUOUS
 62
       1
100
AcDbLine
 10
45.00767373
 20
1651.43540474
 30
0.0
 11
11.12116314
 21
1656.19784323
 31
0.0
  0
ARC
  5
1B4
100
AcDbEntity
  8
D-STR
  6
CONTINUOUS
 62
       1
100
AcDbCircle
 10
13.0
 20
1669.56646215
 30
0.0
 40
13.5
100
AcDbArc
 50
180.0
 51
262.0
  0
ARC
  5
1B5
100
AcDbEntity
  8
D-STR
  6
CONTINUOUS
 62
       1
100
AcDbCircle
 10
41.25
 20
1624.69816689
 30
0.0
 40
27.0
100
AcDbArc
 50
0.0
 51
82.0
  0
LINE
  5
1B6
100
AcDbEntity
  8
D-STR
  6
CONTINUOUS
 62
       1
100
AcDbLine
 10
45.00767373
 20
1304.56459526
 30
0.0
 11
11.12116314
 21
1299.80215677
 31
0.0
  0
LINE
  5
1B7
100
AcDbEntity
  8
D-STR
  6
CONTINUOUS
 62
       1
100
AcDbLine
 10
149.5
 20
1278.0
 30
0.0
 11
-0.5
 21
1278.0
 31
0.0
  0
ARC
  5
1B8
100
AcDbEntity
  8
D-STR
  6
CONTINUOUS
 62
       1
100
AcDbCircle
 10
41.25
 20
1331.30183311
 30
0.0
 40
27.0
100
AcDbArc
 50
278.0
 51
360.0
  0
LINE
  5
1B9
100
AcDbEntity
  8
D-STR
  6
CONTINUOUS
 62
       1
100
AcDbLine
 10
-0.5
 20
1278.0
 30
0.0
 11
-0.5
 21
1286.43353785
 31
0.0
  0
ARC
  5
1BA
100
AcDbEntity
  8
D-STR
  6
CONTINUOUS
 62
       1
100
AcDbCircle
 10
13.0
 20
1286.43353785
 30
0.0
 40
13.5
100
AcDbArc
 50
98.0
 51
180.0
  0
LINE
  5
1BB
100
AcDbEntity
  8
D-STR
  6
CONTINUOUS
 62
       1
100
AcDbLine
 10
80.75
 20
1331.30183311
 30
0.0
 11
80.75
 21
1624.69816689
 31
0.0
  0
LINE
  5
1BC
100
AcDbEntity
  8
D-STR
  6
CONTINUOUS
 62
       1
100
AcDbLine
 10
103.99232627
 20
1304.56459526
 30
0.0
 11
137.87883686
 21
1299.80215677
 31
0.0
  0
ARC
  5
1BD
100
AcDbEntity
  8
D-STR
  6
CONTINUOUS
 62
       1
100
AcDbCircle
 10
107.75
 20
1331.30183311
 30
0.0
 40
27.0
100
AcDbArc
 50
180.0
 51
262.0
  0
ARC
  5
1BE
100
AcDbEntity
  8
D-STR
  6
CONTINUOUS
 62
       1
100
AcDbCircle
 10
136.0
 20
1286.43353785
 30
0.0
 40
13.5
100
AcDbArc
 50
0.0
 51
82.0
  0
LINE
  5
1BF
100
AcDbEntity
  8
D-STR
  6
CONTINUOUS
 62
       1
100
AcDbLine
 10
149.5
 20
1278.0
 30
0.0
 11
149.5
 21
1286.43353785
 31
0.0
  0
LINE
  5
1C0
100
AcDbEntity
  8
D-STR
  6
CONTINUOUS
 62
       1
100
AcDbLine
 10
103.99232627
 20
1651.43540474
 30
0.0
 11
137.87883686
 21
1656.19784323
 31
0.0
  0
ARC
  5
1C1
100
AcDbEntity
  8
D-STR
  6
CONTINUOUS
 62
       1
100
AcDbCircle
 10
107.75
 20
1624.69816689
 30
0.0
 40
27.0
100
AcDbArc
 50
98.0
 51
180.0
  0
LINE
  5
1C2
100
AcDbEntity
  8
D-STR
  6
CONTINUOUS
 62
       1
100
AcDbLine
 10
149.5
 20
1678.0
 30
0.0
 11
149.5
 21
1669.56646215
 31
0.0
  0
ARC
  5
1C3
100
AcDbEntity
  8
D-STR
  6
CONTINUOUS
 62
       1
100
AcDbCircle
 10
136.0
 20
1669.56646215
 30
0.0
 40
13.5
100
AcDbArc
 50
278.0
 51
360.0
  0
ENDBLK
  5
1C4
100
AcDbEntity
  8
0
100
AcDbBlockEnd
  0
BLOCK
  5
1C5
100
AcDbEntity
  8
0
100
AcDbBlockBegin
  2
GROUP_18
 70
       0
 10
0.0
 20
0.0
 30
0.0
  3
GROUP_18
  1

  0
LINE
  5
1C6
100
AcDbEntity
  8
D-STR
  6
CONTINUOUS
 62
       1
100
AcDbLine
 10
-13.0
 20
603.0
 30
0.0
 11
162.0
 21
603.0
 31
0.0
  0
LINE
  5
1C7
100
AcDbEntity
  8
D-STR
  6
CONTINUOUS
 62
       1
100
AcDbLine
 10
-13.0
 20
1053.0
 30
0.0
 11
162.0
 21
1053.0
 31
0.0
  0
LINE
  5
1C8
100
AcDbEntity
  8
D-STR
  6
CONTINUOUS
 62
       1
100
AcDbLine
 10
44.75767373
 20
1024.57459213
 30
0.0
 11
-1.37883686
 21
1031.05865584
 31
0.0
  0
LINE
  5
1C9
100
AcDbEntity
  8
D-STR
  6
CONTINUOUS
 62
       1
100
AcDbLine
 10
-13.0
 20
1053.0
 30
0.0
 11
-13.0
 21
1044.42727477
 31
0.0
  0
LINE
  5
1CA
100
AcDbEntity
  8
D-STR
  6
CONTINUOUS
 62
       1
100
AcDbLine
 10
68.0
 20
658.16264573
 30
0.0
 11
68.0
 21
997.83735427
 31
0.0
  0
ARC
  5
1CB
100
AcDbEntity
  8
D-STR
  6
CONTINUOUS
 62
       1
100
AcDbCircle
 10
0.5
 20
1044.42727477
 30
0.0
 40
13.5
100
AcDbArc
 50
180.0
 51
262.0
  0
ARC
  5
1CC
100
AcDbEntity
  8
D-STR
  6
CONTINUOUS
 62
       1
100
AcDbCircle
 10
41.0
 20
997.83735427
 30
0.0
 40
27.0
100
AcDbArc
 50
0.0
 51
82.0
  0
LINE
  5
1CD
100
AcDbEntity
  8
D-STR
  6
CONTINUOUS
 62
       1
100
AcDbLine
 10
44.75767373
 20
631.42540787
 30
0.0
 11
-1.37883686
 21
624.94134416
 31
0.0
  0
ARC
  5
1CE
100
AcDbEntity
  8
D-STR
  6
CONTINUOUS
 62
       1
100
AcDbCircle
 10
41.0
 20
658.16264573
 30
0.0
 40
27.0
100
AcDbArc
 50
278.0
 51
360.0
  0
LINE
  5
1CF
100
AcDbEntity
  8
D-STR
  6
CONTINUOUS
 62
       1
100
AcDbLine
 10
-13.0
 20
603.0
 30
0.0
 11
-13.0
 21
611.57272523
 31
0.0
  0
ARC
  5
1D0
100
AcDbEntity
  8
D-STR
  6
CONTINUOUS
 62
       1
100
AcDbCircle
 10
0.5
 20
611.57272523
 30
0.0
 40
13.5
100
AcDbArc
 50
98.0
 51
180.0
  0
LINE
  5
1D1
100
AcDbEntity
  8
D-STR
  6
CONTINUOUS
 62
       1
100
AcDbLine
 10
104.24232627
 20
631.42540787
 30
0.0
 11
150.37883686
 21
624.94134416
 31
0.0
  0
LINE
  5
1D2
100
AcDbEntity
  8
D-STR
  6
CONTINUOUS
 62
       1
100
AcDbLine
 10
104.24232627
 20
1024.57459213
 30
0.0
 11
150.37883686
 21
1031.05865584
 31
0.0
  0
LINE
  5
1D3
100
AcDbEntity
  8
D-STR
  6
CONTINUOUS
 62
       1
100
AcDbLine
 10
81.0
 20
658.16264573
 30
0.0
 11
81.0
 21
997.83735427
 31
0.0
  0
ARC
  5
1D4
100
AcDbEntity
  8
D-STR
  6
CONTINUOUS
 62
       1
100
AcDbCircle
 10
108.0
 20
658.16264573
 30
0.0
 40
27.0
100
AcDbArc
 50
180.0
 51
262.0
  0
ARC
  5
1D5
100
AcDbEntity
  8
D-STR
  6
CONTINUOUS
 62
       1
100
AcDbCircle
 10
108.0
 20
997.83735427
 30
0.0
 40
27.0
100
AcDbArc
 50
98.0
 51
180.0
  0
ARC
  5
1D6
100
AcDbEntity
  8
D-STR
  6
CONTINUOUS
 62
       1
100
AcDbCircle
 10
148.5
 20
611.57272523
 30
0.0
 40
13.5
100
AcDbArc
 50
0.0
 51
82.0
  0
LINE
  5
1D7
100
AcDbEntity
  8
D-STR
  6
CONTINUOUS
 62
       1
100
AcDbLine
 10
162.0
 20
603.0
 30
0.0
 11
162.0
 21
611.57272523
 31
0.0
  0
LINE
  5
1D8
100
AcDbEntity
  8
D-STR
  6
CONTINUOUS
 62
       1
100
AcDbLine
 10
162.0
 20
1053.0
 30
0.0
 11
162.0
 21
1044.42727477
 31
0.0
  0
ARC
  5
1D9
100
AcDbEntity
  8
D-STR
  6
CONTINUOUS
 62
       1
100
AcDbCircle
 10
148.5
 20
1044.42727477
 30
0.0
 40
13.5
100
AcDbArc
 50
278.0
 51
360.0
  0
ENDBLK
  5
1DA
100
AcDbEntity
  8
0
100
AcDbBlockEnd
  0
BLOCK
  5
1DB
100
AcDbEntity
  8
0
100
AcDbBlockBegin
  2
GROUP_19
 70
       0
 10
0.0
 20
0.0
 30
0.0
  3
GROUP_19
  1

  0
LINE
  5
1DC
100
AcDbEntity
  8
D-STR
  6
CONTINUOUS
 62
       1
100
AcDbLine
 10
-20.5
 20
303.0
 30
0.0
 11
169.5
 21
303.0
 31
0.0
  0
LINE
  5
1DD
100
AcDbEntity
  8
D-STR
  6
CONTINUOUS
 62
       1
100
AcDbLine
 10
33.78857784
 20
265.55964949
 30
0.0
 11
-4.14428892
 21
270.89076625
 31
0.0
  0
LINE
  5
1DE
100
AcDbEntity
  8
D-STR
  6
CONTINUOUS
 62
       1
100
AcDbLine
 10
-20.5
 20
289.70585955
 30
0.0
 11
-20.5
 21
303.0
 31
0.0
  0
LINE
  5
1DF
100
AcDbEntity
  8
D-STR
  6
CONTINUOUS
 62
       1
100
AcDbLine
 10
66.5
 20
-221.92946288
 30
0.0
 11
66.5
 21
227.92946288
 31
0.0
  0
ARC
  5
1E0
100
AcDbEntity
  8
D-STR
  6
CONTINUOUS
 62
       1
100
AcDbCircle
 10
28.5
 20
227.92946288
 30
0.0
 40
38.0
100
AcDbArc
 50
0.0
 51
82.0
  0
ARC
  5
1E1
100
AcDbEntity
  8
D-STR
  6
CONTINUOUS
 62
       1
100
AcDbCircle
 10
-1.5
 20
289.70585955
 30
0.0
 40
19.0
100
AcDbArc
 50
180.0
 51
262.0
  0
ARC
  5
1E2
100
AcDbEntity
  8
D-STR
  6
CONTINUOUS
 62
       1
100
AcDbCircle
 10
150.5
 20
289.70585955
 30
0.0
 40
19.0
100
AcDbArc
 50
278.0
 51
360.0
  0
ARC
  5
1E3
100
AcDbEntity
  8
D-STR
  6
CONTINUOUS
 62
       1
100
AcDbCircle
 10
120.5
 20
227.92946288
 30
0.0
 40
38.0
100
AcDbArc
 50
98.0
 51
180.0
  0
LINE
  5
1E4
100
AcDbEntity
  8
D-STR
  6
CONTINUOUS
 62
       1
100
AcDbLine
 10
115.21142216
 20
265.55964949
 30
0.0
 11
153.14428892
 21
270.89076625
 31
0.0
  0
LINE
  5
1E5
100
AcDbEntity
  8
D-STR
  6
CONTINUOUS
 62
       1
100
AcDbLine
 10
169.5
 20
289.70585955
 30
0.0
 11
169.5
 21
303.0
 31
0.0
  0
LINE
  5
1E6
100
AcDbEntity
  8
D-STR
  6
CONTINUOUS
 62
       1
100
AcDbLine
 10
82.5
 20
-221.92946288
 30
0.0
 11
82.5
 21
227.92946288
 31
0.0
  0
ARC
  5
1E7
100
AcDbEntity
  8
D-STR
  6
CONTINUOUS
 62
       1
100
AcDbCircle
 10
-1.5
 20
-283.70585955
 30
0.0
 40
19.0
100
AcDbArc
 50
98.0
 51
180.0
  0
ARC
  5
1E8
100
AcDbEntity
  8
D-STR
  6
CONTINUOUS
 62
       1
100
AcDbCircle
 10
150.5
 20
-283.70585955
 30
0.0
 40
19.0
100
AcDbArc
 50
0.0
 51
82.0
  0
ARC
  5
1E9
100
AcDbEntity
  8
D-STR
  6
CONTINUOUS
 62
       1
100
AcDbCircle
 10
120.5
 20
-221.92946288
 30
0.0
 40
38.0
100
AcDbArc
 50
180.0
 51
262.0
  0
LINE
  5
1EA
100
AcDbEntity
  8
D-STR
  6
CONTINUOUS
 62
       1
100
AcDbLine
 10
115.21142216
 20
-259.55964949
 30
0.0
 11
153.14428892
 21
-264.89076625
 31
0.0
  0
ARC
  5
1EB
100
AcDbEntity
  8
D-STR
  6
CONTINUOUS
 62
       1
100
AcDbCircle
 10
28.5
 20
-221.92946288
 30
0.0
 40
38.0
100
AcDbArc
 50
278.0
 51
360.0
  0
LINE
  5
1EC
100
AcDbEntity
  8
D-STR
  6
CONTINUOUS
 62
       1
100
AcDbLine
 10
33.78857784
 20
-259.55964949
 30
0.0
 11
-4.14428892
 21
-264.89076625
 31
0.0
  0
LINE
  5
1ED
100
AcDbEntity
  8
D-STR
  6
CONTINUOUS
 62
       1
100
AcDbLine
 10
-20.5
 20
-297.0
 30
0.0
 11
169.5
 21
-297.0
 31
0.0
  0
LINE
  5
1EE
100
AcDbEntity
  8
D-STR
  6
CONTINUOUS
 62
       1
100
AcDbLine
 10
169.5
 20
-283.70585955
 30
0.0
 11
169.5
 21
-297.0
 31
0.0
  0
LINE
  5
1EF
100
AcDbEntity
  8
D-STR
  6
CONTINUOUS
 62
       1
100
AcDbLine
 10
-20.5
 20
-283.70585955
 30
0.0
 11
-20.5
 21
-297.0
 31
0.0
  0
ENDBLK
  5
1F0
100
AcDbEntity
  8
0
100
AcDbBlockEnd
  0
BLOCK
  5
1F1
100
AcDbEntity
  8
0
100
AcDbBlockBegin
  2
GROUP_20
 70
       0
 10
0.0
 20
0.0
 30
0.0
  3
GROUP_20
  1

  0
ARC
  5
1F2
100
AcDbEntity
  8
D-STR
  6
CONTINUOUS
 62
       1
100
AcDbCircle
 10
503.25
 20
2449.85982137
 30
0.0
 40
23.0
100
AcDbArc
 50
180.0
 51
262.0
  0
ARC
  5
1F3
100
AcDbEntity
  8
D-STR
  6
CONTINUOUS
 62
       1
100
AcDbCircle
 10
445.75
 20
2449.85982137
 30
0.0
 40
23.0
100
AcDbArc
 50
278.0
 51
360.0
  0
ARC
  5
1F4
100
AcDbEntity
  8
D-STR
  6
CONTINUOUS
 62
       1
100
AcDbCircle
 10
411.0
 20
2410.13697611
 30
0.0
 40
11.5
100
AcDbArc
 50
98.0
 51
180.0
  0
LINE
  5
1F5
100
AcDbEntity
  8
D-STR
  6
CONTINUOUS
 62
       1
100
AcDbLine
 10
549.5
 20
2403.0
 30
0.0
 11
399.5
 21
2403.0
 31
0.0
  0
ARC
  5
1F6
100
AcDbEntity
  8
D-STR
  6
CONTINUOUS
 62
       1
100
AcDbCircle
 10
538.0
 20
2410.13697611
 30
0.0
 40
11.5
100
AcDbArc
 50
0.0
 51
82.0
  0
LINE
  5
1F7
100
AcDbEntity
  8
D-STR
  6
CONTINUOUS
 62
       1
100
AcDbLine
 10
549.5
 20
2403.0
 30
0.0
 11
549.5
 21
2410.13697611
 31
0.0
  0
LINE
  5
1F8
100
AcDbEntity
  8
D-STR
  6
CONTINUOUS
 62
       1
100
AcDbLine
 10
500.04901868
 20
2427.08365579
 30
0.0
 11
539.60049066
 21
2421.5250589
 31
0.0
  0
LINE
  5
1F9
100
AcDbEntity
  8
D-STR
  6
CONTINUOUS
 62
       1
100
AcDbLine
 10
448.95098132
 20
2427.08365579
 30
0.0
 11
409.39950934
 21
2421.5250589
 31
0.0
  0
LINE
  5
1FA
100
AcDbEntity
  8
D-STR
  6
CONTINUOUS
 62
       1
100
AcDbLine
 10
399.5
 20
2403.0
 30
0.0
 11
399.5
 21
2410.13697611
 31
0.0
  0
ARC
  5
1FB
100
AcDbEntity
  8
D-STR
  6
CONTINUOUS
 62
       1
100
AcDbCircle
 10
411.0
 20
2695.86302389
 30
0.0
 40
11.5
100
AcDbArc
 50
180.0
 51
262.0
  0
LINE
  5
1FC
100
AcDbEntity
  8
D-STR
  6
CONTINUOUS
 62
       1
100
AcDbLine
 10
549.5
 20
2703.0
 30
0.0
 11
399.5
 21
2703.0
 31
0.0
  0
LINE
  5
1FD
100
AcDbEntity
  8
D-STR
  6
CONTINUOUS
 62
       1
100
AcDbLine
 10
448.95098132
 20
2678.91634421
 30
0.0
 11
409.39950934
 21
2684.4749411
 31
0.0
  0
ARC
  5
1FE
100
AcDbEntity
  8
D-STR
  6
CONTINUOUS
 62
       1
100
AcDbCircle
 10
538.0
 20
2695.86302389
 30
0.0
 40
11.5
100
AcDbArc
 50
278.0
 51
360.0
  0
LINE
  5
1FF
100
AcDbEntity
  8
D-STR
  6
CONTINUOUS
 62
       1
100
AcDbLine
 10
500.04901868
 20
2678.91634421
 30
0.0
 11
539.60049066
 21
2684.4749411
 31
0.0
  0
LINE
  5
200
100
AcDbEntity
  8
D-STR
  6
CONTINUOUS
 62
       1
100
AcDbLine
 10
468.75
 20
2656.14017863
 30
0.0
 11
468.75
 21
2449.85982137
 31
0.0
  0
LINE
  5
201
100
AcDbEntity
  8
D-STR
  6
CONTINUOUS
 62
       1
100
AcDbLine
 10
480.25
 20
2656.14017863
 30
0.0
 11
480.25
 21
2449.85982137
 31
0.0
  0
ARC
  5
202
100
AcDbEntity
  8
D-STR
  6
CONTINUOUS
 62
       1
100
AcDbCircle
 10
503.25
 20
2656.14017863
 30
0.0
 40
23.0
100
AcDbArc
 50
98.0
 51
180.0
  0
ARC
  5
203
100
AcDbEntity
  8
D-STR
  6
CONTINUOUS
 62
       1
100
AcDbCircle
 10
445.75
 20
2656.14017863
 30
0.0
 40
23.0
100
AcDbArc
 50
0.0
 51
82.0
  0
LINE
  5
204
100
AcDbEntity
  8
D-STR
  6
CONTINUOUS
 62
       1
100
AcDbLine
 10
549.5
 20
2703.0
 30
0.0
 11
549.5
 21
2695.86302389
 31
0.0
  0
LINE
  5
205
100
AcDbEntity
  8
D-STR
  6
CONTINUOUS
 62
       1
100
AcDbLine
 10
399.5
 20
2703.0
 30
0.0
 11
399.5
 21
2695.86302389
 31
0.0
  0
ENDBLK
  5
206
100
AcDbEntity
  8
0
100
AcDbBlockEnd
  0
ENDSEC
  0
SECTION
  2
ENTITIES
  0
TEXT
  5
207
100
AcDbEntity
  8
D-STR-TXT
 62
       7
100
AcDbText
 10
-388.0
 20
4310.5
 30
0.0
 40
25.0
  1
100x75x5x8
 72
       5
 11
-263.0
 21
4310.5
 31
0.0
100
AcDbText
  0
TEXT
  5
208
100
AcDbEntity
  8
D-STR-TXT
 62
       7
100
AcDbText
 10
-413.0
 20
4148.0
 30
0.0
 40
25.0
  1
125x75x5.5x9.5
 72
       5
 11
-238.0
 21
4148.0
 31
0.0
100
AcDbText
  0
TEXT
  5
209
100
AcDbEntity
  8
D-STR-TXT
 62
       7
100
AcDbText
 10
-413.0
 20
3948.0
 30
0.0
 40
25.0
  1
150x75x5.5x9.5
 72
       5
 11
-238.0
 21
3948.0
 31
0.0
100
AcDbText
  0
TEXT
  5
20A
100
AcDbEntity
  8
D-STR-TXT
 62
       7
100
AcDbText
 10
-13.0
 20
3948.0
 30
0.0
 40
25.0
  1
150x125x8.5x14
 72
       5
 11
162.0
 21
3948.0
 31
0.0
100
AcDbText
  0
TEXT
  5
20B
100
AcDbEntity
  8
D-STR-TXT
 62
       7
100
AcDbText
 10
-400.5
 20
3708.0
 30
0.0
 40
25.0
  1
180x100x6x10
 72
       5
 11
-250.5
 21
3708.0
 31
0.0
100
AcDbText
  0
TEXT
  5
20C
100
AcDbEntity
  8
D-STR-TXT
 62
       7
100
AcDbText
 10
-400.5
 20
3428.0
 30
0.0
 40
25.0
  1
200x100x7x10
 72
       5
 11
-250.5
 21
3428.0
 31
0.0
100
AcDbText
  0
TEXT
  5
20D
100
AcDbEntity
  8
D-STR-TXT
 62
       7
100
AcDbText
 10
-0.5
 20
3428.0
 30
0.0
 40
25.0
  1
200x150x9x16
 72
       5
 11
149.5
 21
3428.0
 31
0.0
100
AcDbText
  0
TEXT
  5
20E
100
AcDbEntity
  8
D-STR-TXT
 62
       7
100
AcDbText
 10
-425.5
 20
3103.0
 30
0.0
 40
25.0
  1
250x125x7.5x12.5
 72
       5
 11
-225.5
 21
3103.0
 31
0.0
100
AcDbText
  0
TEXT
  5
20F
100
AcDbEntity
  8
D-STR-TXT
 62
       7
100
AcDbText
 10
-6.75
 20
3103.0
 30
0.0
 40
25.0
  1
250x125x10x19
 72
       5
 11
155.75
 21
3103.0
 31
0.0
100
AcDbText
  0
TEXT
  5
210
100
AcDbEntity
  8
D-STR-TXT
 62
       7
100
AcDbText
 10
-400.5
 20
2703.0
 30
0.0
 40
25.0
  1
300x150x8x13
 72
       5
 11
-250.5
 21
2703.0
 31
0.0
100
AcDbText
  0
TEXT
  5
211
100
AcDbEntity
  8
D-STR-TXT
 62
       7
100
AcDbText
 10
-19.25
 20
2703.0
 30
0.0
 40
25.0
  1
300x150x10x18.5
 72
       5
 11
168.25
 21
2703.0
 31
0.0
100
AcDbText
  0
TEXT
  5
212
100
AcDbEntity
  8
D-STR-TXT
 62
       7
100
AcDbText
 10
380.75
 20
2703.0
 30
0.0
 40
25.0
  1
300x150x11.5x22
 72
       5
 11
568.25
 21
2703.0
 31
0.0
100
AcDbText
  0
TEXT
  5
213
100
AcDbEntity
  8
D-STR-TXT
 62
       7
100
AcDbText
 10
-400.5
 20
2228.0
 30
0.0
 40
25.0
  1
350x150x9x15
 72
       5
 11
-250.5
 21
2228.0
 31
0.0
100
AcDbText
  0
TEXT
  5
214
100
AcDbEntity
  8
D-STR-TXT
 62
       7
100
AcDbText
 10
-6.75
 20
2228.0
 30
0.0
 40
25.0
  1
350x150x12x24
 72
       5
 11
155.75
 21
2228.0
 31
0.0
100
AcDbText
  0
TEXT
  5
215
100
AcDbEntity
  8
D-STR-TXT
 62
       7
100
AcDbText
 10
-406.75
 20
1678.0
 30
0.0
 40
25.0
  1
400x150x10x18
 72
       5
 11
-244.25
 21
1678.0
 31
0.0
100
AcDbText
  0
TEXT
  5
216
100
AcDbEntity
  8
D-STR-TXT
 62
       7
100
AcDbText
 10
-406.75
 20
1053.0
 30
0.0
 40
25.0
  1
450x175x11x20
 72
       5
 11
-244.25
 21
1053.0
 31
0.0
100
AcDbText
  0
TEXT
  5
217
100
AcDbEntity
  8
D-STR-TXT
 62
       7
100
AcDbText
 10
-6.75
 20
1053.0
 30
0.0
 40
25.0
  1
450x175x13x26
 72
       5
 11
155.75
 21
1053.0
 31
0.0
100
AcDbText
  0
TEXT
  5
218
100
AcDbEntity
  8
D-STR-TXT
 62
       7
100
AcDbText
 10
-19.25
 20
1678.0
 30
0.0
 40
25.0
  1
400x150x12.5x25
 72
       5
 11
168.25
 21
1678.0
 31
0.0
100
AcDbText
  0
TEXT
  5
219
100
AcDbEntity
  8
D-STR-TXT
 62
       7
100
AcDbText
 10
-406.75
 20
303.0
 30
0.0
 40
25.0
  1
600x190x13x25
 72
       5
 11
-244.25
 21
303.0
 31
0.0
100
AcDbText
  0
TEXT
  5
21A
100
AcDbEntity
  8
D-STR-TXT
 62
       7
100
AcDbText
 10
-6.75
 20
303.0
 30
0.0
 40
25.0
  1
600x190x16x35
 72
       5
 11
155.75
 21
303.0
 31
0.0
100
AcDbText
  0
INSERT
  5
21B
100
AcDbEntity
  8
0
  6
CONTINUOUS
100
AcDbBlockReference
  2
GROUP_1
 10
0.0
 20
0.0
 30
0.0
  0
INSERT
  5
21C
100
AcDbEntity
  8
0
  6
CONTINUOUS
100
AcDbBlockReference
  2
GROUP_2
 10
0.0
 20
0.0
 30
0.0
  0
INSERT
  5
21D
100
AcDbEntity
  8
0
  6
CONTINUOUS
100
AcDbBlockReference
  2
GROUP_3
 10
0.0
 20
0.0
 30
0.0
  0
INSERT
  5
21E
100
AcDbEntity
  8
0
  6
CONTINUOUS
100
AcDbBlockReference
  2
GROUP_4
 10
0.0
 20
0.0
 30
0.0
  0
INSERT
  5
21F
100
AcDbEntity
  8
0
  6
CONTINUOUS
100
AcDbBlockReference
  2
GROUP_5
 10
0.0
 20
0.0
 30
0.0
  0
INSERT
  5
220
100
AcDbEntity
  8
0
  6
CONTINUOUS
100
AcDbBlockReference
  2
GROUP_6
 10
0.0
 20
0.0
 30
0.0
  0
INSERT
  5
221
100
AcDbEntity
  8
0
  6
CONTINUOUS
100
AcDbBlockReference
  2
GROUP_7
 10
0.0
 20
0.0
 30
0.0
  0
INSERT
  5
222
100
AcDbEntity
  8
0
  6
CONTINUOUS
100
AcDbBlockReference
  2
GROUP_8
 10
0.0
 20
0.0
 30
0.0
  0
INSERT
  5
223
100
AcDbEntity
  8
0
  6
CONTINUOUS
100
AcDbBlockReference
  2
GROUP_9
 10
0.0
 20
0.0
 30
0.0
  0
INSERT
  5
224
100
AcDbEntity
  8
0
  6
CONTINUOUS
100
AcDbBlockReference
  2
GROUP_10
 10
0.0
 20
0.0
 30
0.0
  0
INSERT
  5
225
100
AcDbEntity
  8
0
  6
CONTINUOUS
100
AcDbBlockReference
  2
GROUP_11
 10
0.0
 20
0.0
 30
0.0
  0
INSERT
  5
226
100
AcDbEntity
  8
0
  6
CONTINUOUS
100
AcDbBlockReference
  2
GROUP_12
 10
0.0
 20
0.0
 30
0.0
  0
INSERT
  5
227
100
AcDbEntity
  8
0
  6
CONTINUOUS
100
AcDbBlockReference
  2
GROUP_13
 10
0.0
 20
0.0
 30
0.0
  0
INSERT
  5
228
100
AcDbEntity
  8
0
  6
CONTINUOUS
100
AcDbBlockReference
  2
GROUP_14
 10
0.0
 20
0.0
 30
0.0
  0
INSERT
  5
229
100
AcDbEntity
  8
0
  6
CONTINUOUS
100
AcDbBlockReference
  2
GROUP_15
 10
0.0
 20
0.0
 30
0.0
  0
INSERT
  5
22A
100
AcDbEntity
  8
0
  6
CONTINUOUS
100
AcDbBlockReference
  2
GROUP_16
 10
0.0
 20
0.0
 30
0.0
  0
INSERT
  5
22B
100
AcDbEntity
  8
0
  6
CONTINUOUS
100
AcDbBlockReference
  2
GROUP_17
 10
0.0
 20
0.0
 30
0.0
  0
INSERT
  5
22C
100
AcDbEntity
  8
0
  6
CONTINUOUS
100
AcDbBlockReference
  2
GROUP_18
 10
0.0
 20
0.0
 30
0.0
  0
INSERT
  5
22D
100
AcDbEntity
  8
0
  6
CONTINUOUS
100
AcDbBlockReference
  2
GROUP_19
 10
0.0
 20
0.0
 30
0.0
  0
INSERT
  5
22E
100
AcDbEntity
  8
0
  6
CONTINUOUS
100
AcDbBlockReference
  2
GROUP_20
 10
0.0
 20
0.0
 30
0.0
  0
ENDSEC
  0
SECTION
  2
OBJECTS
  0
DICTIONARY
  5
19
100
AcDbDictionary
  3
ACAD_GROUP
350
1A
  3
ACAD_MLINESTYLE
350
1B
  0
DICTIONARY
  5
1A
102
{ACAD_REACTORS
330
19
102
}
100
AcDbDictionary
  0
DICTIONARY
  5
1B
102
{ACAD_REACTORS
330
19
102
}
100
AcDbDictionary
  3
STANDARD
350
1C
  0
MLINESTYLE
  5
1C
102
{ACAD_REACTORS
330
1B
102
}
100
AcDbMlineStyle
  2
STANDARD
 70
       0
  3

 62
       0
 51
90.0
 52
90.0
 71
       2
 49
0.5
 62
     256
  6
BYLAYER
 49
-0.5
 62
     256
  6
BYLAYER
  0
ENDSEC
  0
EOF
