  0
SECTION
  2
HEADER
  9
$ACADVER
  1
AC1014
  9
$ACADMAINTVER
 70
       0
  9
$DWGCODEPAGE
  3
ANSI_932
  9
$INSBASE
 10
0.0
 20
0.0
 30
0.0
  9
$EXTMIN
 10
-443.5
 20
-262.14
 30
0.0
  9
$EXTMAX
 10
752.5
 20
317.14
 30
0.0
  9
$LIMMIN
 10
-480.875
 20
-280.2425
  9
$LIMMAX
 10
789.875
 20
335.2425
  9
$ORTHOMODE
 70
       0
  9
$REGENMODE
 70
       1
  9
$FILLMODE
 70
       1
  9
$QTEXTMODE
 70
       0
  9
$MIRRTEXT
 70
       1
  9
$DRAGMODE
 70
       2
  9
$LTSCALE
 40
1.0
  9
$OSMODE
 70
       0
  9
$ATTMODE
 70
       1
  9
$TEXTSIZE
 40
0.2
  9
$TRACEWID
 40
0.05
  9
$TEXTSTYLE
  7
STANDARD
  9
$CLAYER
  8
0
  9
$CELTYPE
  6
CONTINUOUS
  9
$CECOLOR
 62
     256
  9
$CELTSCALE
 40
1.0
  9
$DELOBJ
 70
       1
  9
$DISPSILH
 70
       0
  9
$DIMSCALE
 40
1.0
  9
$DIMASZ
 40
0.18
  9
$DIMEXO
 40
0.0625
  9
$DIMDLI
 40
0.38
  9
$DIMRND
 40
0.0
  9
$DIMDLE
 40
0.0
  9
$DIMEXE
 40
0.18
  9
$DIMTP
 40
0.0
  9
$DIMTM
 40
0.0
  9
$DIMTXT
 40
0.18
  9
$DIMCEN
 40
0.09
  9
$DIMTSZ
 40
0.0
  9
$DIMTOL
 70
       0
  9
$DIMLIM
 70
       0
  9
$DIMTIH
 70
       1
  9
$DIMTOH
 70
       1
  9
$DIMSE1
 70
       0
  9
$DIMSE2
 70
       0
  9
$DIMTAD
 70
       0
  9
$DIMZIN
 70
       0
  9
$DIMBLK
  1

  9
$DIMASO
 70
       1
  9
$DIMSHO
 70
       1
  9
$DIMPOST
  1

  9
$DIMAPOST
  1

  9
$DIMALT
 70
       0
  9
$DIMALTD
 70
       2
  9
$DIMALTF
 40
25.4
  9
$DIMLFAC
 40
1.0
  9
$DIMTOFL
 70
       0
  9
$DIMTVP
 40
0.0
  9
$DIMTIX
 70
       0
  9
$DIMSOXD
 70
       0
  9
$DIMSAH
 70
       0
  9
$DIMBLK1
  1

  9
$DIMBLK2
  1

  9
$DIMSTYLE
  2
STANDARD
  9
$DIMCLRD
 70
       0
  9
$DIMCLRE
 70
       0
  9
$DIMCLRT
 70
       0
  9
$DIMTFAC
 40
1.0
  9
$DIMGAP
 40
0.09
  9
$DIMJUST
 70
       0
  9
$DIMSD1
 70
       0
  9
$DIMSD2
 70
       0
  9
$DIMTOLJ
 70
       1
  9
$DIMTZIN
 70
       0
  9
$DIMALTZ
 70
       0
  9
$DIMALTTZ
 70
       0
  9
$DIMFIT
 70
       3
  9
$DIMUPT
 70
       0
  9
$DIMUNIT
 70
       2
  9
$DIMDEC
 70
       4
  9
$DIMTDEC
 70
       4
  9
$DIMALTU
 70
       2
  9
$DIMALTTD
 70
       2
  9
$DIMTXSTY
  7
STANDARD
  9
$DIMAUNIT
 70
       0
  9
$LUNITS
 70
       2
  9
$LUPREC
 70
       4
  9
$SKETCHINC
 40
0.1
  9
$FILLETRAD
 40
0.0
  9
$AUNITS
 70
       0
  9
$AUPREC
 70
       0
  9
$MENU
  1
acad
  9
$ELEVATION
 40
0.0
  9
$PELEVATION
 40
0.0
  9
$THICKNESS
 40
0.0
  9
$LIMCHECK
 70
       0
  9
$BLIPMODE
 70
       1
  9
$CHAMFERA
 40
0.0
  9
$CHAMFERB
 40
0.0
  9
$CHAMFERC
 40
0.0
  9
$CHAMFERD
 40
0.0
  9
$SKPOLY
 70
       0
  9
$TDCREATE
 40
0.000000000
  9
$TDUPDATE
 40
0.000000000
  9
$TDINDWG
 40
0.0000000000
  9
$TDUSRTIMER
 40
0.0000000000
  9
$USRTIMER
 70
       1
  9
$ANGBASE
 50
0.0
  9
$ANGDIR
 70
       0
  9
$PDMODE
 70
       0
  9
$PDSIZE
 40
1.0
  9
$PLINEWID
 40
0.0
  9
$COORDS
 70
       1
  9
$SPLFRAME
 70
       0
  9
$SPLINETYPE
 70
       6
  9
$SPLINESEGS
 70
       8
  9
$ATTDIA
 70
       0
  9
$ATTREQ
 70
       1
  9
$HANDLING
 70
       1
  9
$HANDSEED
  5
F6
  9
$SURFTAB1
 70
       6
  9
$SURFTAB2
 70
       6
  9
$SURFTYPE
 70
       6
  9
$SURFU
 70
       6
  9
$SURFV
 70
       6
  9
$UCSNAME
  2

  9
$UCSORG
 10
0.0
 20
0.0
 30
0.0
  9
$UCSXDIR
 10
1.0
 20
0.0
 30
0.0
  9
$UCSYDIR
 10
0.0
 20
1.0
 30
0.0
  9
$PUCSNAME
  2

  9
$PUCSORG
 10
0.0
 20
0.0
 30
0.0
  9
$PUCSXDIR
 10
1.0
 20
0.0
 30
0.0
  9
$PUCSYDIR
 10
0.0
 20
1.0
 30
0.0
  9
$USERI1
 70
       0
  9
$USERI2
 70
       0
  9
$USERI3
 70
       0
  9
$USERI4
 70
       0
  9
$USERI5
 70
       0
  9
$USERR1
 40
0.0
  9
$USERR2
 40
0.0
  9
$USERR3
 40
0.0
  9
$USERR4
 40
0.0
  9
$USERR5
 40
0.0
  9
$WORLDVIEW
 70
       1
  9
$SHADEDGE
 70
       3
  9
$SHADEDIF
 70
      70
  9
$TILEMODE
 70
       1
  9
$MAXACTVP
 70
      16
  9
$PINSBASE
 10
0.0
 20
0.0
 30
0.0
  9
$PLIMCHECK
 70
       0
  9
$PEXTMIN
 10
1.00000000E+20
 20
1.00000000E+20
 30
1.00000000E+20
  9
$PEXTMAX
 10
-1.00000000E+20
 20
-1.00000000E+20
 30
-1.00000000E+20
  9
$PLIMMIN
 10
0.0
 20
0.0
  9
$PLIMMAX
 10
12.0
 20
9.0
  9
$UNITMODE
 70
       0
  9
$VISRETAIN
 70
       0
  9
$PLINEGEN
 70
       1
  9
$PSLTSCALE
 70
       0
  9
$TREEDEPTH
 70
    3020
  9
$PICKSTYLE
 70
       1
  9
$CMLSTYLE
  2
STANDARD
  9
$CMLJUST
 70
       0
  9
$CMLSCALE
 40
1.0
  9
$PROXYGRAPHICS
 70
       0
  9
$MEASUREMENT
 70
       0
  0
ENDSEC
  0
SECTION
  2
CLASSES
  0
CLASS
  1
LWPOLYLINE
  2
AcDbPolyline
  3
"AutoCAD"
 90
        0
280
       0
281
       1
  0
CLASS
  1
IMAGE
  2
AcDbRasterImage
  3
ISM
 90
      127
280
       0
281
       1
  0
CLASS
  1
OLE2FRAME
  2
AcDbOle2Frame
  3
""
 90
        0
280
       0
281
       1
  0
CLASS
  1
HATCH
  2
AcDbHatch
  3
"ACAD_SEDONA"
 90
        0
280
       0
281
       1
  0
CLASS
  1
DICTIONARYVAR
  2
AcDbDictionaryVar
  3
"AutoCAD"
 90
        0
280
       0
281
       0
  0
CLASS
  1
RASTERVARIABLES
  2
AcDbRasterVariables
  3
ISM
 90
        0
280
       0
281
       0
  0
CLASS
  1
IMAGEDEF
  2
AcDbRasterImageDef
  3
ISM
 90
        0
280
       0
281
       0
  0
CLASS
  1
IMAGEDEF_REACTOR
  2
AcDbRasterImageDefReactor
  3
ISM
 90
        1
280
       0
281
       0
  0
CLASS
  1
IDBUFFER
  2
AcDbIdBuffer
  3
"Acad"
 90
        0
280
       0
281
       0
  0
CLASS
  1
SPATIAL_FILTER
  2
AcDbSpatialFilter
  3
"Acad"
 90
        0
280
       0
281
       0
  0
CLASS
  1
XRECORD
  2
AcDbXrecord
  3
"<Built In>"
 90
        0
280
       0
281
       0
  0
CLASS
  1
SORTENTSTABLE
  2
AcDbSortentsTable
  3
"AutoCAD"
 90
        0
280
       0
281
       0
  0
CLASS
  1
LAYER_INDEX
  2
AcDbLayerIndex
  3
"Acad"
 90
        0
280
       0
281
       0
  0
CLASS
  1
SPATIAL_INDEX
  2
AcDbSpatialIndex
  3
"Acad"
 90
        0
280
       0
281
       0
  0
CLASS
  1
OBJECT_PTR
  2
CAseDLPNTableRecord
  3
"ASE-LPNTableRecord"
 90
        1
280
       0
281
       0
  0
CLASS
  1
LAYOUT
  2
AcDbLayout
  3
"AutoCAD 2000"
 90
        1
280
       0
281
       0
  0
CLASS
  1
PLOTSETTINGS
  2
AcDbPlotSettings
  3
"AutoCAD 2000"
 90
        1
280
       0
281
       0
  0
CLASS
  1
ACDBDICTIONARYWDFLT
  2
AcDbDictionaryWithDefault
  3
"AutoCAD 2000"
 90
        1
280
       0
281
       0
  0
CLASS
  1
ACDBPLACEHOLDER
  2
AcDbPlaceHolder
  3
"AutoCAD 2000"
 90
        1
280
       0
281
       0
  0
CLASS
  1
VBA_PROJECT
  2
AcDbVbaProject
  3
"acadvba"
 90
        1
280
       0
281
       0
  0
CLASS
  1
WIPEOUT
  2
AcDbWipeout
  3
WipeOut|AutoCAD Express Tool|expresstools@autodesk.com
 90
      127
280
       0
281
       1
  0
CLASS
  1
WIPEOUTVARIABLES
  2
AcDbWipeoutVariables
  3
WipeOut|AutoCAD Express Tool|expresstools@autodesk.com
 90
        0
280
       0
281
       0
  0
CLASS
  1
RTEXT
  2
RText
  3
RText|AutoCAD Express Tool|expresstools@autodesk.com
 90
        0
280
       0
281
       1
  0
CLASS
  1
ARCALIGNEDTEXT
  2
AcDbArcAlignedText
  3
ATEXT|AutoCAD Express Tool|expresstools@autodesk.com
 90
        0
280
       0
281
       1
  0
ENDSEC
  0
SECTION
  2
TABLES
  0
TABLE
  2
VPORT
  5
7
100
AcDbSymbolTable
 70
       1
  0
VPORT
  5
15
100
AcDbSymbolTableRecord
100
AcDbViewportTableRecord
  2
*ACTIVE
 70
       0
 10
0.0
 20
0.0
 11
1.0
 21
1.0
 12
154.5
 22
27.5
 13
0.0
 23
0.0
 14
1.0
 24
1.0
 15
0.0
 25
0.0
 16
0.0
 26
0.0
 36
1.0
 17
0.0
 27
0.0
 37
0.0
 40
615.485
 41
2.06463196
 42
50.0
 43
0.0
 44
0.0
 50
0.0
 51
0.0
 71
       0
 72
     100
 73
       1
 74
       1
 75
       0
 76
       0
 77
       0
 78
       0
  0
ENDTAB
  0
TABLE
  2
LTYPE
  5
4
100
AcDbSymbolTable
 70
      30
  0
LTYPE
  5
11
100
AcDbSymbolTableRecord
100
AcDbLinetypeTableRecord
  2
BYBLOCK
 70
      64
  3

 72
      65
 73
       0
 40
0.0
  0
LTYPE
  5
12
100
AcDbSymbolTableRecord
100
AcDbLinetypeTableRecord
  2
BYLAYER
 70
      64
  3

 72
      65
 73
       0
 40
0.0
  0
LTYPE
  5
13
100
AcDbSymbolTableRecord
100
AcDbLinetypeTableRecord
  2
CONTINUOUS
 70
      64
  3
Solid line
 72
      65
 73
       0
 40
0.0
  0
LTYPE
  5
1D
100
AcDbSymbolTableRecord
100
AcDbLinetypeTableRecord
  2
HIDDENX2
 70
      64
  3
CADPAC LINETYPE
 72
      65
 73
       2
 40
33.64
 49
25.23
 74
       0
 49
-8.41
 74
       0
  0
LTYPE
  5
1E
100
AcDbSymbolTableRecord
100
AcDbLinetypeTableRecord
  2
HIDDEN
 70
      64
  3
CADPAC LINETYPE
 72
      65
 73
       2
 40
25.23
 49
16.82
 74
       0
 49
-8.41
 74
       0
  0
LTYPE
  5
1F
100
AcDbSymbolTableRecord
100
AcDbLinetypeTableRecord
  2
HIDDEN2
 70
      64
  3
CADPAC LINETYPE
 72
      65
 73
       2
 40
21.025
 49
12.615
 74
       0
 49
-8.41
 74
       0
  0
LTYPE
  5
20
100
AcDbSymbolTableRecord
100
AcDbLinetypeTableRecord
  2
DASHED
 70
      64
  3
CADPAC LINETYPE
 72
      65
 73
       2
 40
25.23
 49
16.82
 74
       0
 49
-8.41
 74
       0
  0
LTYPE
  5
21
100
AcDbSymbolTableRecord
100
AcDbLinetypeTableRecord
  2
DASHED2
 70
      64
  3
CADPAC LINETYPE
 72
      65
 73
       2
 40
18.9225
 49
12.615
 74
       0
 49
-6.3075
 74
       0
  0
LTYPE
  5
22
100
AcDbSymbolTableRecord
100
AcDbLinetypeTableRecord
  2
DASHEDX2
 70
      64
  3
CADPAC LINETYPE
 72
      65
 73
       2
 40
37.845
 49
25.23
 74
       0
 49
-12.615
 74
       0
  0
LTYPE
  5
23
100
AcDbSymbolTableRecord
100
AcDbLinetypeTableRecord
  2
DOTX2
 70
      64
  3
CADPAC LINETYPE
 72
      65
 73
       2
 40
10.5125
 49
0.0
 74
       0
 49
-10.5125
 74
       0
  0
LTYPE
  5
24
100
AcDbSymbolTableRecord
100
AcDbLinetypeTableRecord
  2
DOT
 70
      64
  3
CADPAC LINETYPE
 72
      65
 73
       2
 40
8.41
 49
0.0
 74
       0
 49
-8.41
 74
       0
  0
LTYPE
  5
25
100
AcDbSymbolTableRecord
100
AcDbLinetypeTableRecord
  2
DOT2
 70
      64
  3
CADPAC LINETYPE
 72
      65
 73
       2
 40
6.3075
 49
0.0
 74
       0
 49
-6.3075
 74
       0
  0
LTYPE
  5
26
100
AcDbSymbolTableRecord
100
AcDbLinetypeTableRecord
  2
CENTERX2
 70
      64
  3
CADPAC LINETYPE
 72
      65
 73
       4
 40
50.46
 49
21.025
 74
       0
 49
-10.5125
 74
       0
 49
8.41
 74
       0
 49
-10.5125
 74
       0
  0
LTYPE
  5
27
100
AcDbSymbolTableRecord
100
AcDbLinetypeTableRecord
  2
CENTER
 70
      64
  3
CADPAC LINETYPE
 72
      65
 73
       4
 40
38.686
 49
16.82
 74
       0
 49
-8.41
 74
       0
 49
5.046
 74
       0
 49
-8.41
 74
       0
  0
LTYPE
  5
28
100
AcDbSymbolTableRecord
100
AcDbLinetypeTableRecord
  2
CENTER2
 70
      64
  3
CADPAC LINETYPE
 72
      65
 73
       4
 40
26.912
 49
12.615
 74
       0
 49
-6.3075
 74
       0
 49
1.682
 74
       0
 49
-6.3075
 74
       0
  0
LTYPE
  5
29
100
AcDbSymbolTableRecord
100
AcDbLinetypeTableRecord
  2
DASHDOTX2
 70
      64
  3
CADPAC LINETYPE
 72
      65
 73
       4
 40
42.05
 49
21.025
 74
       0
 49
-10.5125
 74
       0
 49
0.0
 74
       0
 49
-10.5125
 74
       0
  0
LTYPE
  5
2A
100
AcDbSymbolTableRecord
100
AcDbLinetypeTableRecord
  2
DASHDOT
 70
      64
  3
CADPAC LINETYPE
 72
      65
 73
       4
 40
33.64
 49
16.82
 74
       0
 49
-8.41
 74
       0
 49
0.0
 74
       0
 49
-8.41
 74
       0
  0
LTYPE
  5
2B
100
AcDbSymbolTableRecord
100
AcDbLinetypeTableRecord
  2
DASHDOT2
 70
      64
  3
CADPAC LINETYPE
 72
      65
 73
       4
 40
25.23
 49
12.615
 74
       0
 49
-6.3075
 74
       0
 49
0.0
 74
       0
 49
-6.3075
 74
       0
  0
LTYPE
  5
2C
100
AcDbSymbolTableRecord
100
AcDbLinetypeTableRecord
  2
DIVIDEX2
 70
      64
  3
CADPAC LINETYPE
 72
      65
 73
       6
 40
52.5625
 49
21.025
 74
       0
 49
-10.5125
 74
       0
 49
0.0
 74
       0
 49
-10.5125
 74
       0
 49
0.0
 74
       0
 49
-10.5125
 74
       0
  0
LTYPE
  5
2D
100
AcDbSymbolTableRecord
100
AcDbLinetypeTableRecord
  2
DIVIDE
 70
      64
  3
CADPAC LINETYPE
 72
      65
 73
       6
 40
42.05
 49
16.82
 74
       0
 49
-8.41
 74
       0
 49
0.0
 74
       0
 49
-8.41
 74
       0
 49
0.0
 74
       0
 49
-8.41
 74
       0
  0
LTYPE
  5
2E
100
AcDbSymbolTableRecord
100
AcDbLinetypeTableRecord
  2
DIVIDE2
 70
      64
  3
CADPAC LINETYPE
 72
      65
 73
       6
 40
31.5375
 49
12.615
 74
       0
 49
-6.3075
 74
       0
 49
0.0
 74
       0
 49
-6.3075
 74
       0
 49
0.0
 74
       0
 49
-6.3075
 74
       0
  0
LTYPE
  5
2F
100
AcDbSymbolTableRecord
100
AcDbLinetypeTableRecord
  2
BORDERX2
 70
      64
  3
CADPAC LINETYPE
 72
      65
 73
       6
 40
73.5875
 49
21.025
 74
       0
 49
-10.5125
 74
       0
 49
21.025
 74
       0
 49
-10.5125
 74
       0
 49
0.0
 74
       0
 49
-10.5125
 74
       0
  0
LTYPE
  5
30
100
AcDbSymbolTableRecord
100
AcDbLinetypeTableRecord
  2
BORDER
 70
      64
  3
CADPAC LINETYPE
 72
      65
 73
       6
 40
58.87
 49
16.82
 74
       0
 49
-8.41
 74
       0
 49
16.82
 74
       0
 49
-8.41
 74
       0
 49
0.0
 74
       0
 49
-8.41
 74
       0
  0
LTYPE
  5
31
100
AcDbSymbolTableRecord
100
AcDbLinetypeTableRecord
  2
BORDER2
 70
      64
  3
CADPAC LINETYPE
 72
      65
 73
       6
 40
44.1525
 49
12.615
 74
       0
 49
-6.3075
 74
       0
 49
12.615
 74
       0
 49
-6.3075
 74
       0
 49
0.0
 74
       0
 49
-6.3075
 74
       0
  0
LTYPE
  5
32
100
AcDbSymbolTableRecord
100
AcDbLinetypeTableRecord
  2
PHANTOMX2
 70
      64
  3
CADPAC LINETYPE
 72
      65
 73
       6
 40
63.075
 49
21.025
 74
       0
 49
-8.41
 74
       0
 49
8.41
 74
       0
 49
-8.41
 74
       0
 49
8.41
 74
       0
 49
-8.41
 74
       0
  0
LTYPE
  5
33
100
AcDbSymbolTableRecord
100
AcDbLinetypeTableRecord
  2
PHANTOM
 70
      64
  3
CADPAC LINETYPE
 72
      65
 73
       6
 40
52.142
 49
16.82
 74
       0
 49
-8.41
 74
       0
 49
5.046
 74
       0
 49
-8.41
 74
       0
 49
5.046
 74
       0
 49
-8.41
 74
       0
  0
LTYPE
  5
34
100
AcDbSymbolTableRecord
100
AcDbLinetypeTableRecord
  2
PHANTOM2
 70
      64
  3
CADPAC LINETYPE
 72
      65
 73
       6
 40
44.573
 49
12.615
 74
       0
 49
-8.41
 74
       0
 49
3.364
 74
       0
 49
-8.41
 74
       0
 49
3.364
 74
       0
 49
-8.41
 74
       0
  0
LTYPE
  5
35
100
AcDbSymbolTableRecord
100
AcDbLinetypeTableRecord
  2
ACAD_ISO06W100
 70
      64
  3
CADPAC LINETYPE
 72
      65
 73
       8
 40
56.7675
 49
21.025
 74
       0
 49
-10.5125
 74
       0
 49
0.0
 74
       0
 49
-8.41
 74
       0
 49
0.0
 74
       0
 49
-8.41
 74
       0
 49
0.0
 74
       0
 49
-8.41
 74
       0
  0
LTYPE
  5
36
100
AcDbSymbolTableRecord
100
AcDbLinetypeTableRecord
  2
ACAD_ISO13W100
 70
      64
  3
CADPAC LINETYPE
 72
      65
 73
       8
 40
67.28
 49
16.82
 74
       0
 49
-8.41
 74
       0
 49
16.82
 74
       0
 49
-8.41
 74
       0
 49
0.0
 74
       0
 49
-8.41
 74
       0
 49
0.0
 74
       0
 49
-8.41
 74
       0
  0
LTYPE
  5
37
100
AcDbSymbolTableRecord
100
AcDbLinetypeTableRecord
  2
ACAD_ISO14W100
 70
      64
  3
CADPAC LINETYPE
 72
      65
 73
       8
 40
50.46
 49
16.82
 74
       0
 49
-8.41
 74
       0
 49
0.0
 74
       0
 49
-8.41
 74
       0
 49
0.0
 74
       0
 49
-8.41
 74
       0
 49
0.0
 74
       0
 49
-8.41
 74
       0
  0
ENDTAB
  0
TABLE
  2
LAYER
  5
2
100
AcDbSymbolTable
 70
       3
  0
LAYER
  5
14
100
AcDbSymbolTableRecord
100
AcDbLayerTableRecord
  2
0
 70
       0
 62
       7
  6
CONTINUOUS
  0
LAYER
  5
38
100
AcDbSymbolTableRecord
100
AcDbLayerTableRecord
  2
D-STR
 70
       0
 62
       7
  6
CONTINUOUS
  0
LAYER
  5
39
100
AcDbSymbolTableRecord
100
AcDbLayerTableRecord
  2
D-STR-TXT
 70
       0
 62
       7
  6
CONTINUOUS
  0
ENDTAB
  0
TABLE
  2
STYLE
  5
3
100
AcDbSymbolTable
 70
       1
  0
STYLE
  5
17
100
AcDbSymbolTableRecord
100
AcDbTextStyleTableRecord
  2
STANDARD
 70
       0
 40
0.0
 41
1.0
 50
0.0
 71
       0
 42
25.0
  3
MS Gothic.ttf
  4

1001
ACAD
1000
MS Gothic
1071
    32786
  0
ENDTAB
  0
TABLE
  2
VIEW
  5
5
100
AcDbSymbolTable
 70
       1
  0
VIEW
  5
3A
100
AcDbSymbolTableRecord
100
AcDbViewTableRecord
  2
QQQQ
 70
       0
 40
615.485
 10
154.5
 20
27.5
 41
1270.75
 11
0.0
 21
0.0
 31
1.0
 12
100.0
 22
100.0
 32
0.0
 42
50.0
 43
0.0
 44
0.0
 50
0.0
 71
       0
  0
ENDTAB
  0
TABLE
  2
UCS
  5
6
100
AcDbSymbolTable
 70
       0
  0
ENDTAB
  0
TABLE
  2
APPID
  5
8
100
AcDbSymbolTable
 70
       1
  0
APPID
  5
16
100
AcDbSymbolTableRecord
100
AcDbRegAppTableRecord
  2
ACAD
 70
       0
  0
ENDTAB
  0
TABLE
  2
DIMSTYLE
  5
9
100
AcDbSymbolTable
 70
       1
  0
DIMSTYLE
105
18
100
AcDbSymbolTableRecord
100
AcDbDimStyleTableRecord
  2
STANDARD
 70
       0
  3

  4

  5

  6

  7

 40
1.0
 41
0.18
 42
0.0625
 43
0.38
 44
0.18
 45
0.0
 46
0.0
 47
0.0
 48
0.0
 71
       0
 72
       0
 73
       1
 74
       1
 75
       0
 76
       0
 77
       0
 78
       0
140
0.18
141
0.09
142
0.0
143
25.4
144
1.0
145
0.0
146
1.0
147
0.09
170
       0
171
       2
172
       0
173
       0
174
       0
175
       0
176
       0
177
       0
178
       0
270
       2
271
       4
272
       4
273
       2
274
       2
275
       0
280
       0
281
       0
282
       0
283
       1
284
       0
285
       0
286
       0
287
       0
288
       0
340
17
  0
ENDTAB
  0
TABLE
  2
BLOCK_RECORD
  5
1
100
AcDbSymbolTable
 70
      11
  0
BLOCK_RECORD
  5
A
100
AcDbSymbolTableRecord
100
AcDbBlockTableRecord
  2
*MODEL_SPACE
  0
BLOCK_RECORD
  5
B
100
AcDbSymbolTableRecord
100
AcDbBlockTableRecord
  2
*PAPER_SPACE
  0
BLOCK_RECORD
  5
3B
100
AcDbSymbolTableRecord
100
AcDbBlockTableRecord
  2
GROUP_1
  0
BLOCK_RECORD
  5
3C
100
AcDbSymbolTableRecord
100
AcDbBlockTableRecord
  2
GROUP_2
  0
BLOCK_RECORD
  5
3D
100
AcDbSymbolTableRecord
100
AcDbBlockTableRecord
  2
GROUP_3
  0
BLOCK_RECORD
  5
3E
100
AcDbSymbolTableRecord
100
AcDbBlockTableRecord
  2
GROUP_4
  0
BLOCK_RECORD
  5
3F
100
AcDbSymbolTableRecord
100
AcDbBlockTableRecord
  2
GROUP_5
  0
BLOCK_RECORD
  5
40
100
AcDbSymbolTableRecord
100
AcDbBlockTableRecord
  2
GROUP_6
  0
BLOCK_RECORD
  5
41
100
AcDbSymbolTableRecord
100
AcDbBlockTableRecord
  2
GROUP_7
  0
BLOCK_RECORD
  5
42
100
AcDbSymbolTableRecord
100
AcDbBlockTableRecord
  2
GROUP_8
  0
BLOCK_RECORD
  5
43
100
AcDbSymbolTableRecord
100
AcDbBlockTableRecord
  2
GROUP_9
  0
BLOCK_RECORD
  5
44
100
AcDbSymbolTableRecord
100
AcDbBlockTableRecord
  2
GROUP_10
  0
BLOCK_RECORD
  5
45
100
AcDbSymbolTableRecord
100
AcDbBlockTableRecord
  2
GROUP_11
  0
ENDTAB
  0
ENDSEC
  0
SECTION
  2
BLOCKS
  0
BLOCK
  5
D
100
AcDbEntity
  8
0
100
AcDbBlockBegin
  2
*MODEL_SPACE
 70
       0
 10
0.0
 20
0.0
 30
0.0
  3
*MODEL_SPACE
  1

  0
ENDBLK
  5
E
100
AcDbEntity
  8
0
100
AcDbBlockEnd
  0
BLOCK
  5
F
100
AcDbEntity
 67
       1
  8
0
100
AcDbBlockBegin
  2
*PAPER_SPACE
 70
       0
 10
0.0
 20
0.0
 30
0.0
  3
*PAPER_SPACE
  1

  0
ENDBLK
  5
10
100
AcDbEntity
 67
       1
  8
0
100
AcDbBlockEnd
  0
BLOCK
  5
46
100
AcDbEntity
  8
0
100
AcDbBlockBegin
  2
GROUP_1
 70
       0
 10
0.0
 20
0.0
 30
0.0
  3
GROUP_1
  1

  0
LINE
  5
47
100
AcDbEntity
  8
D-STR
  6
CONTINUOUS
 62
       1
100
AcDbLine
 10
-220.5
 20
140.0
 30
0.0
 11
-370.5
 21
140.0
 31
0.0
  0
LINE
  5
48
100
AcDbEntity
  8
D-STR
  6
CONTINUOUS
 62
       1
100
AcDbLine
 10
-220.5
 20
140.0
 30
0.0
 11
-220.5
 21
134.0
 31
0.0
  0
LINE
  5
49
100
AcDbEntity
  8
D-STR
  6
CONTINUOUS
 62
       1
100
AcDbLine
 10
-370.5
 20
140.0
 30
0.0
 11
-370.5
 21
134.0
 31
0.0
  0
LINE
  5
4A
100
AcDbEntity
  8
D-STR
  6
CONTINUOUS
 62
       1
100
AcDbLine
 10
-289.5
 20
101.0
 30
0.0
 11
-301.5
 21
101.0
 31
0.0
  0
LINE
  5
4B
100
AcDbEntity
  8
D-STR
  6
CONTINUOUS
 62
       1
100
AcDbLine
 10
-289.5
 20
123.0
 30
0.0
 11
-289.5
 21
101.0
 31
0.0
  0
LINE
  5
4C
100
AcDbEntity
  8
D-STR
  6
CONTINUOUS
 62
       1
100
AcDbLine
 10
-301.5
 20
123.0
 30
0.0
 11
-301.5
 21
101.0
 31
0.0
  0
LINE
  5
4D
100
AcDbEntity
  8
D-STR
  6
CONTINUOUS
 62
       1
100
AcDbLine
 10
-223.5
 20
131.0
 30
0.0
 11
-281.5
 21
131.0
 31
0.0
  0
ARC
  5
4E
100
AcDbEntity
  8
D-STR
  6
CONTINUOUS
 62
       1
100
AcDbCircle
 10
-223.5
 20
134.0
 30
0.0
 40
3.0
100
AcDbArc
 50
270.0
 51
360.0
  0
ARC
  5
4F
100
AcDbEntity
  8
D-STR
  6
CONTINUOUS
 62
       1
100
AcDbCircle
 10
-367.5
 20
134.0
 30
0.0
 40
3.0
100
AcDbArc
 50
180.0
 51
270.0
  0
LINE
  5
50
100
AcDbEntity
  8
D-STR
  6
CONTINUOUS
 62
       1
100
AcDbLine
 10
-309.5
 20
131.0
 30
0.0
 11
-367.5
 21
131.0
 31
0.0
  0
ARC
  5
51
100
AcDbEntity
  8
D-STR
  6
CONTINUOUS
 62
       1
100
AcDbCircle
 10
-309.5
 20
123.0
 30
0.0
 40
8.0
100
AcDbArc
 50
360.0
 51
450.0
  0
ARC
  5
52
100
AcDbEntity
  8
D-STR
  6
CONTINUOUS
 62
       1
100
AcDbCircle
 10
-281.5
 20
123.0
 30
0.0
 40
8.0
100
AcDbArc
 50
90.0
 51
180.0
  0
ENDBLK
  5
53
100
AcDbEntity
  8
0
100
AcDbBlockEnd
  0
BLOCK
  5
54
100
AcDbEntity
  8
0
100
AcDbBlockBegin
  2
GROUP_2
 70
       0
 10
0.0
 20
0.0
 30
0.0
  3
GROUP_2
  1

  0
LINE
  5
55
100
AcDbEntity
  8
D-STR
  6
CONTINUOUS
 62
       1
100
AcDbLine
 10
-195.5
 20
-49.0
 30
0.0
 11
-395.5
 21
-49.0
 31
0.0
  0
LINE
  5
56
100
AcDbEntity
  8
D-STR
  6
CONTINUOUS
 62
       1
100
AcDbLine
 10
-195.5
 20
-49.0
 30
0.0
 11
-195.5
 21
-58.0
 31
0.0
  0
LINE
  5
57
100
AcDbEntity
  8
D-STR
  6
CONTINUOUS
 62
       1
100
AcDbLine
 10
-395.5
 20
-49.0
 30
0.0
 11
-395.5
 21
-58.0
 31
0.0
  0
LINE
  5
58
100
AcDbEntity
  8
D-STR
  6
CONTINUOUS
 62
       1
100
AcDbLine
 10
-289.5
 20
-91.0
 30
0.0
 11
-301.5
 21
-91.0
 31
0.0
  0
LINE
  5
59
100
AcDbEntity
  8
D-STR
  6
CONTINUOUS
 62
       1
100
AcDbLine
 10
-289.5
 20
-91.0
 30
0.0
 11
-289.5
 21
-69.0
 31
0.0
  0
LINE
  5
5A
100
AcDbEntity
  8
D-STR
  6
CONTINUOUS
 62
       1
100
AcDbLine
 10
-301.5
 20
-91.0
 30
0.0
 11
-301.5
 21
-69.0
 31
0.0
  0
LINE
  5
5B
100
AcDbEntity
  8
D-STR
  6
CONTINUOUS
 62
       1
100
AcDbLine
 10
-198.5
 20
-61.0
 30
0.0
 11
-281.5
 21
-61.0
 31
0.0
  0
LINE
  5
5C
100
AcDbEntity
  8
D-STR
  6
CONTINUOUS
 62
       1
100
AcDbLine
 10
-309.5
 20
-61.0
 30
0.0
 11
-392.5
 21
-61.0
 31
0.0
  0
ARC
  5
5D
100
AcDbEntity
  8
D-STR
  6
CONTINUOUS
 62
       1
100
AcDbCircle
 10
-281.5
 20
-69.0
 30
0.0
 40
8.0
100
AcDbArc
 50
90.0
 51
180.0
  0
ARC
  5
5E
100
AcDbEntity
  8
D-STR
  6
CONTINUOUS
 62
       1
100
AcDbCircle
 10
-309.5
 20
-69.0
 30
0.0
 40
8.0
100
AcDbArc
 50
0.0
 51
90.0
  0
ARC
  5
5F
100
AcDbEntity
  8
D-STR
  6
CONTINUOUS
 62
       1
100
AcDbCircle
 10
-198.5
 20
-58.0
 30
0.0
 40
3.0
100
AcDbArc
 50
270.0
 51
360.0
  0
ARC
  5
60
100
AcDbEntity
  8
D-STR
  6
CONTINUOUS
 62
       1
100
AcDbCircle
 10
-392.5
 20
-58.0
 30
0.0
 40
3.0
100
AcDbArc
 50
180.0
 51
270.0
  0
ENDBLK
  5
61
100
AcDbEntity
  8
0
100
AcDbBlockEnd
  0
BLOCK
  5
62
100
AcDbEntity
  8
0
100
AcDbBlockBegin
  2
GROUP_3
 70
       0
 10
0.0
 20
0.0
 30
0.0
  3
GROUP_3
  1

  0
LINE
  5
63
100
AcDbEntity
  8
D-STR
  6
CONTINUOUS
 62
       1
100
AcDbLine
 10
-170.5
 20
-251.0
 30
0.0
 11
-420.5
 21
-251.0
 31
0.0
  0
LINE
  5
64
100
AcDbEntity
  8
D-STR
  6
CONTINUOUS
 62
       1
100
AcDbLine
 10
-321.5
 20
-267.0
 30
0.0
 11
-417.5
 21
-267.0
 31
0.0
  0
LINE
  5
65
100
AcDbEntity
  8
D-STR
  6
CONTINUOUS
 62
       1
100
AcDbLine
 10
-289.5
 20
-297.0
 30
0.0
 11
-301.5
 21
-297.0
 31
0.0
  0
LINE
  5
66
100
AcDbEntity
  8
D-STR
  6
CONTINUOUS
 62
       1
100
AcDbLine
 10
-289.5
 20
-297.0
 30
0.0
 11
-289.5
 21
-287.0
 31
0.0
  0
LINE
  5
67
100
AcDbEntity
  8
D-STR
  6
CONTINUOUS
 62
       1
100
AcDbLine
 10
-301.5
 20
-297.0
 30
0.0
 11
-301.5
 21
-287.0
 31
0.0
  0
LINE
  5
68
100
AcDbEntity
  8
D-STR
  6
CONTINUOUS
 62
       1
100
AcDbLine
 10
-173.5
 20
-267.0
 30
0.0
 11
-269.5
 21
-267.0
 31
0.0
  0
LINE
  5
69
100
AcDbEntity
  8
D-STR
  6
CONTINUOUS
 62
       1
100
AcDbLine
 10
-170.5
 20
-251.0
 30
0.0
 11
-170.5
 21
-264.0
 31
0.0
  0
ARC
  5
6A
100
AcDbEntity
  8
D-STR
  6
CONTINUOUS
 62
       1
100
AcDbCircle
 10
-173.5
 20
-264.0
 30
0.0
 40
3.0
100
AcDbArc
 50
270.0
 51
360.0
  0
LINE
  5
6B
100
AcDbEntity
  8
D-STR
  6
CONTINUOUS
 62
       1
100
AcDbLine
 10
-420.5
 20
-251.0
 30
0.0
 11
-420.5
 21
-264.0
 31
0.0
  0
ARC
  5
6C
100
AcDbEntity
  8
D-STR
  6
CONTINUOUS
 62
       1
100
AcDbCircle
 10
-417.5
 20
-264.0
 30
0.0
 40
3.0
100
AcDbArc
 50
180.0
 51
270.0
  0
ARC
  5
6D
100
AcDbEntity
  8
D-STR
  6
CONTINUOUS
 62
       1
100
AcDbCircle
 10
-321.5
 20
-287.0
 30
0.0
 40
20.0
100
AcDbArc
 50
0.0
 51
90.0
  0
ARC
  5
6E
100
AcDbEntity
  8
D-STR
  6
CONTINUOUS
 62
       1
100
AcDbCircle
 10
-269.5
 20
-287.0
 30
0.0
 40
20.0
100
AcDbArc
 50
90.0
 51
180.0
  0
ENDBLK
  5
6F
100
AcDbEntity
  8
0
100
AcDbBlockEnd
  0
BLOCK
  5
70
100
AcDbEntity
  8
0
100
AcDbBlockBegin
  2
GROUP_4
 70
       0
 10
0.0
 20
0.0
 30
0.0
  3
GROUP_4
  1

  0
LINE
  5
71
100
AcDbEntity
  8
D-STR
  6
CONTINUOUS
 62
       1
100
AcDbLine
 10
-21.5
 20
-270.0
 30
0.0
 11
-117.5
 21
-270.0
 31
0.0
  0
LINE
  5
72
100
AcDbEntity
  8
D-STR
  6
CONTINUOUS
 62
       1
100
AcDbLine
 10
129.5
 20
-251.0
 30
0.0
 11
-120.5
 21
-251.0
 31
0.0
  0
ARC
  5
73
100
AcDbEntity
  8
D-STR
  6
CONTINUOUS
 62
       1
100
AcDbCircle
 10
30.5
 20
-290.0
 30
0.0
 40
20.0
100
AcDbArc
 50
90.0
 51
180.0
  0
LINE
  5
74
100
AcDbEntity
  8
D-STR
  6
CONTINUOUS
 62
       1
100
AcDbLine
 10
126.5
 20
-270.0
 30
0.0
 11
30.5
 21
-270.0
 31
0.0
  0
LINE
  5
75
100
AcDbEntity
  8
D-STR
  6
CONTINUOUS
 62
       1
100
AcDbLine
 10
129.5
 20
-251.0
 30
0.0
 11
129.5
 21
-267.0
 31
0.0
  0
ARC
  5
76
100
AcDbEntity
  8
D-STR
  6
CONTINUOUS
 62
       1
100
AcDbCircle
 10
126.5
 20
-267.0
 30
0.0
 40
3.0
100
AcDbArc
 50
270.0
 51
360.0
  0
LINE
  5
77
100
AcDbEntity
  8
D-STR
  6
CONTINUOUS
 62
       1
100
AcDbLine
 10
10.5
 20
-300.0
 30
0.0
 11
10.5
 21
-290.0
 31
0.0
  0
LINE
  5
78
100
AcDbEntity
  8
D-STR
  6
CONTINUOUS
 62
       1
100
AcDbLine
 10
-1.5
 20
-300.0
 30
0.0
 11
-1.5
 21
-290.0
 31
0.0
  0
ARC
  5
79
100
AcDbEntity
  8
D-STR
  6
CONTINUOUS
 62
       1
100
AcDbCircle
 10
-21.5
 20
-290.0
 30
0.0
 40
20.0
100
AcDbArc
 50
0.0
 51
90.0
  0
LINE
  5
7A
100
AcDbEntity
  8
D-STR
  6
CONTINUOUS
 62
       1
100
AcDbLine
 10
10.5
 20
-300.0
 30
0.0
 11
-1.5
 21
-300.0
 31
0.0
  0
LINE
  5
7B
100
AcDbEntity
  8
D-STR
  6
CONTINUOUS
 62
       1
100
AcDbLine
 10
-120.5
 20
-251.0
 30
0.0
 11
-120.5
 21
-267.0
 31
0.0
  0
ARC
  5
7C
100
AcDbEntity
  8
D-STR
  6
CONTINUOUS
 62
       1
100
AcDbCircle
 10
-117.5
 20
-267.0
 30
0.0
 40
3.0
100
AcDbArc
 50
180.0
 51
270.0
  0
ENDBLK
  5
7D
100
AcDbEntity
  8
0
100
AcDbBlockEnd
  0
BLOCK
  5
7E
100
AcDbEntity
  8
0
100
AcDbBlockBegin
  2
GROUP_5
 70
       0
 10
0.0
 20
0.0
 30
0.0
  3
GROUP_5
  1

  0
LINE
  5
7F
100
AcDbEntity
  8
D-STR
  6
CONTINUOUS
 62
       1
100
AcDbLine
 10
-9.5
 20
-65.0
 30
0.0
 11
-92.5
 21
-65.0
 31
0.0
  0
LINE
  5
80
100
AcDbEntity
  8
D-STR
  6
CONTINUOUS
 62
       1
100
AcDbLine
 10
104.5
 20
-49.0
 30
0.0
 11
-95.5
 21
-49.0
 31
0.0
  0
LINE
  5
81
100
AcDbEntity
  8
D-STR
  6
CONTINUOUS
 62
       1
100
AcDbLine
 10
101.5
 20
-65.0
 30
0.0
 11
18.5
 21
-65.0
 31
0.0
  0
ARC
  5
82
100
AcDbEntity
  8
D-STR
  6
CONTINUOUS
 62
       1
100
AcDbCircle
 10
101.5
 20
-62.0
 30
0.0
 40
3.0
100
AcDbArc
 50
270.0
 51
360.0
  0
LINE
  5
83
100
AcDbEntity
  8
D-STR
  6
CONTINUOUS
 62
       1
100
AcDbLine
 10
104.5
 20
-49.0
 30
0.0
 11
104.5
 21
-62.0
 31
0.0
  0
ARC
  5
84
100
AcDbEntity
  8
D-STR
  6
CONTINUOUS
 62
       1
100
AcDbCircle
 10
-9.5
 20
-73.0
 30
0.0
 40
8.0
100
AcDbArc
 50
0.0
 51
90.0
  0
ARC
  5
85
100
AcDbEntity
  8
D-STR
  6
CONTINUOUS
 62
       1
100
AcDbCircle
 10
18.5
 20
-73.0
 30
0.0
 40
8.0
100
AcDbArc
 50
90.0
 51
180.0
  0
LINE
  5
86
100
AcDbEntity
  8
D-STR
  6
CONTINUOUS
 62
       1
100
AcDbLine
 10
-1.5
 20
-95.0
 30
0.0
 11
-1.5
 21
-73.0
 31
0.0
  0
LINE
  5
87
100
AcDbEntity
  8
D-STR
  6
CONTINUOUS
 62
       1
100
AcDbLine
 10
10.5
 20
-95.0
 30
0.0
 11
10.5
 21
-73.0
 31
0.0
  0
LINE
  5
88
100
AcDbEntity
  8
D-STR
  6
CONTINUOUS
 62
       1
100
AcDbLine
 10
10.5
 20
-95.0
 30
0.0
 11
-1.5
 21
-95.0
 31
0.0
  0
ARC
  5
89
100
AcDbEntity
  8
D-STR
  6
CONTINUOUS
 62
       1
100
AcDbCircle
 10
-92.5
 20
-62.0
 30
0.0
 40
3.0
100
AcDbArc
 50
180.0
 51
270.0
  0
LINE
  5
8A
100
AcDbEntity
  8
D-STR
  6
CONTINUOUS
 62
       1
100
AcDbLine
 10
-95.5
 20
-49.0
 30
0.0
 11
-95.5
 21
-62.0
 31
0.0
  0
ENDBLK
  5
8B
100
AcDbEntity
  8
0
100
AcDbBlockEnd
  0
BLOCK
  5
8C
100
AcDbEntity
  8
0
100
AcDbBlockBegin
  2
GROUP_6
 70
       0
 10
0.0
 20
0.0
 30
0.0
  3
GROUP_6
  1

  0
LINE
  5
8D
100
AcDbEntity
  8
D-STR
  6
CONTINUOUS
 62
       1
100
AcDbLine
 10
79.5
 20
140.0
 30
0.0
 11
-70.5
 21
140.0
 31
0.0
  0
LINE
  5
8E
100
AcDbEntity
  8
D-STR
  6
CONTINUOUS
 62
       1
100
AcDbLine
 10
-9.5
 20
128.0
 30
0.0
 11
-67.5
 21
128.0
 31
0.0
  0
LINE
  5
8F
100
AcDbEntity
  8
D-STR
  6
CONTINUOUS
 62
       1
100
AcDbLine
 10
76.5
 20
128.0
 30
0.0
 11
18.5
 21
128.0
 31
0.0
  0
ARC
  5
90
100
AcDbEntity
  8
D-STR
  6
CONTINUOUS
 62
       1
100
AcDbCircle
 10
76.5
 20
131.0
 30
0.0
 40
3.0
100
AcDbArc
 50
270.0
 51
360.0
  0
LINE
  5
91
100
AcDbEntity
  8
D-STR
  6
CONTINUOUS
 62
       1
100
AcDbLine
 10
79.5
 20
140.0
 30
0.0
 11
79.5
 21
131.0
 31
0.0
  0
ARC
  5
92
100
AcDbEntity
  8
D-STR
  6
CONTINUOUS
 62
       1
100
AcDbCircle
 10
-9.5
 20
120.0
 30
0.0
 40
8.0
100
AcDbArc
 50
360.0
 51
450.0
  0
ARC
  5
93
100
AcDbEntity
  8
D-STR
  6
CONTINUOUS
 62
       1
100
AcDbCircle
 10
18.5
 20
120.0
 30
0.0
 40
8.0
100
AcDbArc
 50
90.0
 51
180.0
  0
LINE
  5
94
100
AcDbEntity
  8
D-STR
  6
CONTINUOUS
 62
       1
100
AcDbLine
 10
10.5
 20
120.0
 30
0.0
 11
10.5
 21
98.0
 31
0.0
  0
LINE
  5
95
100
AcDbEntity
  8
D-STR
  6
CONTINUOUS
 62
       1
100
AcDbLine
 10
10.5
 20
98.0
 30
0.0
 11
-1.5
 21
98.0
 31
0.0
  0
LINE
  5
96
100
AcDbEntity
  8
D-STR
  6
CONTINUOUS
 62
       1
100
AcDbLine
 10
-1.5
 20
120.0
 30
0.0
 11
-1.5
 21
98.0
 31
0.0
  0
ARC
  5
97
100
AcDbEntity
  8
D-STR
  6
CONTINUOUS
 62
       1
100
AcDbCircle
 10
-67.5
 20
131.0
 30
0.0
 40
3.0
100
AcDbArc
 50
180.0
 51
270.0
  0
LINE
  5
98
100
AcDbEntity
  8
D-STR
  6
CONTINUOUS
 62
       1
100
AcDbLine
 10
-70.5
 20
140.0
 30
0.0
 11
-70.5
 21
131.0
 31
0.0
  0
ENDBLK
  5
99
100
AcDbEntity
  8
0
100
AcDbBlockEnd
  0
BLOCK
  5
9A
100
AcDbEntity
  8
0
100
AcDbBlockBegin
  2
GROUP_7
 70
       0
 10
0.0
 20
0.0
 30
0.0
  3
GROUP_7
  1

  0
LINE
  5
9B
100
AcDbEntity
  8
D-STR
  6
CONTINUOUS
 62
       1
100
AcDbLine
 10
379.5
 20
140.0
 30
0.0
 11
229.5
 21
140.0
 31
0.0
  0
LINE
  5
9C
100
AcDbEntity
  8
D-STR
  6
CONTINUOUS
 62
       1
100
AcDbLine
 10
290.5
 20
125.0
 30
0.0
 11
232.5
 21
125.0
 31
0.0
  0
LINE
  5
9D
100
AcDbEntity
  8
D-STR
  6
CONTINUOUS
 62
       1
100
AcDbLine
 10
376.5
 20
125.0
 30
0.0
 11
318.5
 21
125.0
 31
0.0
  0
ARC
  5
9E
100
AcDbEntity
  8
D-STR
  6
CONTINUOUS
 62
       1
100
AcDbCircle
 10
376.5
 20
128.0
 30
0.0
 40
3.0
100
AcDbArc
 50
270.0
 51
360.0
  0
LINE
  5
9F
100
AcDbEntity
  8
D-STR
  6
CONTINUOUS
 62
       1
100
AcDbLine
 10
379.5
 20
140.0
 30
0.0
 11
379.5
 21
128.0
 31
0.0
  0
ARC
  5
A0
100
AcDbEntity
  8
D-STR
  6
CONTINUOUS
 62
       1
100
AcDbCircle
 10
290.5
 20
117.0
 30
0.0
 40
8.0
100
AcDbArc
 50
360.0
 51
450.0
  0
ARC
  5
A1
100
AcDbEntity
  8
D-STR
  6
CONTINUOUS
 62
       1
100
AcDbCircle
 10
318.5
 20
117.0
 30
0.0
 40
8.0
100
AcDbArc
 50
90.0
 51
180.0
  0
LINE
  5
A2
100
AcDbEntity
  8
D-STR
  6
CONTINUOUS
 62
       1
100
AcDbLine
 10
310.5
 20
117.0
 30
0.0
 11
310.5
 21
95.0
 31
0.0
  0
LINE
  5
A3
100
AcDbEntity
  8
D-STR
  6
CONTINUOUS
 62
       1
100
AcDbLine
 10
310.5
 20
95.0
 30
0.0
 11
298.5
 21
95.0
 31
0.0
  0
LINE
  5
A4
100
AcDbEntity
  8
D-STR
  6
CONTINUOUS
 62
       1
100
AcDbLine
 10
298.5
 20
117.0
 30
0.0
 11
298.5
 21
95.0
 31
0.0
  0
ARC
  5
A5
100
AcDbEntity
  8
D-STR
  6
CONTINUOUS
 62
       1
100
AcDbCircle
 10
232.5
 20
128.0
 30
0.0
 40
3.0
100
AcDbArc
 50
180.0
 51
270.0
  0
LINE
  5
A6
100
AcDbEntity
  8
D-STR
  6
CONTINUOUS
 62
       1
100
AcDbLine
 10
229.5
 20
140.0
 30
0.0
 11
229.5
 21
128.0
 31
0.0
  0
ENDBLK
  5
A7
100
AcDbEntity
  8
0
100
AcDbBlockEnd
  0
BLOCK
  5
A8
100
AcDbEntity
  8
0
100
AcDbBlockBegin
  2
GROUP_8
 70
       0
 10
0.0
 20
0.0
 30
0.0
  3
GROUP_8
  1

  0
LINE
  5
A9
100
AcDbEntity
  8
D-STR
  6
CONTINUOUS
 62
       1
100
AcDbLine
 10
290.5
 20
-68.0
 30
0.0
 11
207.5
 21
-68.0
 31
0.0
  0
LINE
  5
AA
100
AcDbEntity
  8
D-STR
  6
CONTINUOUS
 62
       1
100
AcDbLine
 10
404.5
 20
-49.0
 30
0.0
 11
204.5
 21
-49.0
 31
0.0
  0
LINE
  5
AB
100
AcDbEntity
  8
D-STR
  6
CONTINUOUS
 62
       1
100
AcDbLine
 10
401.5
 20
-68.0
 30
0.0
 11
318.5
 21
-68.0
 31
0.0
  0
ARC
  5
AC
100
AcDbEntity
  8
D-STR
  6
CONTINUOUS
 62
       1
100
AcDbCircle
 10
401.5
 20
-65.0
 30
0.0
 40
3.0
100
AcDbArc
 50
270.0
 51
360.0
  0
LINE
  5
AD
100
AcDbEntity
  8
D-STR
  6
CONTINUOUS
 62
       1
100
AcDbLine
 10
404.5
 20
-49.0
 30
0.0
 11
404.5
 21
-65.0
 31
0.0
  0
ARC
  5
AE
100
AcDbEntity
  8
D-STR
  6
CONTINUOUS
 62
       1
100
AcDbCircle
 10
290.5
 20
-76.0
 30
0.0
 40
8.0
100
AcDbArc
 50
0.0
 51
90.0
  0
ARC
  5
AF
100
AcDbEntity
  8
D-STR
  6
CONTINUOUS
 62
       1
100
AcDbCircle
 10
318.5
 20
-76.0
 30
0.0
 40
8.0
100
AcDbArc
 50
90.0
 51
180.0
  0
LINE
  5
B0
100
AcDbEntity
  8
D-STR
  6
CONTINUOUS
 62
       1
100
AcDbLine
 10
298.5
 20
-98.0
 30
0.0
 11
298.5
 21
-76.0
 31
0.0
  0
LINE
  5
B1
100
AcDbEntity
  8
D-STR
  6
CONTINUOUS
 62
       1
100
AcDbLine
 10
310.5
 20
-98.0
 30
0.0
 11
310.5
 21
-76.0
 31
0.0
  0
LINE
  5
B2
100
AcDbEntity
  8
D-STR
  6
CONTINUOUS
 62
       1
100
AcDbLine
 10
310.5
 20
-98.0
 30
0.0
 11
298.5
 21
-98.0
 31
0.0
  0
ARC
  5
B3
100
AcDbEntity
  8
D-STR
  6
CONTINUOUS
 62
       1
100
AcDbCircle
 10
207.5
 20
-65.0
 30
0.0
 40
3.0
100
AcDbArc
 50
180.0
 51
270.0
  0
LINE
  5
B4
100
AcDbEntity
  8
D-STR
  6
CONTINUOUS
 62
       1
100
AcDbLine
 10
204.5
 20
-49.0
 30
0.0
 11
204.5
 21
-65.0
 31
0.0
  0
ENDBLK
  5
B5
100
AcDbEntity
  8
0
100
AcDbBlockEnd
  0
BLOCK
  5
B6
100
AcDbEntity
  8
0
100
AcDbBlockBegin
  2
GROUP_9
 70
       0
 10
0.0
 20
0.0
 30
0.0
  3
GROUP_9
  1

  0
LINE
  5
B7
100
AcDbEntity
  8
D-STR
  6
CONTINUOUS
 62
       1
100
AcDbLine
 10
278.5
 20
-273.0
 30
0.0
 11
182.5
 21
-273.0
 31
0.0
  0
LINE
  5
B8
100
AcDbEntity
  8
D-STR
  6
CONTINUOUS
 62
       1
100
AcDbLine
 10
429.5
 20
-251.0
 30
0.0
 11
179.5
 21
-251.0
 31
0.0
  0
ARC
  5
B9
100
AcDbEntity
  8
D-STR
  6
CONTINUOUS
 62
       1
100
AcDbCircle
 10
330.5
 20
-293.0
 30
0.0
 40
20.0
100
AcDbArc
 50
90.0
 51
180.0
  0
LINE
  5
BA
100
AcDbEntity
  8
D-STR
  6
CONTINUOUS
 62
       1
100
AcDbLine
 10
426.5
 20
-273.0
 30
0.0
 11
330.5
 21
-273.0
 31
0.0
  0
LINE
  5
BB
100
AcDbEntity
  8
D-STR
  6
CONTINUOUS
 62
       1
100
AcDbLine
 10
429.5
 20
-251.0
 30
0.0
 11
429.5
 21
-270.0
 31
0.0
  0
ARC
  5
BC
100
AcDbEntity
  8
D-STR
  6
CONTINUOUS
 62
       1
100
AcDbCircle
 10
426.5
 20
-270.0
 30
0.0
 40
3.0
100
AcDbArc
 50
270.0
 51
360.0
  0
LINE
  5
BD
100
AcDbEntity
  8
D-STR
  6
CONTINUOUS
 62
       1
100
AcDbLine
 10
310.5
 20
-303.0
 30
0.0
 11
310.5
 21
-293.0
 31
0.0
  0
LINE
  5
BE
100
AcDbEntity
  8
D-STR
  6
CONTINUOUS
 62
       1
100
AcDbLine
 10
298.5
 20
-303.0
 30
0.0
 11
298.5
 21
-293.0
 31
0.0
  0
ARC
  5
BF
100
AcDbEntity
  8
D-STR
  6
CONTINUOUS
 62
       1
100
AcDbCircle
 10
278.5
 20
-293.0
 30
0.0
 40
20.0
100
AcDbArc
 50
0.0
 51
90.0
  0
LINE
  5
C0
100
AcDbEntity
  8
D-STR
  6
CONTINUOUS
 62
       1
100
AcDbLine
 10
310.5
 20
-303.0
 30
0.0
 11
298.5
 21
-303.0
 31
0.0
  0
LINE
  5
C1
100
AcDbEntity
  8
D-STR
  6
CONTINUOUS
 62
       1
100
AcDbLine
 10
179.5
 20
-251.0
 30
0.0
 11
179.5
 21
-270.0
 31
0.0
  0
ARC
  5
C2
100
AcDbEntity
  8
D-STR
  6
CONTINUOUS
 62
       1
100
AcDbCircle
 10
182.5
 20
-270.0
 30
0.0
 40
3.0
100
AcDbArc
 50
180.0
 51
270.0
  0
ENDBLK
  5
C3
100
AcDbEntity
  8
0
100
AcDbBlockEnd
  0
BLOCK
  5
C4
100
AcDbEntity
  8
0
100
AcDbBlockBegin
  2
GROUP_10
 70
       0
 10
0.0
 20
0.0
 30
0.0
  3
GROUP_10
  1

  0
LINE
  5
C5
100
AcDbEntity
  8
D-STR
  6
CONTINUOUS
 62
       1
100
AcDbLine
 10
578.5
 20
-276.0
 30
0.0
 11
482.5
 21
-276.0
 31
0.0
  0
LINE
  5
C6
100
AcDbEntity
  8
D-STR
  6
CONTINUOUS
 62
       1
100
AcDbLine
 10
729.5
 20
-251.0
 30
0.0
 11
479.5
 21
-251.0
 31
0.0
  0
ARC
  5
C7
100
AcDbEntity
  8
D-STR
  6
CONTINUOUS
 62
       1
100
AcDbCircle
 10
630.5
 20
-296.0
 30
0.0
 40
20.0
100
AcDbArc
 50
90.0
 51
180.0
  0
LINE
  5
C8
100
AcDbEntity
  8
D-STR
  6
CONTINUOUS
 62
       1
100
AcDbLine
 10
726.5
 20
-276.0
 30
0.0
 11
630.5
 21
-276.0
 31
0.0
  0
LINE
  5
C9
100
AcDbEntity
  8
D-STR
  6
CONTINUOUS
 62
       1
100
AcDbLine
 10
729.5
 20
-251.0
 30
0.0
 11
729.5
 21
-273.0
 31
0.0
  0
ARC
  5
CA
100
AcDbEntity
  8
D-STR
  6
CONTINUOUS
 62
       1
100
AcDbCircle
 10
726.5
 20
-273.0
 30
0.0
 40
3.0
100
AcDbArc
 50
270.0
 51
360.0
  0
LINE
  5
CB
100
AcDbEntity
  8
D-STR
  6
CONTINUOUS
 62
       1
100
AcDbLine
 10
610.5
 20
-306.0
 30
0.0
 11
610.5
 21
-296.0
 31
0.0
  0
LINE
  5
CC
100
AcDbEntity
  8
D-STR
  6
CONTINUOUS
 62
       1
100
AcDbLine
 10
598.5
 20
-306.0
 30
0.0
 11
598.5
 21
-296.0
 31
0.0
  0
ARC
  5
CD
100
AcDbEntity
  8
D-STR
  6
CONTINUOUS
 62
       1
100
AcDbCircle
 10
578.5
 20
-296.0
 30
0.0
 40
20.0
100
AcDbArc
 50
0.0
 51
90.0
  0
LINE
  5
CE
100
AcDbEntity
  8
D-STR
  6
CONTINUOUS
 62
       1
100
AcDbLine
 10
610.5
 20
-306.0
 30
0.0
 11
598.5
 21
-306.0
 31
0.0
  0
LINE
  5
CF
100
AcDbEntity
  8
D-STR
  6
CONTINUOUS
 62
       1
100
AcDbLine
 10
479.5
 20
-251.0
 30
0.0
 11
479.5
 21
-273.0
 31
0.0
  0
ARC
  5
D0
100
AcDbEntity
  8
D-STR
  6
CONTINUOUS
 62
       1
100
AcDbCircle
 10
482.5
 20
-273.0
 30
0.0
 40
3.0
100
AcDbArc
 50
180.0
 51
270.0
  0
ENDBLK
  5
D1
100
AcDbEntity
  8
0
100
AcDbBlockEnd
  0
BLOCK
  5
D2
100
AcDbEntity
  8
0
100
AcDbBlockBegin
  2
GROUP_11
 70
       0
 10
0.0
 20
0.0
 30
0.0
  3
GROUP_11
  1

  0
LINE
  5
D3
100
AcDbEntity
  8
D-STR
  6
CONTINUOUS
 62
       1
100
AcDbLine
 10
590.5
 20
-71.0
 30
0.0
 11
507.5
 21
-71.0
 31
0.0
  0
LINE
  5
D4
100
AcDbEntity
  8
D-STR
  6
CONTINUOUS
 62
       1
100
AcDbLine
 10
704.5
 20
-49.0
 30
0.0
 11
504.5
 21
-49.0
 31
0.0
  0
LINE
  5
D5
100
AcDbEntity
  8
D-STR
  6
CONTINUOUS
 62
       1
100
AcDbLine
 10
701.5
 20
-71.0
 30
0.0
 11
618.5
 21
-71.0
 31
0.0
  0
ARC
  5
D6
100
AcDbEntity
  8
D-STR
  6
CONTINUOUS
 62
       1
100
AcDbCircle
 10
701.5
 20
-68.0
 30
0.0
 40
3.0
100
AcDbArc
 50
270.0
 51
360.0
  0
LINE
  5
D7
100
AcDbEntity
  8
D-STR
  6
CONTINUOUS
 62
       1
100
AcDbLine
 10
704.5
 20
-49.0
 30
0.0
 11
704.5
 21
-68.0
 31
0.0
  0
ARC
  5
D8
100
AcDbEntity
  8
D-STR
  6
CONTINUOUS
 62
       1
100
AcDbCircle
 10
590.5
 20
-79.0
 30
0.0
 40
8.0
100
AcDbArc
 50
0.0
 51
90.0
  0
ARC
  5
D9
100
AcDbEntity
  8
D-STR
  6
CONTINUOUS
 62
       1
100
AcDbCircle
 10
618.5
 20
-79.0
 30
0.0
 40
8.0
100
AcDbArc
 50
90.0
 51
180.0
  0
LINE
  5
DA
100
AcDbEntity
  8
D-STR
  6
CONTINUOUS
 62
       1
100
AcDbLine
 10
598.5
 20
-101.0
 30
0.0
 11
598.5
 21
-79.0
 31
0.0
  0
LINE
  5
DB
100
AcDbEntity
  8
D-STR
  6
CONTINUOUS
 62
       1
100
AcDbLine
 10
610.5
 20
-101.0
 30
0.0
 11
610.5
 21
-79.0
 31
0.0
  0
LINE
  5
DC
100
AcDbEntity
  8
D-STR
  6
CONTINUOUS
 62
       1
100
AcDbLine
 10
610.5
 20
-101.0
 30
0.0
 11
598.5
 21
-101.0
 31
0.0
  0
ARC
  5
DD
100
AcDbEntity
  8
D-STR
  6
CONTINUOUS
 62
       1
100
AcDbCircle
 10
507.5
 20
-68.0
 30
0.0
 40
3.0
100
AcDbArc
 50
180.0
 51
270.0
  0
LINE
  5
DE
100
AcDbEntity
  8
D-STR
  6
CONTINUOUS
 62
       1
100
AcDbLine
 10
504.5
 20
-49.0
 30
0.0
 11
504.5
 21
-68.0
 31
0.0
  0
ENDBLK
  5
DF
100
AcDbEntity
  8
0
100
AcDbBlockEnd
  0
ENDSEC
  0
SECTION
  2
ENTITIES
  0
TEXT
  5
E0
100
AcDbEntity
  8
D-STR-TXT
 62
       7
100
AcDbText
 10
-333.0
 20
140.0
 30
0.0
 40
25.0
  1
T150x9
 72
       5
 11
-258.0
 21
140.0
 31
0.0
100
AcDbText
  0
TEXT
  5
E1
100
AcDbEntity
  8
D-STR-TXT
 62
       7
100
AcDbText
 10
-339.25
 20
-49.0
 30
0.0
 40
25.0
  1
T200x12
 72
       5
 11
-251.75
 21
-49.0
 31
0.0
100
AcDbText
  0
TEXT
  5
E2
100
AcDbEntity
  8
D-STR-TXT
 62
       7
100
AcDbText
 10
-39.25
 20
140.0
 30
0.0
 40
25.0
  1
T150x12
 72
       5
 11
48.25
 21
140.0
 31
0.0
100
AcDbText
  0
TEXT
  5
E3
100
AcDbEntity
  8
D-STR-TXT
 62
       7
100
AcDbText
 10
260.75
 20
140.0
 30
0.0
 40
25.0
  1
T150x15
 72
       5
 11
348.25
 21
140.0
 31
0.0
100
AcDbText
  0
TEXT
  5
E4
100
AcDbEntity
  8
D-STR-TXT
 62
       7
100
AcDbText
 10
-39.25
 20
-49.0
 30
0.0
 40
25.0
  1
T200x16
 72
       5
 11
48.25
 21
-49.0
 31
0.0
100
AcDbText
  0
TEXT
  5
E5
100
AcDbEntity
  8
D-STR-TXT
 62
       7
100
AcDbText
 10
260.75
 20
-49.0
 30
0.0
 40
25.0
  1
T200x19
 72
       5
 11
348.25
 21
-49.0
 31
0.0
100
AcDbText
  0
TEXT
  5
E6
100
AcDbEntity
  8
D-STR-TXT
 62
       7
100
AcDbText
 10
560.75
 20
-49.0
 30
0.0
 40
25.0
  1
T200x22
 72
       5
 11
648.25
 21
-49.0
 31
0.0
100
AcDbText
  0
TEXT
  5
E7
100
AcDbEntity
  8
D-STR-TXT
 62
       7
100
AcDbText
 10
-339.25
 20
-251.0
 30
0.0
 40
25.0
  1
T250x16
 72
       5
 11
-251.75
 21
-251.0
 31
0.0
100
AcDbText
  0
TEXT
  5
E8
100
AcDbEntity
  8
D-STR-TXT
 62
       7
100
AcDbText
 10
-39.25
 20
-251.0
 30
0.0
 40
25.0
  1
T250x19
 72
       5
 11
48.25
 21
-251.0
 31
0.0
100
AcDbText
  0
TEXT
  5
E9
100
AcDbEntity
  8
D-STR-TXT
 62
       7
100
AcDbText
 10
260.75
 20
-251.0
 30
0.0
 40
25.0
  1
T250x22
 72
       5
 11
348.25
 21
-251.0
 31
0.0
100
AcDbText
  0
TEXT
  5
EA
100
AcDbEntity
  8
D-STR-TXT
 62
       7
100
AcDbText
 10
560.75
 20
-251.0
 30
0.0
 40
25.0
  1
T250x25
 72
       5
 11
648.25
 21
-251.0
 31
0.0
100
AcDbText
  0
INSERT
  5
EB
100
AcDbEntity
  8
0
  6
CONTINUOUS
100
AcDbBlockReference
  2
GROUP_1
 10
0.0
 20
0.0
 30
0.0
  0
INSERT
  5
EC
100
AcDbEntity
  8
0
  6
CONTINUOUS
100
AcDbBlockReference
  2
GROUP_2
 10
0.0
 20
0.0
 30
0.0
  0
INSERT
  5
ED
100
AcDbEntity
  8
0
  6
CONTINUOUS
100
AcDbBlockReference
  2
GROUP_3
 10
0.0
 20
0.0
 30
0.0
  0
INSERT
  5
EE
100
AcDbEntity
  8
0
  6
CONTINUOUS
100
AcDbBlockReference
  2
GROUP_4
 10
0.0
 20
0.0
 30
0.0
  0
INSERT
  5
EF
100
AcDbEntity
  8
0
  6
CONTINUOUS
100
AcDbBlockReference
  2
GROUP_5
 10
0.0
 20
0.0
 30
0.0
  0
INSERT
  5
F0
100
AcDbEntity
  8
0
  6
CONTINUOUS
100
AcDbBlockReference
  2
GROUP_6
 10
0.0
 20
0.0
 30
0.0
  0
INSERT
  5
F1
100
AcDbEntity
  8
0
  6
CONTINUOUS
100
AcDbBlockReference
  2
GROUP_7
 10
0.0
 20
0.0
 30
0.0
  0
INSERT
  5
F2
100
AcDbEntity
  8
0
  6
CONTINUOUS
100
AcDbBlockReference
  2
GROUP_8
 10
0.0
 20
0.0
 30
0.0
  0
INSERT
  5
F3
100
AcDbEntity
  8
0
  6
CONTINUOUS
100
AcDbBlockReference
  2
GROUP_9
 10
0.0
 20
0.0
 30
0.0
  0
INSERT
  5
F4
100
AcDbEntity
  8
0
  6
CONTINUOUS
100
AcDbBlockReference
  2
GROUP_10
 10
0.0
 20
0.0
 30
0.0
  0
INSERT
  5
F5
100
AcDbEntity
  8
0
  6
CONTINUOUS
100
AcDbBlockReference
  2
GROUP_11
 10
0.0
 20
0.0
 30
0.0
  0
ENDSEC
  0
SECTION
  2
OBJECTS
  0
DICTIONARY
  5
19
100
AcDbDictionary
  3
ACAD_GROUP
350
1A
  3
ACAD_MLINESTYLE
350
1B
  0
DICTIONARY
  5
1A
102
{ACAD_REACTORS
330
19
102
}
100
AcDbDictionary
  0
DICTIONARY
  5
1B
102
{ACAD_REACTORS
330
19
102
}
100
AcDbDictionary
  3
STANDARD
350
1C
  0
MLINESTYLE
  5
1C
102
{ACAD_REACTORS
330
1B
102
}
100
AcDbMlineStyle
  2
STANDARD
 70
       0
  3

 62
       0
 51
90.0
 52
90.0
 71
       2
 49
0.5
 62
     256
  6
BYLAYER
 49
-0.5
 62
     256
  6
BYLAYER
  0
ENDSEC
  0
EOF
