  0
SECTION
  2
HEADER
  9
$ACADVER
  1
AC1014
  9
$ACADMAINTVER
 70
       0
  9
$DWGCODEPAGE
  3
ANSI_932
  9
$INSBASE
 10
0.0
 20
0.0
 30
0.0
  9
$EXTMIN
 10
-444.75
 20
-3774.35399231
 30
0.0
  9
$EXTMAX
 10
556.25
 20
3784.35399231
 30
0.0
  9
$LIMMIN
 10
-476.03125
 20
-4010.56361683
  9
$LIMMAX
 10
587.53125
 20
4020.56361683
  9
$ORTHOMODE
 70
       0
  9
$REGENMODE
 70
       1
  9
$FILLMODE
 70
       1
  9
$QTEXTMODE
 70
       0
  9
$MIRRTEXT
 70
       1
  9
$DRAGMODE
 70
       2
  9
$LTSCALE
 40
1.0
  9
$OSMODE
 70
       0
  9
$ATTMODE
 70
       1
  9
$TEXTSIZE
 40
0.2
  9
$TRACEWID
 40
0.05
  9
$TEXTSTYLE
  7
STANDARD
  9
$CLAYER
  8
0
  9
$CELTYPE
  6
CONTINUOUS
  9
$CECOLOR
 62
     256
  9
$CELTSCALE
 40
1.0
  9
$DELOBJ
 70
       1
  9
$DISPSILH
 70
       0
  9
$DIMSCALE
 40
1.0
  9
$DIMASZ
 40
0.18
  9
$DIMEXO
 40
0.0625
  9
$DIMDLI
 40
0.38
  9
$DIMRND
 40
0.0
  9
$DIMDLE
 40
0.0
  9
$DIMEXE
 40
0.18
  9
$DIMTP
 40
0.0
  9
$DIMTM
 40
0.0
  9
$DIMTXT
 40
0.18
  9
$DIMCEN
 40
0.09
  9
$DIMTSZ
 40
0.0
  9
$DIMTOL
 70
       0
  9
$DIMLIM
 70
       0
  9
$DIMTIH
 70
       1
  9
$DIMTOH
 70
       1
  9
$DIMSE1
 70
       0
  9
$DIMSE2
 70
       0
  9
$DIMTAD
 70
       0
  9
$DIMZIN
 70
       0
  9
$DIMBLK
  1

  9
$DIMASO
 70
       1
  9
$DIMSHO
 70
       1
  9
$DIMPOST
  1

  9
$DIMAPOST
  1

  9
$DIMALT
 70
       0
  9
$DIMALTD
 70
       2
  9
$DIMALTF
 40
25.4
  9
$DIMLFAC
 40
1.0
  9
$DIMTOFL
 70
       0
  9
$DIMTVP
 40
0.0
  9
$DIMTIX
 70
       0
  9
$DIMSOXD
 70
       0
  9
$DIMSAH
 70
       0
  9
$DIMBLK1
  1

  9
$DIMBLK2
  1

  9
$DIMSTYLE
  2
STANDARD
  9
$DIMCLRD
 70
       0
  9
$DIMCLRE
 70
       0
  9
$DIMCLRT
 70
       0
  9
$DIMTFAC
 40
1.0
  9
$DIMGAP
 40
0.09
  9
$DIMJUST
 70
       0
  9
$DIMSD1
 70
       0
  9
$DIMSD2
 70
       0
  9
$DIMTOLJ
 70
       1
  9
$DIMTZIN
 70
       0
  9
$DIMALTZ
 70
       0
  9
$DIMALTTZ
 70
       0
  9
$DIMFIT
 70
       3
  9
$DIMUPT
 70
       0
  9
$DIMUNIT
 70
       2
  9
$DIMDEC
 70
       4
  9
$DIMTDEC
 70
       4
  9
$DIMALTU
 70
       2
  9
$DIMALTTD
 70
       2
  9
$DIMTXSTY
  7
STANDARD
  9
$DIMAUNIT
 70
       0
  9
$LUNITS
 70
       2
  9
$LUPREC
 70
       4
  9
$SKETCHINC
 40
0.1
  9
$FILLETRAD
 40
0.0
  9
$AUNITS
 70
       0
  9
$AUPREC
 70
       0
  9
$MENU
  1
acad
  9
$ELEVATION
 40
0.0
  9
$PELEVATION
 40
0.0
  9
$THICKNESS
 40
0.0
  9
$LIMCHECK
 70
       0
  9
$BLIPMODE
 70
       1
  9
$CHAMFERA
 40
0.0
  9
$CHAMFERB
 40
0.0
  9
$CHAMFERC
 40
0.0
  9
$CHAMFERD
 40
0.0
  9
$SKPOLY
 70
       0
  9
$TDCREATE
 40
0.000000000
  9
$TDUPDATE
 40
0.000000000
  9
$TDINDWG
 40
0.0000000000
  9
$TDUSRTIMER
 40
0.0000000000
  9
$USRTIMER
 70
       1
  9
$ANGBASE
 50
0.0
  9
$ANGDIR
 70
       0
  9
$PDMODE
 70
       0
  9
$PDSIZE
 40
1.0
  9
$PLINEWID
 40
0.0
  9
$COORDS
 70
       1
  9
$SPLFRAME
 70
       0
  9
$SPLINETYPE
 70
       6
  9
$SPLINESEGS
 70
       8
  9
$ATTDIA
 70
       0
  9
$ATTREQ
 70
       1
  9
$HANDLING
 70
       1
  9
$HANDSEED
  5
24A
  9
$SURFTAB1
 70
       6
  9
$SURFTAB2
 70
       6
  9
$SURFTYPE
 70
       6
  9
$SURFU
 70
       6
  9
$SURFV
 70
       6
  9
$UCSNAME
  2

  9
$UCSORG
 10
0.0
 20
0.0
 30
0.0
  9
$UCSXDIR
 10
1.0
 20
0.0
 30
0.0
  9
$UCSYDIR
 10
0.0
 20
1.0
 30
0.0
  9
$PUCSNAME
  2

  9
$PUCSORG
 10
0.0
 20
0.0
 30
0.0
  9
$PUCSXDIR
 10
1.0
 20
0.0
 30
0.0
  9
$PUCSYDIR
 10
0.0
 20
1.0
 30
0.0
  9
$USERI1
 70
       0
  9
$USERI2
 70
       0
  9
$USERI3
 70
       0
  9
$USERI4
 70
       0
  9
$USERI5
 70
       0
  9
$USERR1
 40
0.0
  9
$USERR2
 40
0.0
  9
$USERR3
 40
0.0
  9
$USERR4
 40
0.0
  9
$USERR5
 40
0.0
  9
$WORLDVIEW
 70
       1
  9
$SHADEDGE
 70
       3
  9
$SHADEDIF
 70
      70
  9
$TILEMODE
 70
       1
  9
$MAXACTVP
 70
      16
  9
$PINSBASE
 10
0.0
 20
0.0
 30
0.0
  9
$PLIMCHECK
 70
       0
  9
$PEXTMIN
 10
1.00000000E+20
 20
1.00000000E+20
 30
1.00000000E+20
  9
$PEXTMAX
 10
-1.00000000E+20
 20
-1.00000000E+20
 30
-1.00000000E+20
  9
$PLIMMIN
 10
0.0
 20
0.0
  9
$PLIMMAX
 10
12.0
 20
9.0
  9
$UNITMODE
 70
       0
  9
$VISRETAIN
 70
       0
  9
$PLINEGEN
 70
       1
  9
$PSLTSCALE
 70
       0
  9
$TREEDEPTH
 70
    3020
  9
$PICKSTYLE
 70
       1
  9
$CMLSTYLE
  2
STANDARD
  9
$CMLJUST
 70
       0
  9
$CMLSCALE
 40
1.0
  9
$PROXYGRAPHICS
 70
       0
  9
$MEASUREMENT
 70
       0
  0
ENDSEC
  0
SECTION
  2
CLASSES
  0
CLASS
  1
LWPOLYLINE
  2
AcDbPolyline
  3
"AutoCAD"
 90
        0
280
       0
281
       1
  0
CLASS
  1
IMAGE
  2
AcDbRasterImage
  3
ISM
 90
      127
280
       0
281
       1
  0
CLASS
  1
OLE2FRAME
  2
AcDbOle2Frame
  3
""
 90
        0
280
       0
281
       1
  0
CLASS
  1
HATCH
  2
AcDbHatch
  3
"ACAD_SEDONA"
 90
        0
280
       0
281
       1
  0
CLASS
  1
DICTIONARYVAR
  2
AcDbDictionaryVar
  3
"AutoCAD"
 90
        0
280
       0
281
       0
  0
CLASS
  1
RASTERVARIABLES
  2
AcDbRasterVariables
  3
ISM
 90
        0
280
       0
281
       0
  0
CLASS
  1
IMAGEDEF
  2
AcDbRasterImageDef
  3
ISM
 90
        0
280
       0
281
       0
  0
CLASS
  1
IMAGEDEF_REACTOR
  2
AcDbRasterImageDefReactor
  3
ISM
 90
        1
280
       0
281
       0
  0
CLASS
  1
IDBUFFER
  2
AcDbIdBuffer
  3
"Acad"
 90
        0
280
       0
281
       0
  0
CLASS
  1
SPATIAL_FILTER
  2
AcDbSpatialFilter
  3
"Acad"
 90
        0
280
       0
281
       0
  0
CLASS
  1
XRECORD
  2
AcDbXrecord
  3
"<Built In>"
 90
        0
280
       0
281
       0
  0
CLASS
  1
SORTENTSTABLE
  2
AcDbSortentsTable
  3
"AutoCAD"
 90
        0
280
       0
281
       0
  0
CLASS
  1
LAYER_INDEX
  2
AcDbLayerIndex
  3
"Acad"
 90
        0
280
       0
281
       0
  0
CLASS
  1
SPATIAL_INDEX
  2
AcDbSpatialIndex
  3
"Acad"
 90
        0
280
       0
281
       0
  0
CLASS
  1
OBJECT_PTR
  2
CAseDLPNTableRecord
  3
"ASE-LPNTableRecord"
 90
        1
280
       0
281
       0
  0
CLASS
  1
LAYOUT
  2
AcDbLayout
  3
"AutoCAD 2000"
 90
        1
280
       0
281
       0
  0
CLASS
  1
PLOTSETTINGS
  2
AcDbPlotSettings
  3
"AutoCAD 2000"
 90
        1
280
       0
281
       0
  0
CLASS
  1
ACDBDICTIONARYWDFLT
  2
AcDbDictionaryWithDefault
  3
"AutoCAD 2000"
 90
        1
280
       0
281
       0
  0
CLASS
  1
ACDBPLACEHOLDER
  2
AcDbPlaceHolder
  3
"AutoCAD 2000"
 90
        1
280
       0
281
       0
  0
CLASS
  1
VBA_PROJECT
  2
AcDbVbaProject
  3
"acadvba"
 90
        1
280
       0
281
       0
  0
CLASS
  1
WIPEOUT
  2
AcDbWipeout
  3
WipeOut|AutoCAD Express Tool|expresstools@autodesk.com
 90
      127
280
       0
281
       1
  0
CLASS
  1
WIPEOUTVARIABLES
  2
AcDbWipeoutVariables
  3
WipeOut|AutoCAD Express Tool|expresstools@autodesk.com
 90
        0
280
       0
281
       0
  0
CLASS
  1
RTEXT
  2
RText
  3
RText|AutoCAD Express Tool|expresstools@autodesk.com
 90
        0
280
       0
281
       1
  0
CLASS
  1
ARCALIGNEDTEXT
  2
AcDbArcAlignedText
  3
ATEXT|AutoCAD Express Tool|expresstools@autodesk.com
 90
        0
280
       0
281
       1
  0
ENDSEC
  0
SECTION
  2
TABLES
  0
TABLE
  2
VPORT
  5
7
100
AcDbSymbolTable
 70
       1
  0
VPORT
  5
15
100
AcDbSymbolTableRecord
100
AcDbViewportTableRecord
  2
*ACTIVE
 70
       0
 10
0.0
 20
0.0
 11
1.0
 21
1.0
 12
55.75
 22
5.0
 13
0.0
 23
0.0
 14
1.0
 24
1.0
 15
0.0
 25
0.0
 16
0.0
 26
0.0
 36
1.0
 17
0.0
 27
0.0
 37
0.0
 40
8031.12723366
 41
0.13243004
 42
50.0
 43
0.0
 44
0.0
 50
0.0
 51
0.0
 71
       0
 72
     100
 73
       1
 74
       1
 75
       0
 76
       0
 77
       0
 78
       0
  0
ENDTAB
  0
TABLE
  2
LTYPE
  5
4
100
AcDbSymbolTable
 70
      30
  0
LTYPE
  5
11
100
AcDbSymbolTableRecord
100
AcDbLinetypeTableRecord
  2
BYBLOCK
 70
      64
  3

 72
      65
 73
       0
 40
0.0
  0
LTYPE
  5
12
100
AcDbSymbolTableRecord
100
AcDbLinetypeTableRecord
  2
BYLAYER
 70
      64
  3

 72
      65
 73
       0
 40
0.0
  0
LTYPE
  5
13
100
AcDbSymbolTableRecord
100
AcDbLinetypeTableRecord
  2
CONTINUOUS
 70
      64
  3
Solid line
 72
      65
 73
       0
 40
0.0
  0
LTYPE
  5
1D
100
AcDbSymbolTableRecord
100
AcDbLinetypeTableRecord
  2
HIDDENX2
 70
      64
  3
CADPAC LINETYPE
 72
      65
 73
       2
 40
33.64
 49
25.23
 74
       0
 49
-8.41
 74
       0
  0
LTYPE
  5
1E
100
AcDbSymbolTableRecord
100
AcDbLinetypeTableRecord
  2
HIDDEN
 70
      64
  3
CADPAC LINETYPE
 72
      65
 73
       2
 40
25.23
 49
16.82
 74
       0
 49
-8.41
 74
       0
  0
LTYPE
  5
1F
100
AcDbSymbolTableRecord
100
AcDbLinetypeTableRecord
  2
HIDDEN2
 70
      64
  3
CADPAC LINETYPE
 72
      65
 73
       2
 40
21.025
 49
12.615
 74
       0
 49
-8.41
 74
       0
  0
LTYPE
  5
20
100
AcDbSymbolTableRecord
100
AcDbLinetypeTableRecord
  2
DASHED
 70
      64
  3
CADPAC LINETYPE
 72
      65
 73
       2
 40
25.23
 49
16.82
 74
       0
 49
-8.41
 74
       0
  0
LTYPE
  5
21
100
AcDbSymbolTableRecord
100
AcDbLinetypeTableRecord
  2
DASHED2
 70
      64
  3
CADPAC LINETYPE
 72
      65
 73
       2
 40
18.9225
 49
12.615
 74
       0
 49
-6.3075
 74
       0
  0
LTYPE
  5
22
100
AcDbSymbolTableRecord
100
AcDbLinetypeTableRecord
  2
DASHEDX2
 70
      64
  3
CADPAC LINETYPE
 72
      65
 73
       2
 40
37.845
 49
25.23
 74
       0
 49
-12.615
 74
       0
  0
LTYPE
  5
23
100
AcDbSymbolTableRecord
100
AcDbLinetypeTableRecord
  2
DOTX2
 70
      64
  3
CADPAC LINETYPE
 72
      65
 73
       2
 40
10.5125
 49
0.0
 74
       0
 49
-10.5125
 74
       0
  0
LTYPE
  5
24
100
AcDbSymbolTableRecord
100
AcDbLinetypeTableRecord
  2
DOT
 70
      64
  3
CADPAC LINETYPE
 72
      65
 73
       2
 40
8.41
 49
0.0
 74
       0
 49
-8.41
 74
       0
  0
LTYPE
  5
25
100
AcDbSymbolTableRecord
100
AcDbLinetypeTableRecord
  2
DOT2
 70
      64
  3
CADPAC LINETYPE
 72
      65
 73
       2
 40
6.3075
 49
0.0
 74
       0
 49
-6.3075
 74
       0
  0
LTYPE
  5
26
100
AcDbSymbolTableRecord
100
AcDbLinetypeTableRecord
  2
CENTERX2
 70
      64
  3
CADPAC LINETYPE
 72
      65
 73
       4
 40
50.46
 49
21.025
 74
       0
 49
-10.5125
 74
       0
 49
8.41
 74
       0
 49
-10.5125
 74
       0
  0
LTYPE
  5
27
100
AcDbSymbolTableRecord
100
AcDbLinetypeTableRecord
  2
CENTER
 70
      64
  3
CADPAC LINETYPE
 72
      65
 73
       4
 40
38.686
 49
16.82
 74
       0
 49
-8.41
 74
       0
 49
5.046
 74
       0
 49
-8.41
 74
       0
  0
LTYPE
  5
28
100
AcDbSymbolTableRecord
100
AcDbLinetypeTableRecord
  2
CENTER2
 70
      64
  3
CADPAC LINETYPE
 72
      65
 73
       4
 40
26.912
 49
12.615
 74
       0
 49
-6.3075
 74
       0
 49
1.682
 74
       0
 49
-6.3075
 74
       0
  0
LTYPE
  5
29
100
AcDbSymbolTableRecord
100
AcDbLinetypeTableRecord
  2
DASHDOTX2
 70
      64
  3
CADPAC LINETYPE
 72
      65
 73
       4
 40
42.05
 49
21.025
 74
       0
 49
-10.5125
 74
       0
 49
0.0
 74
       0
 49
-10.5125
 74
       0
  0
LTYPE
  5
2A
100
AcDbSymbolTableRecord
100
AcDbLinetypeTableRecord
  2
DASHDOT
 70
      64
  3
CADPAC LINETYPE
 72
      65
 73
       4
 40
33.64
 49
16.82
 74
       0
 49
-8.41
 74
       0
 49
0.0
 74
       0
 49
-8.41
 74
       0
  0
LTYPE
  5
2B
100
AcDbSymbolTableRecord
100
AcDbLinetypeTableRecord
  2
DASHDOT2
 70
      64
  3
CADPAC LINETYPE
 72
      65
 73
       4
 40
25.23
 49
12.615
 74
       0
 49
-6.3075
 74
       0
 49
0.0
 74
       0
 49
-6.3075
 74
       0
  0
LTYPE
  5
2C
100
AcDbSymbolTableRecord
100
AcDbLinetypeTableRecord
  2
DIVIDEX2
 70
      64
  3
CADPAC LINETYPE
 72
      65
 73
       6
 40
52.5625
 49
21.025
 74
       0
 49
-10.5125
 74
       0
 49
0.0
 74
       0
 49
-10.5125
 74
       0
 49
0.0
 74
       0
 49
-10.5125
 74
       0
  0
LTYPE
  5
2D
100
AcDbSymbolTableRecord
100
AcDbLinetypeTableRecord
  2
DIVIDE
 70
      64
  3
CADPAC LINETYPE
 72
      65
 73
       6
 40
42.05
 49
16.82
 74
       0
 49
-8.41
 74
       0
 49
0.0
 74
       0
 49
-8.41
 74
       0
 49
0.0
 74
       0
 49
-8.41
 74
       0
  0
LTYPE
  5
2E
100
AcDbSymbolTableRecord
100
AcDbLinetypeTableRecord
  2
DIVIDE2
 70
      64
  3
CADPAC LINETYPE
 72
      65
 73
       6
 40
31.5375
 49
12.615
 74
       0
 49
-6.3075
 74
       0
 49
0.0
 74
       0
 49
-6.3075
 74
       0
 49
0.0
 74
       0
 49
-6.3075
 74
       0
  0
LTYPE
  5
2F
100
AcDbSymbolTableRecord
100
AcDbLinetypeTableRecord
  2
BORDERX2
 70
      64
  3
CADPAC LINETYPE
 72
      65
 73
       6
 40
73.5875
 49
21.025
 74
       0
 49
-10.5125
 74
       0
 49
21.025
 74
       0
 49
-10.5125
 74
       0
 49
0.0
 74
       0
 49
-10.5125
 74
       0
  0
LTYPE
  5
30
100
AcDbSymbolTableRecord
100
AcDbLinetypeTableRecord
  2
BORDER
 70
      64
  3
CADPAC LINETYPE
 72
      65
 73
       6
 40
58.87
 49
16.82
 74
       0
 49
-8.41
 74
       0
 49
16.82
 74
       0
 49
-8.41
 74
       0
 49
0.0
 74
       0
 49
-8.41
 74
       0
  0
LTYPE
  5
31
100
AcDbSymbolTableRecord
100
AcDbLinetypeTableRecord
  2
BORDER2
 70
      64
  3
CADPAC LINETYPE
 72
      65
 73
       6
 40
44.1525
 49
12.615
 74
       0
 49
-6.3075
 74
       0
 49
12.615
 74
       0
 49
-6.3075
 74
       0
 49
0.0
 74
       0
 49
-6.3075
 74
       0
  0
LTYPE
  5
32
100
AcDbSymbolTableRecord
100
AcDbLinetypeTableRecord
  2
PHANTOMX2
 70
      64
  3
CADPAC LINETYPE
 72
      65
 73
       6
 40
63.075
 49
21.025
 74
       0
 49
-8.41
 74
       0
 49
8.41
 74
       0
 49
-8.41
 74
       0
 49
8.41
 74
       0
 49
-8.41
 74
       0
  0
LTYPE
  5
33
100
AcDbSymbolTableRecord
100
AcDbLinetypeTableRecord
  2
PHANTOM
 70
      64
  3
CADPAC LINETYPE
 72
      65
 73
       6
 40
52.142
 49
16.82
 74
       0
 49
-8.41
 74
       0
 49
5.046
 74
       0
 49
-8.41
 74
       0
 49
5.046
 74
       0
 49
-8.41
 74
       0
  0
LTYPE
  5
34
100
AcDbSymbolTableRecord
100
AcDbLinetypeTableRecord
  2
PHANTOM2
 70
      64
  3
CADPAC LINETYPE
 72
      65
 73
       6
 40
44.573
 49
12.615
 74
       0
 49
-8.41
 74
       0
 49
3.364
 74
       0
 49
-8.41
 74
       0
 49
3.364
 74
       0
 49
-8.41
 74
       0
  0
LTYPE
  5
35
100
AcDbSymbolTableRecord
100
AcDbLinetypeTableRecord
  2
ACAD_ISO06W100
 70
      64
  3
CADPAC LINETYPE
 72
      65
 73
       8
 40
56.7675
 49
21.025
 74
       0
 49
-10.5125
 74
       0
 49
0.0
 74
       0
 49
-8.41
 74
       0
 49
0.0
 74
       0
 49
-8.41
 74
       0
 49
0.0
 74
       0
 49
-8.41
 74
       0
  0
LTYPE
  5
36
100
AcDbSymbolTableRecord
100
AcDbLinetypeTableRecord
  2
ACAD_ISO13W100
 70
      64
  3
CADPAC LINETYPE
 72
      65
 73
       8
 40
67.28
 49
16.82
 74
       0
 49
-8.41
 74
       0
 49
16.82
 74
       0
 49
-8.41
 74
       0
 49
0.0
 74
       0
 49
-8.41
 74
       0
 49
0.0
 74
       0
 49
-8.41
 74
       0
  0
LTYPE
  5
37
100
AcDbSymbolTableRecord
100
AcDbLinetypeTableRecord
  2
ACAD_ISO14W100
 70
      64
  3
CADPAC LINETYPE
 72
      65
 73
       8
 40
50.46
 49
16.82
 74
       0
 49
-8.41
 74
       0
 49
0.0
 74
       0
 49
-8.41
 74
       0
 49
0.0
 74
       0
 49
-8.41
 74
       0
 49
0.0
 74
       0
 49
-8.41
 74
       0
  0
ENDTAB
  0
TABLE
  2
LAYER
  5
2
100
AcDbSymbolTable
 70
       3
  0
LAYER
  5
14
100
AcDbSymbolTableRecord
100
AcDbLayerTableRecord
  2
0
 70
       0
 62
       7
  6
CONTINUOUS
  0
LAYER
  5
38
100
AcDbSymbolTableRecord
100
AcDbLayerTableRecord
  2
D-STR
 70
       0
 62
       7
  6
CONTINUOUS
  0
LAYER
  5
39
100
AcDbSymbolTableRecord
100
AcDbLayerTableRecord
  2
D-STR-TXT
 70
       0
 62
       7
  6
CONTINUOUS
  0
ENDTAB
  0
TABLE
  2
STYLE
  5
3
100
AcDbSymbolTable
 70
       1
  0
STYLE
  5
17
100
AcDbSymbolTableRecord
100
AcDbTextStyleTableRecord
  2
STANDARD
 70
       0
 40
0.0
 41
1.0
 50
0.0
 71
       0
 42
10.0
  3
MS Gothic.ttf
  4

1001
ACAD
1000
MS Gothic
1071
    32786
  0
ENDTAB
  0
TABLE
  2
VIEW
  5
5
100
AcDbSymbolTable
 70
       1
  0
VIEW
  5
3A
100
AcDbSymbolTableRecord
100
AcDbViewTableRecord
  2
QQQQ
 70
       0
 40
8031.12723366
 10
55.75
 20
5.0
 41
1063.5625
 11
0.0
 21
0.0
 31
1.0
 12
100.0
 22
100.0
 32
0.0
 42
50.0
 43
0.0
 44
0.0
 50
0.0
 71
       0
  0
ENDTAB
  0
TABLE
  2
UCS
  5
6
100
AcDbSymbolTable
 70
       0
  0
ENDTAB
  0
TABLE
  2
APPID
  5
8
100
AcDbSymbolTable
 70
       1
  0
APPID
  5
16
100
AcDbSymbolTableRecord
100
AcDbRegAppTableRecord
  2
ACAD
 70
       0
  0
ENDTAB
  0
TABLE
  2
DIMSTYLE
  5
9
100
AcDbSymbolTable
 70
       1
  0
DIMSTYLE
105
18
100
AcDbSymbolTableRecord
100
AcDbDimStyleTableRecord
  2
STANDARD
 70
       0
  3

  4

  5

  6

  7

 40
1.0
 41
0.18
 42
0.0625
 43
0.38
 44
0.18
 45
0.0
 46
0.0
 47
0.0
 48
0.0
 71
       0
 72
       0
 73
       1
 74
       1
 75
       0
 76
       0
 77
       0
 78
       0
140
0.18
141
0.09
142
0.0
143
25.4
144
1.0
145
0.0
146
1.0
147
0.09
170
       0
171
       2
172
       0
173
       0
174
       0
175
       0
176
       0
177
       0
178
       0
270
       2
271
       4
272
       4
273
       2
274
       2
275
       0
280
       0
281
       0
282
       0
283
       1
284
       0
285
       0
286
       0
287
       0
288
       0
340
17
  0
ENDTAB
  0
TABLE
  2
BLOCK_RECORD
  5
1
100
AcDbSymbolTable
 70
      31
  0
BLOCK_RECORD
  5
A
100
AcDbSymbolTableRecord
100
AcDbBlockTableRecord
  2
*MODEL_SPACE
  0
BLOCK_RECORD
  5
B
100
AcDbSymbolTableRecord
100
AcDbBlockTableRecord
  2
*PAPER_SPACE
  0
BLOCK_RECORD
  5
3B
100
AcDbSymbolTableRecord
100
AcDbBlockTableRecord
  2
GROUP_1
  0
BLOCK_RECORD
  5
3C
100
AcDbSymbolTableRecord
100
AcDbBlockTableRecord
  2
GROUP_2
  0
BLOCK_RECORD
  5
3D
100
AcDbSymbolTableRecord
100
AcDbBlockTableRecord
  2
GROUP_3
  0
BLOCK_RECORD
  5
3E
100
AcDbSymbolTableRecord
100
AcDbBlockTableRecord
  2
GROUP_4
  0
BLOCK_RECORD
  5
3F
100
AcDbSymbolTableRecord
100
AcDbBlockTableRecord
  2
GROUP_5
  0
BLOCK_RECORD
  5
40
100
AcDbSymbolTableRecord
100
AcDbBlockTableRecord
  2
GROUP_6
  0
BLOCK_RECORD
  5
41
100
AcDbSymbolTableRecord
100
AcDbBlockTableRecord
  2
GROUP_7
  0
BLOCK_RECORD
  5
42
100
AcDbSymbolTableRecord
100
AcDbBlockTableRecord
  2
GROUP_8
  0
BLOCK_RECORD
  5
43
100
AcDbSymbolTableRecord
100
AcDbBlockTableRecord
  2
GROUP_9
  0
BLOCK_RECORD
  5
44
100
AcDbSymbolTableRecord
100
AcDbBlockTableRecord
  2
GROUP_10
  0
BLOCK_RECORD
  5
45
100
AcDbSymbolTableRecord
100
AcDbBlockTableRecord
  2
GROUP_11
  0
BLOCK_RECORD
  5
46
100
AcDbSymbolTableRecord
100
AcDbBlockTableRecord
  2
GROUP_12
  0
BLOCK_RECORD
  5
47
100
AcDbSymbolTableRecord
100
AcDbBlockTableRecord
  2
GROUP_13
  0
BLOCK_RECORD
  5
48
100
AcDbSymbolTableRecord
100
AcDbBlockTableRecord
  2
GROUP_14
  0
BLOCK_RECORD
  5
49
100
AcDbSymbolTableRecord
100
AcDbBlockTableRecord
  2
GROUP_15
  0
BLOCK_RECORD
  5
4A
100
AcDbSymbolTableRecord
100
AcDbBlockTableRecord
  2
GROUP_16
  0
BLOCK_RECORD
  5
4B
100
AcDbSymbolTableRecord
100
AcDbBlockTableRecord
  2
GROUP_17
  0
BLOCK_RECORD
  5
4C
100
AcDbSymbolTableRecord
100
AcDbBlockTableRecord
  2
GROUP_18
  0
BLOCK_RECORD
  5
4D
100
AcDbSymbolTableRecord
100
AcDbBlockTableRecord
  2
GROUP_19
  0
BLOCK_RECORD
  5
4E
100
AcDbSymbolTableRecord
100
AcDbBlockTableRecord
  2
GROUP_20
  0
BLOCK_RECORD
  5
4F
100
AcDbSymbolTableRecord
100
AcDbBlockTableRecord
  2
GROUP_21
  0
BLOCK_RECORD
  5
50
100
AcDbSymbolTableRecord
100
AcDbBlockTableRecord
  2
GROUP_22
  0
BLOCK_RECORD
  5
51
100
AcDbSymbolTableRecord
100
AcDbBlockTableRecord
  2
GROUP_23
  0
BLOCK_RECORD
  5
52
100
AcDbSymbolTableRecord
100
AcDbBlockTableRecord
  2
GROUP_24
  0
BLOCK_RECORD
  5
53
100
AcDbSymbolTableRecord
100
AcDbBlockTableRecord
  2
GROUP_25
  0
BLOCK_RECORD
  5
54
100
AcDbSymbolTableRecord
100
AcDbBlockTableRecord
  2
GROUP_26
  0
BLOCK_RECORD
  5
55
100
AcDbSymbolTableRecord
100
AcDbBlockTableRecord
  2
GROUP_27
  0
BLOCK_RECORD
  5
56
100
AcDbSymbolTableRecord
100
AcDbBlockTableRecord
  2
GROUP_28
  0
BLOCK_RECORD
  5
57
100
AcDbSymbolTableRecord
100
AcDbBlockTableRecord
  2
GROUP_29
  0
BLOCK_RECORD
  5
58
100
AcDbSymbolTableRecord
100
AcDbBlockTableRecord
  2
GROUP_30
  0
BLOCK_RECORD
  5
59
100
AcDbSymbolTableRecord
100
AcDbBlockTableRecord
  2
GROUP_31
  0
ENDTAB
  0
ENDSEC
  0
SECTION
  2
BLOCKS
  0
BLOCK
  5
D
100
AcDbEntity
  8
0
100
AcDbBlockBegin
  2
*MODEL_SPACE
 70
       0
 10
0.0
 20
0.0
 30
0.0
  3
*MODEL_SPACE
  1

  0
ENDBLK
  5
E
100
AcDbEntity
  8
0
100
AcDbBlockEnd
  0
BLOCK
  5
F
100
AcDbEntity
 67
       1
  8
0
100
AcDbBlockBegin
  2
*PAPER_SPACE
 70
       0
 10
0.0
 20
0.0
 30
0.0
  3
*PAPER_SPACE
  1

  0
ENDBLK
  5
10
100
AcDbEntity
 67
       1
  8
0
100
AcDbBlockEnd
  0
BLOCK
  5
5A
100
AcDbEntity
  8
0
100
AcDbBlockBegin
  2
GROUP_1
 70
       0
 10
0.0
 20
0.0
 30
0.0
  3
GROUP_1
  1

  0
LINE
  5
5B
100
AcDbEntity
  8
D-STR
  6
CONTINUOUS
 62
       1
100
AcDbLine
 10
-345.5
 20
3178.99422338
 30
0.0
 11
-408.5
 21
3178.99422338
 31
0.0
  0
LINE
  5
5C
100
AcDbEntity
  8
D-STR
  6
CONTINUOUS
 62
       1
100
AcDbLine
 10
-408.5
 20
3628.99422338
 30
0.0
 11
-345.5
 21
3628.99422338
 31
0.0
  0
LINE
  5
5D
100
AcDbEntity
  8
D-STR
  6
CONTINUOUS
 62
       1
100
AcDbLine
 10
-420.5
 20
3190.99422338
 30
0.0
 11
-420.5
 21
3616.99422338
 31
0.0
  0
LINE
  5
5E
100
AcDbEntity
  8
D-STR
  6
CONTINUOUS
 62
       1
100
AcDbLine
 10
-345.5
 20
3178.99422338
 30
0.0
 11
-345.5
 21
3184.99422338
 31
0.0
  0
LINE
  5
5F
100
AcDbEntity
  8
D-STR
  6
CONTINUOUS
 62
       1
100
AcDbLine
 10
-345.5
 20
3622.99422338
 30
0.0
 11
-345.5
 21
3628.99422338
 31
0.0
  0
ARC
  5
60
100
AcDbEntity
  8
D-STR
  6
CONTINUOUS
 62
       1
100
AcDbCircle
 10
-408.5
 20
3190.99422338
 30
0.0
 40
12.0
100
AcDbArc
 50
180.0
 51
270.0
  0
ARC
  5
61
100
AcDbEntity
  8
D-STR
  6
CONTINUOUS
 62
       1
100
AcDbCircle
 10
-408.5
 20
3616.99422338
 30
0.0
 40
12.0
100
AcDbArc
 50
90.0
 51
180.0
  0
LINE
  5
62
100
AcDbEntity
  8
D-STR
  6
CONTINUOUS
 62
       1
100
AcDbLine
 10
-345.5
 20
3622.99422338
 30
0.0
 11
-408.5
 21
3622.99422338
 31
0.0
  0
LINE
  5
63
100
AcDbEntity
  8
D-STR
  6
CONTINUOUS
 62
       1
100
AcDbLine
 10
-414.5
 20
3616.99422338
 30
0.0
 11
-414.5
 21
3190.99422338
 31
0.0
  0
LINE
  5
64
100
AcDbEntity
  8
D-STR
  6
CONTINUOUS
 62
       1
100
AcDbLine
 10
-408.5
 20
3184.99422338
 30
0.0
 11
-345.5
 21
3184.99422338
 31
0.0
  0
ARC
  5
65
100
AcDbEntity
  8
D-STR
  6
CONTINUOUS
 62
       1
100
AcDbCircle
 10
-408.5
 20
3616.99422338
 30
0.0
 40
6.0
100
AcDbArc
 50
90.0
 51
180.0
  0
ARC
  5
66
100
AcDbEntity
  8
D-STR
  6
CONTINUOUS
 62
       1
100
AcDbCircle
 10
-408.5
 20
3190.99422338
 30
0.0
 40
6.0
100
AcDbArc
 50
180.0
 51
270.0
  0
ENDBLK
  5
67
100
AcDbEntity
  8
0
100
AcDbBlockEnd
  0
BLOCK
  5
68
100
AcDbEntity
  8
0
100
AcDbBlockBegin
  2
GROUP_2
 70
       0
 10
0.0
 20
0.0
 30
0.0
  3
GROUP_2
  1

  0
LINE
  5
69
100
AcDbEntity
  8
D-STR
  6
CONTINUOUS
 62
       1
100
AcDbLine
 10
-261.5
 20
3183.49422338
 30
0.0
 11
-195.5
 21
3183.49422338
 31
0.0
  0
LINE
  5
6A
100
AcDbEntity
  8
D-STR
  6
CONTINUOUS
 62
       1
100
AcDbLine
 10
-266.0
 20
3619.99422338
 30
0.0
 11
-266.0
 21
3187.99422338
 31
0.0
  0
LINE
  5
6B
100
AcDbEntity
  8
D-STR
  6
CONTINUOUS
 62
       1
100
AcDbLine
 10
-195.5
 20
3624.49422338
 30
0.0
 11
-261.5
 21
3624.49422338
 31
0.0
  0
ARC
  5
6C
100
AcDbEntity
  8
D-STR
  6
CONTINUOUS
 62
       1
100
AcDbCircle
 10
-261.5
 20
3187.99422338
 30
0.0
 40
4.5
100
AcDbArc
 50
180.0
 51
270.0
  0
ARC
  5
6D
100
AcDbEntity
  8
D-STR
  6
CONTINUOUS
 62
       1
100
AcDbCircle
 10
-261.5
 20
3619.99422338
 30
0.0
 40
4.5
100
AcDbArc
 50
90.0
 51
180.0
  0
LINE
  5
6E
100
AcDbEntity
  8
D-STR
  6
CONTINUOUS
 62
       1
100
AcDbLine
 10
-261.5
 20
3178.99422338
 30
0.0
 11
-195.5
 21
3178.99422338
 31
0.0
  0
LINE
  5
6F
100
AcDbEntity
  8
D-STR
  6
CONTINUOUS
 62
       1
100
AcDbLine
 10
-195.5
 20
3628.99422338
 30
0.0
 11
-261.5
 21
3628.99422338
 31
0.0
  0
LINE
  5
70
100
AcDbEntity
  8
D-STR
  6
CONTINUOUS
 62
       1
100
AcDbLine
 10
-270.5
 20
3619.99422338
 30
0.0
 11
-270.5
 21
3187.99422338
 31
0.0
  0
LINE
  5
71
100
AcDbEntity
  8
D-STR
  6
CONTINUOUS
 62
       1
100
AcDbLine
 10
-195.5
 20
3178.99422338
 30
0.0
 11
-195.5
 21
3183.49422338
 31
0.0
  0
LINE
  5
72
100
AcDbEntity
  8
D-STR
  6
CONTINUOUS
 62
       1
100
AcDbLine
 10
-195.5
 20
3624.49422338
 30
0.0
 11
-195.5
 21
3628.99422338
 31
0.0
  0
ARC
  5
73
100
AcDbEntity
  8
D-STR
  6
CONTINUOUS
 62
       1
100
AcDbCircle
 10
-261.5
 20
3619.99422338
 30
0.0
 40
9.0
100
AcDbArc
 50
90.0
 51
180.0
  0
ARC
  5
74
100
AcDbEntity
  8
D-STR
  6
CONTINUOUS
 62
       1
100
AcDbCircle
 10
-261.5
 20
3187.99422338
 30
0.0
 40
9.0
100
AcDbArc
 50
180.0
 51
270.0
  0
ENDBLK
  5
75
100
AcDbEntity
  8
0
100
AcDbBlockEnd
  0
BLOCK
  5
76
100
AcDbEntity
  8
0
100
AcDbBlockBegin
  2
GROUP_3
 70
       0
 10
0.0
 20
0.0
 30
0.0
  3
GROUP_3
  1

  0
LINE
  5
77
100
AcDbEntity
  8
D-STR
  6
CONTINUOUS
 62
       1
100
AcDbLine
 10
-261.5
 20
2733.49422338
 30
0.0
 11
-195.5
 21
2733.49422338
 31
0.0
  0
LINE
  5
78
100
AcDbEntity
  8
D-STR
  6
CONTINUOUS
 62
       1
100
AcDbLine
 10
-266.0
 20
3119.99422338
 30
0.0
 11
-266.0
 21
2737.99422338
 31
0.0
  0
LINE
  5
79
100
AcDbEntity
  8
D-STR
  6
CONTINUOUS
 62
       1
100
AcDbLine
 10
-195.5
 20
3124.49422338
 30
0.0
 11
-261.5
 21
3124.49422338
 31
0.0
  0
ARC
  5
7A
100
AcDbEntity
  8
D-STR
  6
CONTINUOUS
 62
       1
100
AcDbCircle
 10
-261.5
 20
2737.99422338
 30
0.0
 40
4.5
100
AcDbArc
 50
180.0
 51
270.0
  0
ARC
  5
7B
100
AcDbEntity
  8
D-STR
  6
CONTINUOUS
 62
       1
100
AcDbCircle
 10
-261.5
 20
3119.99422338
 30
0.0
 40
4.5
100
AcDbArc
 50
90.0
 51
180.0
  0
LINE
  5
7C
100
AcDbEntity
  8
D-STR
  6
CONTINUOUS
 62
       1
100
AcDbLine
 10
-261.5
 20
2728.99422338
 30
0.0
 11
-195.5
 21
2728.99422338
 31
0.0
  0
LINE
  5
7D
100
AcDbEntity
  8
D-STR
  6
CONTINUOUS
 62
       1
100
AcDbLine
 10
-195.5
 20
3128.99422338
 30
0.0
 11
-261.5
 21
3128.99422338
 31
0.0
  0
LINE
  5
7E
100
AcDbEntity
  8
D-STR
  6
CONTINUOUS
 62
       1
100
AcDbLine
 10
-270.5
 20
3119.99422338
 30
0.0
 11
-270.5
 21
2737.99422338
 31
0.0
  0
LINE
  5
7F
100
AcDbEntity
  8
D-STR
  6
CONTINUOUS
 62
       1
100
AcDbLine
 10
-195.5
 20
2728.99422338
 30
0.0
 11
-195.5
 21
2733.49422338
 31
0.0
  0
LINE
  5
80
100
AcDbEntity
  8
D-STR
  6
CONTINUOUS
 62
       1
100
AcDbLine
 10
-195.5
 20
3124.49422338
 30
0.0
 11
-195.5
 21
3128.99422338
 31
0.0
  0
ARC
  5
81
100
AcDbEntity
  8
D-STR
  6
CONTINUOUS
 62
       1
100
AcDbCircle
 10
-261.5
 20
3119.99422338
 30
0.0
 40
9.0
100
AcDbArc
 50
90.0
 51
180.0
  0
ARC
  5
82
100
AcDbEntity
  8
D-STR
  6
CONTINUOUS
 62
       1
100
AcDbCircle
 10
-261.5
 20
2737.99422338
 30
0.0
 40
9.0
100
AcDbArc
 50
180.0
 51
270.0
  0
ENDBLK
  5
83
100
AcDbEntity
  8
0
100
AcDbBlockEnd
  0
BLOCK
  5
84
100
AcDbEntity
  8
0
100
AcDbBlockBegin
  2
GROUP_4
 70
       0
 10
0.0
 20
0.0
 30
0.0
  3
GROUP_4
  1

  0
LINE
  5
85
100
AcDbEntity
  8
D-STR
  6
CONTINUOUS
 62
       1
100
AcDbLine
 10
-345.5
 20
3122.99422338
 30
0.0
 11
-408.5
 21
3122.99422338
 31
0.0
  0
LINE
  5
86
100
AcDbEntity
  8
D-STR
  6
CONTINUOUS
 62
       1
100
AcDbLine
 10
-414.5
 20
3116.99422338
 30
0.0
 11
-414.5
 21
2740.99422338
 31
0.0
  0
LINE
  5
87
100
AcDbEntity
  8
D-STR
  6
CONTINUOUS
 62
       1
100
AcDbLine
 10
-408.5
 20
2734.99422338
 30
0.0
 11
-345.5
 21
2734.99422338
 31
0.0
  0
ARC
  5
88
100
AcDbEntity
  8
D-STR
  6
CONTINUOUS
 62
       1
100
AcDbCircle
 10
-408.5
 20
3116.99422338
 30
0.0
 40
6.0
100
AcDbArc
 50
90.0
 51
180.0
  0
ARC
  5
89
100
AcDbEntity
  8
D-STR
  6
CONTINUOUS
 62
       1
100
AcDbCircle
 10
-408.5
 20
2740.99422338
 30
0.0
 40
6.0
100
AcDbArc
 50
180.0
 51
270.0
  0
LINE
  5
8A
100
AcDbEntity
  8
D-STR
  6
CONTINUOUS
 62
       1
100
AcDbLine
 10
-408.5
 20
2728.99422338
 30
0.0
 11
-345.5
 21
2728.99422338
 31
0.0
  0
LINE
  5
8B
100
AcDbEntity
  8
D-STR
  6
CONTINUOUS
 62
       1
100
AcDbLine
 10
-408.5
 20
3128.99422338
 30
0.0
 11
-345.5
 21
3128.99422338
 31
0.0
  0
LINE
  5
8C
100
AcDbEntity
  8
D-STR
  6
CONTINUOUS
 62
       1
100
AcDbLine
 10
-420.5
 20
2740.99422338
 30
0.0
 11
-420.5
 21
3116.99422338
 31
0.0
  0
LINE
  5
8D
100
AcDbEntity
  8
D-STR
  6
CONTINUOUS
 62
       1
100
AcDbLine
 10
-345.5
 20
2728.99422338
 30
0.0
 11
-345.5
 21
2734.99422338
 31
0.0
  0
LINE
  5
8E
100
AcDbEntity
  8
D-STR
  6
CONTINUOUS
 62
       1
100
AcDbLine
 10
-345.5
 20
3122.99422338
 30
0.0
 11
-345.5
 21
3128.99422338
 31
0.0
  0
ARC
  5
8F
100
AcDbEntity
  8
D-STR
  6
CONTINUOUS
 62
       1
100
AcDbCircle
 10
-408.5
 20
2740.99422338
 30
0.0
 40
12.0
100
AcDbArc
 50
180.0
 51
270.0
  0
ARC
  5
90
100
AcDbEntity
  8
D-STR
  6
CONTINUOUS
 62
       1
100
AcDbCircle
 10
-408.5
 20
3116.99422338
 30
0.0
 40
12.0
100
AcDbArc
 50
90.0
 51
180.0
  0
ENDBLK
  5
91
100
AcDbEntity
  8
0
100
AcDbBlockEnd
  0
BLOCK
  5
92
100
AcDbEntity
  8
0
100
AcDbBlockBegin
  2
GROUP_5
 70
       0
 10
0.0
 20
0.0
 30
0.0
  3
GROUP_5
  1

  0
LINE
  5
93
100
AcDbEntity
  8
D-STR
  6
CONTINUOUS
 62
       1
100
AcDbLine
 10
-249.0
 20
2333.49422338
 30
0.0
 11
-208.0
 21
2333.49422338
 31
0.0
  0
LINE
  5
94
100
AcDbEntity
  8
D-STR
  6
CONTINUOUS
 62
       1
100
AcDbLine
 10
-253.5
 20
2669.99422338
 30
0.0
 11
-253.5
 21
2337.99422338
 31
0.0
  0
LINE
  5
95
100
AcDbEntity
  8
D-STR
  6
CONTINUOUS
 62
       1
100
AcDbLine
 10
-208.0
 20
2674.49422338
 30
0.0
 11
-249.0
 21
2674.49422338
 31
0.0
  0
ARC
  5
96
100
AcDbEntity
  8
D-STR
  6
CONTINUOUS
 62
       1
100
AcDbCircle
 10
-249.0
 20
2337.99422338
 30
0.0
 40
4.5
100
AcDbArc
 50
180.0
 51
270.0
  0
ARC
  5
97
100
AcDbEntity
  8
D-STR
  6
CONTINUOUS
 62
       1
100
AcDbCircle
 10
-249.0
 20
2669.99422338
 30
0.0
 40
4.5
100
AcDbArc
 50
90.0
 51
180.0
  0
LINE
  5
98
100
AcDbEntity
  8
D-STR
  6
CONTINUOUS
 62
       1
100
AcDbLine
 10
-249.0
 20
2328.99422338
 30
0.0
 11
-208.0
 21
2328.99422338
 31
0.0
  0
LINE
  5
99
100
AcDbEntity
  8
D-STR
  6
CONTINUOUS
 62
       1
100
AcDbLine
 10
-208.0
 20
2678.99422338
 30
0.0
 11
-249.0
 21
2678.99422338
 31
0.0
  0
LINE
  5
9A
100
AcDbEntity
  8
D-STR
  6
CONTINUOUS
 62
       1
100
AcDbLine
 10
-258.0
 20
2669.99422338
 30
0.0
 11
-258.0
 21
2337.99422338
 31
0.0
  0
LINE
  5
9B
100
AcDbEntity
  8
D-STR
  6
CONTINUOUS
 62
       1
100
AcDbLine
 10
-208.0
 20
2328.99422338
 30
0.0
 11
-208.0
 21
2333.49422338
 31
0.0
  0
LINE
  5
9C
100
AcDbEntity
  8
D-STR
  6
CONTINUOUS
 62
       1
100
AcDbLine
 10
-208.0
 20
2674.49422338
 30
0.0
 11
-208.0
 21
2678.99422338
 31
0.0
  0
ARC
  5
9D
100
AcDbEntity
  8
D-STR
  6
CONTINUOUS
 62
       1
100
AcDbCircle
 10
-249.0
 20
2669.99422338
 30
0.0
 40
9.0
100
AcDbArc
 50
90.0
 51
180.0
  0
ARC
  5
9E
100
AcDbEntity
  8
D-STR
  6
CONTINUOUS
 62
       1
100
AcDbCircle
 10
-249.0
 20
2337.99422338
 30
0.0
 40
9.0
100
AcDbArc
 50
180.0
 51
270.0
  0
ENDBLK
  5
9F
100
AcDbEntity
  8
0
100
AcDbBlockEnd
  0
BLOCK
  5
A0
100
AcDbEntity
  8
0
100
AcDbBlockBegin
  2
GROUP_6
 70
       0
 10
0.0
 20
0.0
 30
0.0
  3
GROUP_6
  1

  0
LINE
  5
A1
100
AcDbEntity
  8
D-STR
  6
CONTINUOUS
 62
       1
100
AcDbLine
 10
-58.0
 20
2674.99422338
 30
0.0
 11
-100.0
 21
2674.99422338
 31
0.0
  0
LINE
  5
A2
100
AcDbEntity
  8
D-STR
  6
CONTINUOUS
 62
       1
100
AcDbLine
 10
-104.0
 20
2670.99422338
 30
0.0
 11
-104.0
 21
2336.99422338
 31
0.0
  0
LINE
  5
A3
100
AcDbEntity
  8
D-STR
  6
CONTINUOUS
 62
       1
100
AcDbLine
 10
-100.0
 20
2332.99422338
 30
0.0
 11
-58.0
 21
2332.99422338
 31
0.0
  0
ARC
  5
A4
100
AcDbEntity
  8
D-STR
  6
CONTINUOUS
 62
       1
100
AcDbCircle
 10
-100.0
 20
2670.99422338
 30
0.0
 40
4.0
100
AcDbArc
 50
90.0
 51
180.0
  0
ARC
  5
A5
100
AcDbEntity
  8
D-STR
  6
CONTINUOUS
 62
       1
100
AcDbCircle
 10
-100.0
 20
2336.99422338
 30
0.0
 40
4.0
100
AcDbArc
 50
180.0
 51
270.0
  0
LINE
  5
A6
100
AcDbEntity
  8
D-STR
  6
CONTINUOUS
 62
       1
100
AcDbLine
 10
-58.0
 20
2328.99422338
 30
0.0
 11
-100.0
 21
2328.99422338
 31
0.0
  0
LINE
  5
A7
100
AcDbEntity
  8
D-STR
  6
CONTINUOUS
 62
       1
100
AcDbLine
 10
-100.0
 20
2678.99422338
 30
0.0
 11
-58.0
 21
2678.99422338
 31
0.0
  0
LINE
  5
A8
100
AcDbEntity
  8
D-STR
  6
CONTINUOUS
 62
       1
100
AcDbLine
 10
-108.0
 20
2336.99422338
 30
0.0
 11
-108.0
 21
2670.99422338
 31
0.0
  0
LINE
  5
A9
100
AcDbEntity
  8
D-STR
  6
CONTINUOUS
 62
       1
100
AcDbLine
 10
-58.0
 20
2328.99422338
 30
0.0
 11
-58.0
 21
2332.99422338
 31
0.0
  0
LINE
  5
AA
100
AcDbEntity
  8
D-STR
  6
CONTINUOUS
 62
       1
100
AcDbLine
 10
-58.0
 20
2674.99422338
 30
0.0
 11
-58.0
 21
2678.99422338
 31
0.0
  0
ARC
  5
AB
100
AcDbEntity
  8
D-STR
  6
CONTINUOUS
 62
       1
100
AcDbCircle
 10
-100.0
 20
2336.99422338
 30
0.0
 40
8.0
100
AcDbArc
 50
180.0
 51
270.0
  0
ARC
  5
AC
100
AcDbEntity
  8
D-STR
  6
CONTINUOUS
 62
       1
100
AcDbCircle
 10
-100.0
 20
2670.99422338
 30
0.0
 40
8.0
100
AcDbArc
 50
90.0
 51
180.0
  0
ENDBLK
  5
AD
100
AcDbEntity
  8
0
100
AcDbBlockEnd
  0
BLOCK
  5
AE
100
AcDbEntity
  8
0
100
AcDbBlockBegin
  2
GROUP_7
 70
       0
 10
0.0
 20
0.0
 30
0.0
  3
GROUP_7
  1

  0
LINE
  5
AF
100
AcDbEntity
  8
D-STR
  6
CONTINUOUS
 62
       1
100
AcDbLine
 10
-58.0
 20
2274.99422338
 30
0.0
 11
-100.0
 21
2274.99422338
 31
0.0
  0
LINE
  5
B0
100
AcDbEntity
  8
D-STR
  6
CONTINUOUS
 62
       1
100
AcDbLine
 10
-104.0
 20
2270.99422338
 30
0.0
 11
-104.0
 21
1986.99422338
 31
0.0
  0
LINE
  5
B1
100
AcDbEntity
  8
D-STR
  6
CONTINUOUS
 62
       1
100
AcDbLine
 10
-100.0
 20
1982.99422338
 30
0.0
 11
-58.0
 21
1982.99422338
 31
0.0
  0
ARC
  5
B2
100
AcDbEntity
  8
D-STR
  6
CONTINUOUS
 62
       1
100
AcDbCircle
 10
-100.0
 20
2270.99422338
 30
0.0
 40
4.0
100
AcDbArc
 50
90.0
 51
180.0
  0
ARC
  5
B3
100
AcDbEntity
  8
D-STR
  6
CONTINUOUS
 62
       1
100
AcDbCircle
 10
-100.0
 20
1986.99422338
 30
0.0
 40
4.0
100
AcDbArc
 50
180.0
 51
270.0
  0
LINE
  5
B4
100
AcDbEntity
  8
D-STR
  6
CONTINUOUS
 62
       1
100
AcDbLine
 10
-58.0
 20
1978.99422338
 30
0.0
 11
-100.0
 21
1978.99422338
 31
0.0
  0
LINE
  5
B5
100
AcDbEntity
  8
D-STR
  6
CONTINUOUS
 62
       1
100
AcDbLine
 10
-100.0
 20
2278.99422338
 30
0.0
 11
-58.0
 21
2278.99422338
 31
0.0
  0
LINE
  5
B6
100
AcDbEntity
  8
D-STR
  6
CONTINUOUS
 62
       1
100
AcDbLine
 10
-108.0
 20
1986.99422338
 30
0.0
 11
-108.0
 21
2270.99422338
 31
0.0
  0
LINE
  5
B7
100
AcDbEntity
  8
D-STR
  6
CONTINUOUS
 62
       1
100
AcDbLine
 10
-58.0
 20
1978.99422338
 30
0.0
 11
-58.0
 21
1982.99422338
 31
0.0
  0
LINE
  5
B8
100
AcDbEntity
  8
D-STR
  6
CONTINUOUS
 62
       1
100
AcDbLine
 10
-58.0
 20
2274.99422338
 30
0.0
 11
-58.0
 21
2278.99422338
 31
0.0
  0
ARC
  5
B9
100
AcDbEntity
  8
D-STR
  6
CONTINUOUS
 62
       1
100
AcDbCircle
 10
-100.0
 20
1986.99422338
 30
0.0
 40
8.0
100
AcDbArc
 50
180.0
 51
270.0
  0
ARC
  5
BA
100
AcDbEntity
  8
D-STR
  6
CONTINUOUS
 62
       1
100
AcDbCircle
 10
-100.0
 20
2270.99422338
 30
0.0
 40
8.0
100
AcDbArc
 50
90.0
 51
180.0
  0
ENDBLK
  5
BB
100
AcDbEntity
  8
0
100
AcDbBlockEnd
  0
BLOCK
  5
BC
100
AcDbEntity
  8
0
100
AcDbBlockBegin
  2
GROUP_8
 70
       0
 10
0.0
 20
0.0
 30
0.0
  3
GROUP_8
  1

  0
LINE
  5
BD
100
AcDbEntity
  8
D-STR
  6
CONTINUOUS
 62
       1
100
AcDbLine
 10
-249.0
 20
1983.49422338
 30
0.0
 11
-208.0
 21
1983.49422338
 31
0.0
  0
LINE
  5
BE
100
AcDbEntity
  8
D-STR
  6
CONTINUOUS
 62
       1
100
AcDbLine
 10
-253.5
 20
2269.99422338
 30
0.0
 11
-253.5
 21
1987.99422338
 31
0.0
  0
LINE
  5
BF
100
AcDbEntity
  8
D-STR
  6
CONTINUOUS
 62
       1
100
AcDbLine
 10
-208.0
 20
2274.49422338
 30
0.0
 11
-249.0
 21
2274.49422338
 31
0.0
  0
ARC
  5
C0
100
AcDbEntity
  8
D-STR
  6
CONTINUOUS
 62
       1
100
AcDbCircle
 10
-249.0
 20
1987.99422338
 30
0.0
 40
4.5
100
AcDbArc
 50
180.0
 51
270.0
  0
ARC
  5
C1
100
AcDbEntity
  8
D-STR
  6
CONTINUOUS
 62
       1
100
AcDbCircle
 10
-249.0
 20
2269.99422338
 30
0.0
 40
4.5
100
AcDbArc
 50
90.0
 51
180.0
  0
LINE
  5
C2
100
AcDbEntity
  8
D-STR
  6
CONTINUOUS
 62
       1
100
AcDbLine
 10
-249.0
 20
1978.99422338
 30
0.0
 11
-208.0
 21
1978.99422338
 31
0.0
  0
LINE
  5
C3
100
AcDbEntity
  8
D-STR
  6
CONTINUOUS
 62
       1
100
AcDbLine
 10
-208.0
 20
2278.99422338
 30
0.0
 11
-249.0
 21
2278.99422338
 31
0.0
  0
LINE
  5
C4
100
AcDbEntity
  8
D-STR
  6
CONTINUOUS
 62
       1
100
AcDbLine
 10
-258.0
 20
2269.99422338
 30
0.0
 11
-258.0
 21
1987.99422338
 31
0.0
  0
LINE
  5
C5
100
AcDbEntity
  8
D-STR
  6
CONTINUOUS
 62
       1
100
AcDbLine
 10
-208.0
 20
1978.99422338
 30
0.0
 11
-208.0
 21
1983.49422338
 31
0.0
  0
LINE
  5
C6
100
AcDbEntity
  8
D-STR
  6
CONTINUOUS
 62
       1
100
AcDbLine
 10
-208.0
 20
2274.49422338
 30
0.0
 11
-208.0
 21
2278.99422338
 31
0.0
  0
ARC
  5
C7
100
AcDbEntity
  8
D-STR
  6
CONTINUOUS
 62
       1
100
AcDbCircle
 10
-249.0
 20
2269.99422338
 30
0.0
 40
9.0
100
AcDbArc
 50
90.0
 51
180.0
  0
ARC
  5
C8
100
AcDbEntity
  8
D-STR
  6
CONTINUOUS
 62
       1
100
AcDbCircle
 10
-249.0
 20
1987.99422338
 30
0.0
 40
9.0
100
AcDbArc
 50
180.0
 51
270.0
  0
ENDBLK
  5
C9
100
AcDbEntity
  8
0
100
AcDbBlockEnd
  0
BLOCK
  5
CA
100
AcDbEntity
  8
0
100
AcDbBlockBegin
  2
GROUP_9
 70
       0
 10
0.0
 20
0.0
 30
0.0
  3
GROUP_9
  1

  0
LINE
  5
CB
100
AcDbEntity
  8
D-STR
  6
CONTINUOUS
 62
       1
100
AcDbLine
 10
-345.5
 20
1922.99422338
 30
0.0
 11
-408.5
 21
1922.99422338
 31
0.0
  0
LINE
  5
CC
100
AcDbEntity
  8
D-STR
  6
CONTINUOUS
 62
       1
100
AcDbLine
 10
-414.5
 20
1916.99422338
 30
0.0
 11
-414.5
 21
1690.99422338
 31
0.0
  0
LINE
  5
CD
100
AcDbEntity
  8
D-STR
  6
CONTINUOUS
 62
       1
100
AcDbLine
 10
-408.5
 20
1684.99422338
 30
0.0
 11
-345.5
 21
1684.99422338
 31
0.0
  0
ARC
  5
CE
100
AcDbEntity
  8
D-STR
  6
CONTINUOUS
 62
       1
100
AcDbCircle
 10
-408.5
 20
1916.99422338
 30
0.0
 40
6.0
100
AcDbArc
 50
90.0
 51
180.0
  0
ARC
  5
CF
100
AcDbEntity
  8
D-STR
  6
CONTINUOUS
 62
       1
100
AcDbCircle
 10
-408.5
 20
1690.99422338
 30
0.0
 40
6.0
100
AcDbArc
 50
180.0
 51
270.0
  0
LINE
  5
D0
100
AcDbEntity
  8
D-STR
  6
CONTINUOUS
 62
       1
100
AcDbLine
 10
-345.5
 20
1678.99422338
 30
0.0
 11
-408.5
 21
1678.99422338
 31
0.0
  0
LINE
  5
D1
100
AcDbEntity
  8
D-STR
  6
CONTINUOUS
 62
       1
100
AcDbLine
 10
-408.5
 20
1928.99422338
 30
0.0
 11
-345.5
 21
1928.99422338
 31
0.0
  0
LINE
  5
D2
100
AcDbEntity
  8
D-STR
  6
CONTINUOUS
 62
       1
100
AcDbLine
 10
-420.5
 20
1690.99422338
 30
0.0
 11
-420.5
 21
1916.99422338
 31
0.0
  0
LINE
  5
D3
100
AcDbEntity
  8
D-STR
  6
CONTINUOUS
 62
       1
100
AcDbLine
 10
-345.5
 20
1678.99422338
 30
0.0
 11
-345.5
 21
1684.99422338
 31
0.0
  0
LINE
  5
D4
100
AcDbEntity
  8
D-STR
  6
CONTINUOUS
 62
       1
100
AcDbLine
 10
-345.5
 20
1922.99422338
 30
0.0
 11
-345.5
 21
1928.99422338
 31
0.0
  0
ARC
  5
D5
100
AcDbEntity
  8
D-STR
  6
CONTINUOUS
 62
       1
100
AcDbCircle
 10
-408.5
 20
1690.99422338
 30
0.0
 40
12.0
100
AcDbArc
 50
180.0
 51
270.0
  0
ARC
  5
D6
100
AcDbEntity
  8
D-STR
  6
CONTINUOUS
 62
       1
100
AcDbCircle
 10
-408.5
 20
1916.99422338
 30
0.0
 40
12.0
100
AcDbArc
 50
90.0
 51
180.0
  0
ENDBLK
  5
D7
100
AcDbEntity
  8
0
100
AcDbBlockEnd
  0
BLOCK
  5
D8
100
AcDbEntity
  8
0
100
AcDbBlockBegin
  2
GROUP_10
 70
       0
 10
0.0
 20
0.0
 30
0.0
  3
GROUP_10
  1

  0
LINE
  5
D9
100
AcDbEntity
  8
D-STR
  6
CONTINUOUS
 62
       1
100
AcDbLine
 10
-249.0
 20
1383.49422338
 30
0.0
 11
-208.0
 21
1383.49422338
 31
0.0
  0
LINE
  5
DA
100
AcDbEntity
  8
D-STR
  6
CONTINUOUS
 62
       1
100
AcDbLine
 10
-253.5
 20
1619.99422338
 30
0.0
 11
-253.5
 21
1387.99422338
 31
0.0
  0
LINE
  5
DB
100
AcDbEntity
  8
D-STR
  6
CONTINUOUS
 62
       1
100
AcDbLine
 10
-208.0
 20
1624.49422338
 30
0.0
 11
-249.0
 21
1624.49422338
 31
0.0
  0
ARC
  5
DC
100
AcDbEntity
  8
D-STR
  6
CONTINUOUS
 62
       1
100
AcDbCircle
 10
-249.0
 20
1387.99422338
 30
0.0
 40
4.5
100
AcDbArc
 50
180.0
 51
270.0
  0
ARC
  5
DD
100
AcDbEntity
  8
D-STR
  6
CONTINUOUS
 62
       1
100
AcDbCircle
 10
-249.0
 20
1619.99422338
 30
0.0
 40
4.5
100
AcDbArc
 50
90.0
 51
180.0
  0
LINE
  5
DE
100
AcDbEntity
  8
D-STR
  6
CONTINUOUS
 62
       1
100
AcDbLine
 10
-249.0
 20
1378.99422338
 30
0.0
 11
-208.0
 21
1378.99422338
 31
0.0
  0
LINE
  5
DF
100
AcDbEntity
  8
D-STR
  6
CONTINUOUS
 62
       1
100
AcDbLine
 10
-208.0
 20
1628.99422338
 30
0.0
 11
-249.0
 21
1628.99422338
 31
0.0
  0
LINE
  5
E0
100
AcDbEntity
  8
D-STR
  6
CONTINUOUS
 62
       1
100
AcDbLine
 10
-258.0
 20
1619.99422338
 30
0.0
 11
-258.0
 21
1387.99422338
 31
0.0
  0
LINE
  5
E1
100
AcDbEntity
  8
D-STR
  6
CONTINUOUS
 62
       1
100
AcDbLine
 10
-208.0
 20
1378.99422338
 30
0.0
 11
-208.0
 21
1383.49422338
 31
0.0
  0
LINE
  5
E2
100
AcDbEntity
  8
D-STR
  6
CONTINUOUS
 62
       1
100
AcDbLine
 10
-208.0
 20
1624.49422338
 30
0.0
 11
-208.0
 21
1628.99422338
 31
0.0
  0
ARC
  5
E3
100
AcDbEntity
  8
D-STR
  6
CONTINUOUS
 62
       1
100
AcDbCircle
 10
-249.0
 20
1619.99422338
 30
0.0
 40
9.0
100
AcDbArc
 50
90.0
 51
180.0
  0
ARC
  5
E4
100
AcDbEntity
  8
D-STR
  6
CONTINUOUS
 62
       1
100
AcDbCircle
 10
-249.0
 20
1387.99422338
 30
0.0
 40
9.0
100
AcDbArc
 50
180.0
 51
270.0
  0
ENDBLK
  5
E5
100
AcDbEntity
  8
0
100
AcDbBlockEnd
  0
BLOCK
  5
E6
100
AcDbEntity
  8
0
100
AcDbBlockBegin
  2
GROUP_11
 70
       0
 10
0.0
 20
0.0
 30
0.0
  3
GROUP_11
  1

  0
LINE
  5
E7
100
AcDbEntity
  8
D-STR
  6
CONTINUOUS
 62
       1
100
AcDbLine
 10
-58.0
 20
1624.99422338
 30
0.0
 11
-100.0
 21
1624.99422338
 31
0.0
  0
LINE
  5
E8
100
AcDbEntity
  8
D-STR
  6
CONTINUOUS
 62
       1
100
AcDbLine
 10
-104.0
 20
1620.99422338
 30
0.0
 11
-104.0
 21
1386.99422338
 31
0.0
  0
LINE
  5
E9
100
AcDbEntity
  8
D-STR
  6
CONTINUOUS
 62
       1
100
AcDbLine
 10
-100.0
 20
1382.99422338
 30
0.0
 11
-58.0
 21
1382.99422338
 31
0.0
  0
ARC
  5
EA
100
AcDbEntity
  8
D-STR
  6
CONTINUOUS
 62
       1
100
AcDbCircle
 10
-100.0
 20
1620.99422338
 30
0.0
 40
4.0
100
AcDbArc
 50
90.0
 51
180.0
  0
ARC
  5
EB
100
AcDbEntity
  8
D-STR
  6
CONTINUOUS
 62
       1
100
AcDbCircle
 10
-100.0
 20
1386.99422338
 30
0.0
 40
4.0
100
AcDbArc
 50
180.0
 51
270.0
  0
LINE
  5
EC
100
AcDbEntity
  8
D-STR
  6
CONTINUOUS
 62
       1
100
AcDbLine
 10
-58.0
 20
1378.99422338
 30
0.0
 11
-100.0
 21
1378.99422338
 31
0.0
  0
LINE
  5
ED
100
AcDbEntity
  8
D-STR
  6
CONTINUOUS
 62
       1
100
AcDbLine
 10
-100.0
 20
1628.99422338
 30
0.0
 11
-58.0
 21
1628.99422338
 31
0.0
  0
LINE
  5
EE
100
AcDbEntity
  8
D-STR
  6
CONTINUOUS
 62
       1
100
AcDbLine
 10
-108.0
 20
1386.99422338
 30
0.0
 11
-108.0
 21
1620.99422338
 31
0.0
  0
LINE
  5
EF
100
AcDbEntity
  8
D-STR
  6
CONTINUOUS
 62
       1
100
AcDbLine
 10
-58.0
 20
1378.99422338
 30
0.0
 11
-58.0
 21
1382.99422338
 31
0.0
  0
LINE
  5
F0
100
AcDbEntity
  8
D-STR
  6
CONTINUOUS
 62
       1
100
AcDbLine
 10
-58.0
 20
1624.99422338
 30
0.0
 11
-58.0
 21
1628.99422338
 31
0.0
  0
ARC
  5
F1
100
AcDbEntity
  8
D-STR
  6
CONTINUOUS
 62
       1
100
AcDbCircle
 10
-100.0
 20
1386.99422338
 30
0.0
 40
8.0
100
AcDbArc
 50
180.0
 51
270.0
  0
ARC
  5
F2
100
AcDbEntity
  8
D-STR
  6
CONTINUOUS
 62
       1
100
AcDbCircle
 10
-100.0
 20
1620.99422338
 30
0.0
 40
8.0
100
AcDbArc
 50
90.0
 51
180.0
  0
ENDBLK
  5
F3
100
AcDbEntity
  8
0
100
AcDbBlockEnd
  0
BLOCK
  5
F4
100
AcDbEntity
  8
0
100
AcDbBlockBegin
  2
GROUP_12
 70
       0
 10
0.0
 20
0.0
 30
0.0
  3
GROUP_12
  1

  0
LINE
  5
F5
100
AcDbEntity
  8
D-STR
  6
CONTINUOUS
 62
       1
100
AcDbLine
 10
-345.5
 20
1322.99422338
 30
0.0
 11
-408.5
 21
1322.99422338
 31
0.0
  0
LINE
  5
F6
100
AcDbEntity
  8
D-STR
  6
CONTINUOUS
 62
       1
100
AcDbLine
 10
-414.5
 20
1316.99422338
 30
0.0
 11
-414.5
 21
1140.99422338
 31
0.0
  0
LINE
  5
F7
100
AcDbEntity
  8
D-STR
  6
CONTINUOUS
 62
       1
100
AcDbLine
 10
-408.5
 20
1134.99422338
 30
0.0
 11
-345.5
 21
1134.99422338
 31
0.0
  0
ARC
  5
F8
100
AcDbEntity
  8
D-STR
  6
CONTINUOUS
 62
       1
100
AcDbCircle
 10
-408.5
 20
1316.99422338
 30
0.0
 40
6.0
100
AcDbArc
 50
90.0
 51
180.0
  0
ARC
  5
F9
100
AcDbEntity
  8
D-STR
  6
CONTINUOUS
 62
       1
100
AcDbCircle
 10
-408.5
 20
1140.99422338
 30
0.0
 40
6.0
100
AcDbArc
 50
180.0
 51
270.0
  0
LINE
  5
FA
100
AcDbEntity
  8
D-STR
  6
CONTINUOUS
 62
       1
100
AcDbLine
 10
-345.5
 20
1128.99422338
 30
0.0
 11
-408.5
 21
1128.99422338
 31
0.0
  0
LINE
  5
FB
100
AcDbEntity
  8
D-STR
  6
CONTINUOUS
 62
       1
100
AcDbLine
 10
-408.5
 20
1328.99422338
 30
0.0
 11
-345.5
 21
1328.99422338
 31
0.0
  0
LINE
  5
FC
100
AcDbEntity
  8
D-STR
  6
CONTINUOUS
 62
       1
100
AcDbLine
 10
-420.5
 20
1140.99422338
 30
0.0
 11
-420.5
 21
1316.99422338
 31
0.0
  0
LINE
  5
FD
100
AcDbEntity
  8
D-STR
  6
CONTINUOUS
 62
       1
100
AcDbLine
 10
-345.5
 20
1128.99422338
 30
0.0
 11
-345.5
 21
1134.99422338
 31
0.0
  0
LINE
  5
FE
100
AcDbEntity
  8
D-STR
  6
CONTINUOUS
 62
       1
100
AcDbLine
 10
-345.5
 20
1322.99422338
 30
0.0
 11
-345.5
 21
1328.99422338
 31
0.0
  0
ARC
  5
FF
100
AcDbEntity
  8
D-STR
  6
CONTINUOUS
 62
       1
100
AcDbCircle
 10
-408.5
 20
1140.99422338
 30
0.0
 40
12.0
100
AcDbArc
 50
180.0
 51
270.0
  0
ARC
  5
100
100
AcDbEntity
  8
D-STR
  6
CONTINUOUS
 62
       1
100
AcDbCircle
 10
-408.5
 20
1316.99422338
 30
0.0
 40
12.0
100
AcDbArc
 50
90.0
 51
180.0
  0
ENDBLK
  5
101
100
AcDbEntity
  8
0
100
AcDbBlockEnd
  0
BLOCK
  5
102
100
AcDbEntity
  8
0
100
AcDbBlockBegin
  2
GROUP_13
 70
       0
 10
0.0
 20
0.0
 30
0.0
  3
GROUP_13
  1

  0
LINE
  5
103
100
AcDbEntity
  8
D-STR
  6
CONTINUOUS
 62
       1
100
AcDbLine
 10
-195.5
 20
1324.49422338
 30
0.0
 11
-261.5
 21
1324.49422338
 31
0.0
  0
LINE
  5
104
100
AcDbEntity
  8
D-STR
  6
CONTINUOUS
 62
       1
100
AcDbLine
 10
-266.0
 20
1319.99422338
 30
0.0
 11
-266.0
 21
1137.99422338
 31
0.0
  0
LINE
  5
105
100
AcDbEntity
  8
D-STR
  6
CONTINUOUS
 62
       1
100
AcDbLine
 10
-261.5
 20
1133.49422338
 30
0.0
 11
-195.5
 21
1133.49422338
 31
0.0
  0
ARC
  5
106
100
AcDbEntity
  8
D-STR
  6
CONTINUOUS
 62
       1
100
AcDbCircle
 10
-261.5
 20
1137.99422338
 30
0.0
 40
4.5
100
AcDbArc
 50
180.0
 51
270.0
  0
ARC
  5
107
100
AcDbEntity
  8
D-STR
  6
CONTINUOUS
 62
       1
100
AcDbCircle
 10
-261.5
 20
1319.99422338
 30
0.0
 40
4.5
100
AcDbArc
 50
90.0
 51
180.0
  0
LINE
  5
108
100
AcDbEntity
  8
D-STR
  6
CONTINUOUS
 62
       1
100
AcDbLine
 10
-261.5
 20
1128.99422338
 30
0.0
 11
-195.5
 21
1128.99422338
 31
0.0
  0
LINE
  5
109
100
AcDbEntity
  8
D-STR
  6
CONTINUOUS
 62
       1
100
AcDbLine
 10
-195.5
 20
1328.99422338
 30
0.0
 11
-261.5
 21
1328.99422338
 31
0.0
  0
LINE
  5
10A
100
AcDbEntity
  8
D-STR
  6
CONTINUOUS
 62
       1
100
AcDbLine
 10
-270.5
 20
1319.99422338
 30
0.0
 11
-270.5
 21
1137.99422338
 31
0.0
  0
LINE
  5
10B
100
AcDbEntity
  8
D-STR
  6
CONTINUOUS
 62
       1
100
AcDbLine
 10
-195.5
 20
1128.99422338
 30
0.0
 11
-195.5
 21
1133.49422338
 31
0.0
  0
LINE
  5
10C
100
AcDbEntity
  8
D-STR
  6
CONTINUOUS
 62
       1
100
AcDbLine
 10
-195.5
 20
1324.49422338
 30
0.0
 11
-195.5
 21
1328.99422338
 31
0.0
  0
ARC
  5
10D
100
AcDbEntity
  8
D-STR
  6
CONTINUOUS
 62
       1
100
AcDbCircle
 10
-261.5
 20
1319.99422338
 30
0.0
 40
9.0
100
AcDbArc
 50
90.0
 51
180.0
  0
ARC
  5
10E
100
AcDbEntity
  8
D-STR
  6
CONTINUOUS
 62
       1
100
AcDbCircle
 10
-261.5
 20
1137.99422338
 30
0.0
 40
9.0
100
AcDbArc
 50
180.0
 51
270.0
  0
ENDBLK
  5
10F
100
AcDbEntity
  8
0
100
AcDbBlockEnd
  0
BLOCK
  5
110
100
AcDbEntity
  8
0
100
AcDbBlockBegin
  2
GROUP_14
 70
       0
 10
0.0
 20
0.0
 30
0.0
  3
GROUP_14
  1

  0
LINE
  5
111
100
AcDbEntity
  8
D-STR
  6
CONTINUOUS
 62
       1
100
AcDbLine
 10
-249.0
 20
883.49422338
 30
0.0
 11
-208.0
 21
883.49422338
 31
0.0
  0
LINE
  5
112
100
AcDbEntity
  8
D-STR
  6
CONTINUOUS
 62
       1
100
AcDbLine
 10
-253.5
 20
1069.99422338
 30
0.0
 11
-253.5
 21
887.99422338
 31
0.0
  0
LINE
  5
113
100
AcDbEntity
  8
D-STR
  6
CONTINUOUS
 62
       1
100
AcDbLine
 10
-208.0
 20
1074.49422338
 30
0.0
 11
-249.0
 21
1074.49422338
 31
0.0
  0
ARC
  5
114
100
AcDbEntity
  8
D-STR
  6
CONTINUOUS
 62
       1
100
AcDbCircle
 10
-249.0
 20
887.99422338
 30
0.0
 40
4.5
100
AcDbArc
 50
180.0
 51
270.0
  0
ARC
  5
115
100
AcDbEntity
  8
D-STR
  6
CONTINUOUS
 62
       1
100
AcDbCircle
 10
-249.0
 20
1069.99422338
 30
0.0
 40
4.5
100
AcDbArc
 50
90.0
 51
180.0
  0
LINE
  5
116
100
AcDbEntity
  8
D-STR
  6
CONTINUOUS
 62
       1
100
AcDbLine
 10
-249.0
 20
878.99422338
 30
0.0
 11
-208.0
 21
878.99422338
 31
0.0
  0
LINE
  5
117
100
AcDbEntity
  8
D-STR
  6
CONTINUOUS
 62
       1
100
AcDbLine
 10
-208.0
 20
1078.99422338
 30
0.0
 11
-249.0
 21
1078.99422338
 31
0.0
  0
LINE
  5
118
100
AcDbEntity
  8
D-STR
  6
CONTINUOUS
 62
       1
100
AcDbLine
 10
-258.0
 20
1069.99422338
 30
0.0
 11
-258.0
 21
887.99422338
 31
0.0
  0
LINE
  5
119
100
AcDbEntity
  8
D-STR
  6
CONTINUOUS
 62
       1
100
AcDbLine
 10
-208.0
 20
878.99422338
 30
0.0
 11
-208.0
 21
883.49422338
 31
0.0
  0
LINE
  5
11A
100
AcDbEntity
  8
D-STR
  6
CONTINUOUS
 62
       1
100
AcDbLine
 10
-208.0
 20
1074.49422338
 30
0.0
 11
-208.0
 21
1078.99422338
 31
0.0
  0
ARC
  5
11B
100
AcDbEntity
  8
D-STR
  6
CONTINUOUS
 62
       1
100
AcDbCircle
 10
-249.0
 20
1069.99422338
 30
0.0
 40
9.0
100
AcDbArc
 50
90.0
 51
180.0
  0
ARC
  5
11C
100
AcDbEntity
  8
D-STR
  6
CONTINUOUS
 62
       1
100
AcDbCircle
 10
-249.0
 20
887.99422338
 30
0.0
 40
9.0
100
AcDbArc
 50
180.0
 51
270.0
  0
ENDBLK
  5
11D
100
AcDbEntity
  8
0
100
AcDbBlockEnd
  0
BLOCK
  5
11E
100
AcDbEntity
  8
0
100
AcDbBlockBegin
  2
GROUP_15
 70
       0
 10
0.0
 20
0.0
 30
0.0
  3
GROUP_15
  1

  0
LINE
  5
11F
100
AcDbEntity
  8
D-STR
  6
CONTINUOUS
 62
       1
100
AcDbLine
 10
-58.0
 20
1074.99422338
 30
0.0
 11
-100.0
 21
1074.99422338
 31
0.0
  0
LINE
  5
120
100
AcDbEntity
  8
D-STR
  6
CONTINUOUS
 62
       1
100
AcDbLine
 10
-104.0
 20
1070.99422338
 30
0.0
 11
-104.0
 21
886.99422338
 31
0.0
  0
LINE
  5
121
100
AcDbEntity
  8
D-STR
  6
CONTINUOUS
 62
       1
100
AcDbLine
 10
-100.0
 20
882.99422338
 30
0.0
 11
-58.0
 21
882.99422338
 31
0.0
  0
ARC
  5
122
100
AcDbEntity
  8
D-STR
  6
CONTINUOUS
 62
       1
100
AcDbCircle
 10
-100.0
 20
1070.99422338
 30
0.0
 40
4.0
100
AcDbArc
 50
90.0
 51
180.0
  0
ARC
  5
123
100
AcDbEntity
  8
D-STR
  6
CONTINUOUS
 62
       1
100
AcDbCircle
 10
-100.0
 20
886.99422338
 30
0.0
 40
4.0
100
AcDbArc
 50
180.0
 51
270.0
  0
LINE
  5
124
100
AcDbEntity
  8
D-STR
  6
CONTINUOUS
 62
       1
100
AcDbLine
 10
-58.0
 20
878.99422338
 30
0.0
 11
-100.0
 21
878.99422338
 31
0.0
  0
LINE
  5
125
100
AcDbEntity
  8
D-STR
  6
CONTINUOUS
 62
       1
100
AcDbLine
 10
-100.0
 20
1078.99422338
 30
0.0
 11
-58.0
 21
1078.99422338
 31
0.0
  0
LINE
  5
126
100
AcDbEntity
  8
D-STR
  6
CONTINUOUS
 62
       1
100
AcDbLine
 10
-108.0
 20
886.99422338
 30
0.0
 11
-108.0
 21
1070.99422338
 31
0.0
  0
LINE
  5
127
100
AcDbEntity
  8
D-STR
  6
CONTINUOUS
 62
       1
100
AcDbLine
 10
-58.0
 20
878.99422338
 30
0.0
 11
-58.0
 21
882.99422338
 31
0.0
  0
LINE
  5
128
100
AcDbEntity
  8
D-STR
  6
CONTINUOUS
 62
       1
100
AcDbLine
 10
-58.0
 20
1074.99422338
 30
0.0
 11
-58.0
 21
1078.99422338
 31
0.0
  0
ARC
  5
129
100
AcDbEntity
  8
D-STR
  6
CONTINUOUS
 62
       1
100
AcDbCircle
 10
-100.0
 20
886.99422338
 30
0.0
 40
8.0
100
AcDbArc
 50
180.0
 51
270.0
  0
ARC
  5
12A
100
AcDbEntity
  8
D-STR
  6
CONTINUOUS
 62
       1
100
AcDbCircle
 10
-100.0
 20
1070.99422338
 30
0.0
 40
8.0
100
AcDbArc
 50
90.0
 51
180.0
  0
ENDBLK
  5
12B
100
AcDbEntity
  8
0
100
AcDbBlockEnd
  0
BLOCK
  5
12C
100
AcDbEntity
  8
0
100
AcDbBlockBegin
  2
GROUP_16
 70
       0
 10
0.0
 20
0.0
 30
0.0
  3
GROUP_16
  1

  0
LINE
  5
12D
100
AcDbEntity
  8
D-STR
  6
CONTINUOUS
 62
       1
100
AcDbLine
 10
48.4
 20
882.19422338
 30
0.0
 11
92.0
 21
882.19422338
 31
0.0
  0
LINE
  5
12E
100
AcDbEntity
  8
D-STR
  6
CONTINUOUS
 62
       1
100
AcDbLine
 10
45.2
 20
1072.59422338
 30
0.0
 11
45.2
 21
885.39422338
 31
0.0
  0
LINE
  5
12F
100
AcDbEntity
  8
D-STR
  6
CONTINUOUS
 62
       1
100
AcDbLine
 10
92.0
 20
1075.79422338
 30
0.0
 11
48.4
 21
1075.79422338
 31
0.0
  0
ARC
  5
130
100
AcDbEntity
  8
D-STR
  6
CONTINUOUS
 62
       1
100
AcDbCircle
 10
48.4
 20
885.39422338
 30
0.0
 40
3.2
100
AcDbArc
 50
180.0
 51
270.0
  0
ARC
  5
131
100
AcDbEntity
  8
D-STR
  6
CONTINUOUS
 62
       1
100
AcDbCircle
 10
48.4
 20
1072.59422338
 30
0.0
 40
3.2
100
AcDbArc
 50
90.0
 51
180.0
  0
LINE
  5
132
100
AcDbEntity
  8
D-STR
  6
CONTINUOUS
 62
       1
100
AcDbLine
 10
48.4
 20
878.99422338
 30
0.0
 11
92.0
 21
878.99422338
 31
0.0
  0
LINE
  5
133
100
AcDbEntity
  8
D-STR
  6
CONTINUOUS
 62
       1
100
AcDbLine
 10
92.0
 20
1078.99422338
 30
0.0
 11
48.4
 21
1078.99422338
 31
0.0
  0
LINE
  5
134
100
AcDbEntity
  8
D-STR
  6
CONTINUOUS
 62
       1
100
AcDbLine
 10
42.0
 20
1072.59422338
 30
0.0
 11
42.0
 21
885.39422338
 31
0.0
  0
LINE
  5
135
100
AcDbEntity
  8
D-STR
  6
CONTINUOUS
 62
       1
100
AcDbLine
 10
92.0
 20
878.99422338
 30
0.0
 11
92.0
 21
882.19422338
 31
0.0
  0
LINE
  5
136
100
AcDbEntity
  8
D-STR
  6
CONTINUOUS
 62
       1
100
AcDbLine
 10
92.0
 20
1075.79422338
 30
0.0
 11
92.0
 21
1078.99422338
 31
0.0
  0
ARC
  5
137
100
AcDbEntity
  8
D-STR
  6
CONTINUOUS
 62
       1
100
AcDbCircle
 10
48.4
 20
1072.59422338
 30
0.0
 40
6.4
100
AcDbArc
 50
90.0
 51
180.0
  0
ARC
  5
138
100
AcDbEntity
  8
D-STR
  6
CONTINUOUS
 62
       1
100
AcDbCircle
 10
48.4
 20
885.39422338
 30
0.0
 40
6.4
100
AcDbArc
 50
180.0
 51
270.0
  0
ENDBLK
  5
139
100
AcDbEntity
  8
0
100
AcDbBlockEnd
  0
BLOCK
  5
13A
100
AcDbEntity
  8
0
100
AcDbBlockBegin
  2
GROUP_17
 70
       0
 10
0.0
 20
0.0
 30
0.0
  3
GROUP_17
  1

  0
LINE
  5
13B
100
AcDbEntity
  8
D-STR
  6
CONTINUOUS
 62
       1
100
AcDbLine
 10
-345.5
 20
822.99422338
 30
0.0
 11
-408.5
 21
822.99422338
 31
0.0
  0
LINE
  5
13C
100
AcDbEntity
  8
D-STR
  6
CONTINUOUS
 62
       1
100
AcDbLine
 10
-414.5
 20
816.99422338
 30
0.0
 11
-414.5
 21
690.99422338
 31
0.0
  0
LINE
  5
13D
100
AcDbEntity
  8
D-STR
  6
CONTINUOUS
 62
       1
100
AcDbLine
 10
-408.5
 20
684.99422338
 30
0.0
 11
-345.5
 21
684.99422338
 31
0.0
  0
ARC
  5
13E
100
AcDbEntity
  8
D-STR
  6
CONTINUOUS
 62
       1
100
AcDbCircle
 10
-408.5
 20
816.99422338
 30
0.0
 40
6.0
100
AcDbArc
 50
90.0
 51
180.0
  0
ARC
  5
13F
100
AcDbEntity
  8
D-STR
  6
CONTINUOUS
 62
       1
100
AcDbCircle
 10
-408.5
 20
690.99422338
 30
0.0
 40
6.0
100
AcDbArc
 50
180.0
 51
270.0
  0
LINE
  5
140
100
AcDbEntity
  8
D-STR
  6
CONTINUOUS
 62
       1
100
AcDbLine
 10
-345.5
 20
678.99422338
 30
0.0
 11
-408.5
 21
678.99422338
 31
0.0
  0
LINE
  5
141
100
AcDbEntity
  8
D-STR
  6
CONTINUOUS
 62
       1
100
AcDbLine
 10
-408.5
 20
828.99422338
 30
0.0
 11
-345.5
 21
828.99422338
 31
0.0
  0
LINE
  5
142
100
AcDbEntity
  8
D-STR
  6
CONTINUOUS
 62
       1
100
AcDbLine
 10
-420.5
 20
690.99422338
 30
0.0
 11
-420.5
 21
816.99422338
 31
0.0
  0
LINE
  5
143
100
AcDbEntity
  8
D-STR
  6
CONTINUOUS
 62
       1
100
AcDbLine
 10
-345.5
 20
678.99422338
 30
0.0
 11
-345.5
 21
684.99422338
 31
0.0
  0
LINE
  5
144
100
AcDbEntity
  8
D-STR
  6
CONTINUOUS
 62
       1
100
AcDbLine
 10
-345.5
 20
822.99422338
 30
0.0
 11
-345.5
 21
828.99422338
 31
0.0
  0
ARC
  5
145
100
AcDbEntity
  8
D-STR
  6
CONTINUOUS
 62
       1
100
AcDbCircle
 10
-408.5
 20
690.99422338
 30
0.0
 40
12.0
100
AcDbArc
 50
180.0
 51
270.0
  0
ARC
  5
146
100
AcDbEntity
  8
D-STR
  6
CONTINUOUS
 62
       1
100
AcDbCircle
 10
-408.5
 20
816.99422338
 30
0.0
 40
12.0
100
AcDbArc
 50
90.0
 51
180.0
  0
ENDBLK
  5
147
100
AcDbEntity
  8
0
100
AcDbBlockEnd
  0
BLOCK
  5
148
100
AcDbEntity
  8
0
100
AcDbBlockBegin
  2
GROUP_18
 70
       0
 10
0.0
 20
0.0
 30
0.0
  3
GROUP_18
  1

  0
LINE
  5
149
100
AcDbEntity
  8
D-STR
  6
CONTINUOUS
 62
       1
100
AcDbLine
 10
-261.5
 20
683.49422338
 30
0.0
 11
-195.5
 21
683.49422338
 31
0.0
  0
LINE
  5
14A
100
AcDbEntity
  8
D-STR
  6
CONTINUOUS
 62
       1
100
AcDbLine
 10
-266.0
 20
819.99422338
 30
0.0
 11
-266.0
 21
687.99422338
 31
0.0
  0
LINE
  5
14B
100
AcDbEntity
  8
D-STR
  6
CONTINUOUS
 62
       1
100
AcDbLine
 10
-195.5
 20
824.49422338
 30
0.0
 11
-261.5
 21
824.49422338
 31
0.0
  0
ARC
  5
14C
100
AcDbEntity
  8
D-STR
  6
CONTINUOUS
 62
       1
100
AcDbCircle
 10
-261.5
 20
687.99422338
 30
0.0
 40
4.5
100
AcDbArc
 50
180.0
 51
270.0
  0
ARC
  5
14D
100
AcDbEntity
  8
D-STR
  6
CONTINUOUS
 62
       1
100
AcDbCircle
 10
-261.5
 20
819.99422338
 30
0.0
 40
4.5
100
AcDbArc
 50
90.0
 51
180.0
  0
LINE
  5
14E
100
AcDbEntity
  8
D-STR
  6
CONTINUOUS
 62
       1
100
AcDbLine
 10
-261.5
 20
678.99422338
 30
0.0
 11
-195.5
 21
678.99422338
 31
0.0
  0
LINE
  5
14F
100
AcDbEntity
  8
D-STR
  6
CONTINUOUS
 62
       1
100
AcDbLine
 10
-195.5
 20
828.99422338
 30
0.0
 11
-261.5
 21
828.99422338
 31
0.0
  0
LINE
  5
150
100
AcDbEntity
  8
D-STR
  6
CONTINUOUS
 62
       1
100
AcDbLine
 10
-270.5
 20
819.99422338
 30
0.0
 11
-270.5
 21
687.99422338
 31
0.0
  0
LINE
  5
151
100
AcDbEntity
  8
D-STR
  6
CONTINUOUS
 62
       1
100
AcDbLine
 10
-195.5
 20
678.99422338
 30
0.0
 11
-195.5
 21
683.49422338
 31
0.0
  0
LINE
  5
152
100
AcDbEntity
  8
D-STR
  6
CONTINUOUS
 62
       1
100
AcDbLine
 10
-195.5
 20
824.49422338
 30
0.0
 11
-195.5
 21
828.99422338
 31
0.0
  0
ARC
  5
153
100
AcDbEntity
  8
D-STR
  6
CONTINUOUS
 62
       1
100
AcDbCircle
 10
-261.5
 20
819.99422338
 30
0.0
 40
9.0
100
AcDbArc
 50
90.0
 51
180.0
  0
ARC
  5
154
100
AcDbEntity
  8
D-STR
  6
CONTINUOUS
 62
       1
100
AcDbCircle
 10
-261.5
 20
687.99422338
 30
0.0
 40
9.0
100
AcDbArc
 50
180.0
 51
270.0
  0
ENDBLK
  5
155
100
AcDbEntity
  8
0
100
AcDbBlockEnd
  0
BLOCK
  5
156
100
AcDbEntity
  8
0
100
AcDbBlockBegin
  2
GROUP_19
 70
       0
 10
0.0
 20
0.0
 30
0.0
  3
GROUP_19
  1

  0
LINE
  5
157
100
AcDbEntity
  8
D-STR
  6
CONTINUOUS
 62
       1
100
AcDbLine
 10
-45.5
 20
824.99422338
 30
0.0
 11
-112.5
 21
824.99422338
 31
0.0
  0
LINE
  5
158
100
AcDbEntity
  8
D-STR
  6
CONTINUOUS
 62
       1
100
AcDbLine
 10
-116.5
 20
820.99422338
 30
0.0
 11
-116.5
 21
686.99422338
 31
0.0
  0
LINE
  5
159
100
AcDbEntity
  8
D-STR
  6
CONTINUOUS
 62
       1
100
AcDbLine
 10
-112.5
 20
682.99422338
 30
0.0
 11
-45.5
 21
682.99422338
 31
0.0
  0
ARC
  5
15A
100
AcDbEntity
  8
D-STR
  6
CONTINUOUS
 62
       1
100
AcDbCircle
 10
-112.5
 20
820.99422338
 30
0.0
 40
4.0
100
AcDbArc
 50
90.0
 51
180.0
  0
ARC
  5
15B
100
AcDbEntity
  8
D-STR
  6
CONTINUOUS
 62
       1
100
AcDbCircle
 10
-112.5
 20
686.99422338
 30
0.0
 40
4.0
100
AcDbArc
 50
180.0
 51
270.0
  0
LINE
  5
15C
100
AcDbEntity
  8
D-STR
  6
CONTINUOUS
 62
       1
100
AcDbLine
 10
-45.5
 20
678.99422338
 30
0.0
 11
-112.5
 21
678.99422338
 31
0.0
  0
LINE
  5
15D
100
AcDbEntity
  8
D-STR
  6
CONTINUOUS
 62
       1
100
AcDbLine
 10
-112.5
 20
828.99422338
 30
0.0
 11
-45.5
 21
828.99422338
 31
0.0
  0
LINE
  5
15E
100
AcDbEntity
  8
D-STR
  6
CONTINUOUS
 62
       1
100
AcDbLine
 10
-120.5
 20
686.99422338
 30
0.0
 11
-120.5
 21
820.99422338
 31
0.0
  0
LINE
  5
15F
100
AcDbEntity
  8
D-STR
  6
CONTINUOUS
 62
       1
100
AcDbLine
 10
-45.5
 20
678.99422338
 30
0.0
 11
-45.5
 21
682.99422338
 31
0.0
  0
LINE
  5
160
100
AcDbEntity
  8
D-STR
  6
CONTINUOUS
 62
       1
100
AcDbLine
 10
-45.5
 20
824.99422338
 30
0.0
 11
-45.5
 21
828.99422338
 31
0.0
  0
ARC
  5
161
100
AcDbEntity
  8
D-STR
  6
CONTINUOUS
 62
       1
100
AcDbCircle
 10
-112.5
 20
686.99422338
 30
0.0
 40
8.0
100
AcDbArc
 50
180.0
 51
270.0
  0
ARC
  5
162
100
AcDbEntity
  8
D-STR
  6
CONTINUOUS
 62
       1
100
AcDbCircle
 10
-112.5
 20
820.99422338
 30
0.0
 40
8.0
100
AcDbArc
 50
90.0
 51
180.0
  0
ENDBLK
  5
163
100
AcDbEntity
  8
0
100
AcDbBlockEnd
  0
BLOCK
  5
164
100
AcDbEntity
  8
0
100
AcDbBlockBegin
  2
GROUP_20
 70
       0
 10
0.0
 20
0.0
 30
0.0
  3
GROUP_20
  1

  0
LINE
  5
165
100
AcDbEntity
  8
D-STR
  6
CONTINUOUS
 62
       1
100
AcDbLine
 10
35.9
 20
682.19422338
 30
0.0
 11
104.5
 21
682.19422338
 31
0.0
  0
LINE
  5
166
100
AcDbEntity
  8
D-STR
  6
CONTINUOUS
 62
       1
100
AcDbLine
 10
32.7
 20
822.59422338
 30
0.0
 11
32.7
 21
685.39422338
 31
0.0
  0
LINE
  5
167
100
AcDbEntity
  8
D-STR
  6
CONTINUOUS
 62
       1
100
AcDbLine
 10
104.5
 20
825.79422338
 30
0.0
 11
35.9
 21
825.79422338
 31
0.0
  0
ARC
  5
168
100
AcDbEntity
  8
D-STR
  6
CONTINUOUS
 62
       1
100
AcDbCircle
 10
35.9
 20
685.39422338
 30
0.0
 40
3.2
100
AcDbArc
 50
180.0
 51
270.0
  0
ARC
  5
169
100
AcDbEntity
  8
D-STR
  6
CONTINUOUS
 62
       1
100
AcDbCircle
 10
35.9
 20
822.59422338
 30
0.0
 40
3.2
100
AcDbArc
 50
90.0
 51
180.0
  0
LINE
  5
16A
100
AcDbEntity
  8
D-STR
  6
CONTINUOUS
 62
       1
100
AcDbLine
 10
35.9
 20
678.99422338
 30
0.0
 11
104.5
 21
678.99422338
 31
0.0
  0
LINE
  5
16B
100
AcDbEntity
  8
D-STR
  6
CONTINUOUS
 62
       1
100
AcDbLine
 10
104.5
 20
828.99422338
 30
0.0
 11
35.9
 21
828.99422338
 31
0.0
  0
LINE
  5
16C
100
AcDbEntity
  8
D-STR
  6
CONTINUOUS
 62
       1
100
AcDbLine
 10
29.5
 20
822.59422338
 30
0.0
 11
29.5
 21
685.39422338
 31
0.0
  0
LINE
  5
16D
100
AcDbEntity
  8
D-STR
  6
CONTINUOUS
 62
       1
100
AcDbLine
 10
104.5
 20
678.99422338
 30
0.0
 11
104.5
 21
682.19422338
 31
0.0
  0
LINE
  5
16E
100
AcDbEntity
  8
D-STR
  6
CONTINUOUS
 62
       1
100
AcDbLine
 10
104.5
 20
825.79422338
 30
0.0
 11
104.5
 21
828.99422338
 31
0.0
  0
ARC
  5
16F
100
AcDbEntity
  8
D-STR
  6
CONTINUOUS
 62
       1
100
AcDbCircle
 10
35.9
 20
822.59422338
 30
0.0
 40
6.4
100
AcDbArc
 50
90.0
 51
180.0
  0
ARC
  5
170
100
AcDbEntity
  8
D-STR
  6
CONTINUOUS
 62
       1
100
AcDbCircle
 10
35.9
 20
685.39422338
 30
0.0
 40
6.4
100
AcDbArc
 50
180.0
 51
270.0
  0
ENDBLK
  5
171
100
AcDbEntity
  8
0
100
AcDbBlockEnd
  0
BLOCK
  5
172
100
AcDbEntity
  8
0
100
AcDbBlockBegin
  2
GROUP_21
 70
       0
 10
0.0
 20
0.0
 30
0.0
  3
GROUP_21
  1

  0
LINE
  5
173
100
AcDbEntity
  8
D-STR
  6
CONTINUOUS
 62
       1
100
AcDbLine
 10
-208.0
 20
624.49422338
 30
0.0
 11
-249.0
 21
624.49422338
 31
0.0
  0
LINE
  5
174
100
AcDbEntity
  8
D-STR
  6
CONTINUOUS
 62
       1
100
AcDbLine
 10
-253.5
 20
619.99422338
 30
0.0
 11
-253.5
 21
487.99422338
 31
0.0
  0
LINE
  5
175
100
AcDbEntity
  8
D-STR
  6
CONTINUOUS
 62
       1
100
AcDbLine
 10
-249.0
 20
483.49422338
 30
0.0
 11
-208.0
 21
483.49422338
 31
0.0
  0
ARC
  5
176
100
AcDbEntity
  8
D-STR
  6
CONTINUOUS
 62
       1
100
AcDbCircle
 10
-249.0
 20
487.99422338
 30
0.0
 40
4.5
100
AcDbArc
 50
180.0
 51
270.0
  0
ARC
  5
177
100
AcDbEntity
  8
D-STR
  6
CONTINUOUS
 62
       1
100
AcDbCircle
 10
-249.0
 20
619.99422338
 30
0.0
 40
4.5
100
AcDbArc
 50
90.0
 51
180.0
  0
LINE
  5
178
100
AcDbEntity
  8
D-STR
  6
CONTINUOUS
 62
       1
100
AcDbLine
 10
-249.0
 20
478.99422338
 30
0.0
 11
-208.0
 21
478.99422338
 31
0.0
  0
LINE
  5
179
100
AcDbEntity
  8
D-STR
  6
CONTINUOUS
 62
       1
100
AcDbLine
 10
-208.0
 20
628.99422338
 30
0.0
 11
-249.0
 21
628.99422338
 31
0.0
  0
LINE
  5
17A
100
AcDbEntity
  8
D-STR
  6
CONTINUOUS
 62
       1
100
AcDbLine
 10
-258.0
 20
619.99422338
 30
0.0
 11
-258.0
 21
487.99422338
 31
0.0
  0
LINE
  5
17B
100
AcDbEntity
  8
D-STR
  6
CONTINUOUS
 62
       1
100
AcDbLine
 10
-208.0
 20
478.99422338
 30
0.0
 11
-208.0
 21
483.49422338
 31
0.0
  0
LINE
  5
17C
100
AcDbEntity
  8
D-STR
  6
CONTINUOUS
 62
       1
100
AcDbLine
 10
-208.0
 20
624.49422338
 30
0.0
 11
-208.0
 21
628.99422338
 31
0.0
  0
ARC
  5
17D
100
AcDbEntity
  8
D-STR
  6
CONTINUOUS
 62
       1
100
AcDbCircle
 10
-249.0
 20
619.99422338
 30
0.0
 40
9.0
100
AcDbArc
 50
90.0
 51
180.0
  0
ARC
  5
17E
100
AcDbEntity
  8
D-STR
  6
CONTINUOUS
 62
       1
100
AcDbCircle
 10
-249.0
 20
487.99422338
 30
0.0
 40
9.0
100
AcDbArc
 50
180.0
 51
270.0
  0
ENDBLK
  5
17F
100
AcDbEntity
  8
0
100
AcDbBlockEnd
  0
BLOCK
  5
180
100
AcDbEntity
  8
0
100
AcDbBlockBegin
  2
GROUP_22
 70
       0
 10
0.0
 20
0.0
 30
0.0
  3
GROUP_22
  1

  0
LINE
  5
181
100
AcDbEntity
  8
D-STR
  6
CONTINUOUS
 62
       1
100
AcDbLine
 10
48.4
 20
482.19422338
 30
0.0
 11
92.0
 21
482.19422338
 31
0.0
  0
LINE
  5
182
100
AcDbEntity
  8
D-STR
  6
CONTINUOUS
 62
       1
100
AcDbLine
 10
45.2
 20
622.59422338
 30
0.0
 11
45.2
 21
485.39422338
 31
0.0
  0
LINE
  5
183
100
AcDbEntity
  8
D-STR
  6
CONTINUOUS
 62
       1
100
AcDbLine
 10
92.0
 20
625.79422338
 30
0.0
 11
48.4
 21
625.79422338
 31
0.0
  0
ARC
  5
184
100
AcDbEntity
  8
D-STR
  6
CONTINUOUS
 62
       1
100
AcDbCircle
 10
48.4
 20
485.39422338
 30
0.0
 40
3.2
100
AcDbArc
 50
180.0
 51
270.0
  0
ARC
  5
185
100
AcDbEntity
  8
D-STR
  6
CONTINUOUS
 62
       1
100
AcDbCircle
 10
48.4
 20
622.59422338
 30
0.0
 40
3.2
100
AcDbArc
 50
90.0
 51
180.0
  0
LINE
  5
186
100
AcDbEntity
  8
D-STR
  6
CONTINUOUS
 62
       1
100
AcDbLine
 10
48.4
 20
478.99422338
 30
0.0
 11
92.0
 21
478.99422338
 31
0.0
  0
LINE
  5
187
100
AcDbEntity
  8
D-STR
  6
CONTINUOUS
 62
       1
100
AcDbLine
 10
92.0
 20
628.99422338
 30
0.0
 11
48.4
 21
628.99422338
 31
0.0
  0
LINE
  5
188
100
AcDbEntity
  8
D-STR
  6
CONTINUOUS
 62
       1
100
AcDbLine
 10
42.0
 20
622.59422338
 30
0.0
 11
42.0
 21
485.39422338
 31
0.0
  0
LINE
  5
189
100
AcDbEntity
  8
D-STR
  6
CONTINUOUS
 62
       1
100
AcDbLine
 10
92.0
 20
478.99422338
 30
0.0
 11
92.0
 21
482.19422338
 31
0.0
  0
LINE
  5
18A
100
AcDbEntity
  8
D-STR
  6
CONTINUOUS
 62
       1
100
AcDbLine
 10
92.0
 20
625.79422338
 30
0.0
 11
92.0
 21
628.99422338
 31
0.0
  0
ARC
  5
18B
100
AcDbEntity
  8
D-STR
  6
CONTINUOUS
 62
       1
100
AcDbCircle
 10
48.4
 20
622.59422338
 30
0.0
 40
6.4
100
AcDbArc
 50
90.0
 51
180.0
  0
ARC
  5
18C
100
AcDbEntity
  8
D-STR
  6
CONTINUOUS
 62
       1
100
AcDbCircle
 10
48.4
 20
485.39422338
 30
0.0
 40
6.4
100
AcDbArc
 50
180.0
 51
270.0
  0
ENDBLK
  5
18D
100
AcDbEntity
  8
0
100
AcDbBlockEnd
  0
BLOCK
  5
18E
100
AcDbEntity
  8
0
100
AcDbBlockBegin
  2
GROUP_23
 70
       0
 10
0.0
 20
0.0
 30
0.0
  3
GROUP_23
  1

  0
LINE
  5
18F
100
AcDbEntity
  8
D-STR
  6
CONTINUOUS
 62
       1
100
AcDbLine
 10
242.0
 20
626.69422338
 30
0.0
 11
196.6
 21
626.69422338
 31
0.0
  0
LINE
  5
190
100
AcDbEntity
  8
D-STR
  6
CONTINUOUS
 62
       1
100
AcDbLine
 10
194.3
 20
624.39422338
 30
0.0
 11
194.3
 21
483.59422338
 31
0.0
  0
LINE
  5
191
100
AcDbEntity
  8
D-STR
  6
CONTINUOUS
 62
       1
100
AcDbLine
 10
196.6
 20
481.29422338
 30
0.0
 11
242.0
 21
481.29422338
 31
0.0
  0
ARC
  5
192
100
AcDbEntity
  8
D-STR
  6
CONTINUOUS
 62
       1
100
AcDbCircle
 10
196.6
 20
483.59422338
 30
0.0
 40
2.3
100
AcDbArc
 50
180.0
 51
270.0
  0
ARC
  5
193
100
AcDbEntity
  8
D-STR
  6
CONTINUOUS
 62
       1
100
AcDbCircle
 10
196.6
 20
624.39422338
 30
0.0
 40
2.3
100
AcDbArc
 50
90.0
 51
180.0
  0
LINE
  5
194
100
AcDbEntity
  8
D-STR
  6
CONTINUOUS
 62
       1
100
AcDbLine
 10
196.6
 20
478.99422338
 30
0.0
 11
242.0
 21
478.99422338
 31
0.0
  0
LINE
  5
195
100
AcDbEntity
  8
D-STR
  6
CONTINUOUS
 62
       1
100
AcDbLine
 10
242.0
 20
628.99422338
 30
0.0
 11
196.6
 21
628.99422338
 31
0.0
  0
LINE
  5
196
100
AcDbEntity
  8
D-STR
  6
CONTINUOUS
 62
       1
100
AcDbLine
 10
192.0
 20
624.39422338
 30
0.0
 11
192.0
 21
483.59422338
 31
0.0
  0
ARC
  5
197
100
AcDbEntity
  8
D-STR
  6
CONTINUOUS
 62
       1
100
AcDbCircle
 10
196.6
 20
624.39422338
 30
0.0
 40
4.6
100
AcDbArc
 50
90.0
 51
180.0
  0
ARC
  5
198
100
AcDbEntity
  8
D-STR
  6
CONTINUOUS
 62
       1
100
AcDbCircle
 10
196.6
 20
483.59422338
 30
0.0
 40
4.6
100
AcDbArc
 50
180.0
 51
270.0
  0
LINE
  5
199
100
AcDbEntity
  8
D-STR
  6
CONTINUOUS
 62
       1
100
AcDbLine
 10
242.0
 20
478.99422338
 30
0.0
 11
242.0
 21
481.29422338
 31
0.0
  0
LINE
  5
19A
100
AcDbEntity
  8
D-STR
  6
CONTINUOUS
 62
       1
100
AcDbLine
 10
242.0
 20
626.69422338
 30
0.0
 11
242.0
 21
628.99422338
 31
0.0
  0
ENDBLK
  5
19B
100
AcDbEntity
  8
0
100
AcDbBlockEnd
  0
BLOCK
  5
19C
100
AcDbEntity
  8
0
100
AcDbBlockBegin
  2
GROUP_24
 70
       0
 10
0.0
 20
0.0
 30
0.0
  3
GROUP_24
  1

  0
LINE
  5
19D
100
AcDbEntity
  8
D-STR
  6
CONTINUOUS
 62
       1
100
AcDbLine
 10
53.4
 20
312.19422338
 30
0.0
 11
87.0
 21
312.19422338
 31
0.0
  0
LINE
  5
19E
100
AcDbEntity
  8
D-STR
  6
CONTINUOUS
 62
       1
100
AcDbLine
 10
50.2
 20
422.59422338
 30
0.0
 11
50.2
 21
315.39422338
 31
0.0
  0
LINE
  5
19F
100
AcDbEntity
  8
D-STR
  6
CONTINUOUS
 62
       1
100
AcDbLine
 10
87.0
 20
425.79422338
 30
0.0
 11
53.4
 21
425.79422338
 31
0.0
  0
ARC
  5
1A0
100
AcDbEntity
  8
D-STR
  6
CONTINUOUS
 62
       1
100
AcDbCircle
 10
53.4
 20
315.39422338
 30
0.0
 40
3.2
100
AcDbArc
 50
180.0
 51
270.0
  0
ARC
  5
1A1
100
AcDbEntity
  8
D-STR
  6
CONTINUOUS
 62
       1
100
AcDbCircle
 10
53.4
 20
422.59422338
 30
0.0
 40
3.2
100
AcDbArc
 50
90.0
 51
180.0
  0
LINE
  5
1A2
100
AcDbEntity
  8
D-STR
  6
CONTINUOUS
 62
       1
100
AcDbLine
 10
53.4
 20
308.99422338
 30
0.0
 11
87.0
 21
308.99422338
 31
0.0
  0
LINE
  5
1A3
100
AcDbEntity
  8
D-STR
  6
CONTINUOUS
 62
       1
100
AcDbLine
 10
87.0
 20
428.99422338
 30
0.0
 11
53.4
 21
428.99422338
 31
0.0
  0
LINE
  5
1A4
100
AcDbEntity
  8
D-STR
  6
CONTINUOUS
 62
       1
100
AcDbLine
 10
47.0
 20
422.59422338
 30
0.0
 11
47.0
 21
315.39422338
 31
0.0
  0
LINE
  5
1A5
100
AcDbEntity
  8
D-STR
  6
CONTINUOUS
 62
       1
100
AcDbLine
 10
87.0
 20
308.99422338
 30
0.0
 11
87.0
 21
312.19422338
 31
0.0
  0
LINE
  5
1A6
100
AcDbEntity
  8
D-STR
  6
CONTINUOUS
 62
       1
100
AcDbLine
 10
87.0
 20
425.79422338
 30
0.0
 11
87.0
 21
428.99422338
 31
0.0
  0
ARC
  5
1A7
100
AcDbEntity
  8
D-STR
  6
CONTINUOUS
 62
       1
100
AcDbCircle
 10
53.4
 20
422.59422338
 30
0.0
 40
6.4
100
AcDbArc
 50
90.0
 51
180.0
  0
ARC
  5
1A8
100
AcDbEntity
  8
D-STR
  6
CONTINUOUS
 62
       1
100
AcDbCircle
 10
53.4
 20
315.39422338
 30
0.0
 40
6.4
100
AcDbArc
 50
180.0
 51
270.0
  0
ENDBLK
  5
1A9
100
AcDbEntity
  8
0
100
AcDbBlockEnd
  0
BLOCK
  5
1AA
100
AcDbEntity
  8
0
100
AcDbBlockBegin
  2
GROUP_25
 70
       0
 10
0.0
 20
0.0
 30
0.0
  3
GROUP_25
  1

  0
LINE
  5
1AB
100
AcDbEntity
  8
D-STR
  6
CONTINUOUS
 62
       1
100
AcDbLine
 10
92.0
 20
255.79422338
 30
0.0
 11
48.4
 21
255.79422338
 31
0.0
  0
LINE
  5
1AC
100
AcDbEntity
  8
D-STR
  6
CONTINUOUS
 62
       1
100
AcDbLine
 10
45.2
 20
252.59422338
 30
0.0
 11
45.2
 21
165.39422338
 31
0.0
  0
LINE
  5
1AD
100
AcDbEntity
  8
D-STR
  6
CONTINUOUS
 62
       1
100
AcDbLine
 10
48.4
 20
162.19422338
 30
0.0
 11
92.0
 21
162.19422338
 31
0.0
  0
ARC
  5
1AE
100
AcDbEntity
  8
D-STR
  6
CONTINUOUS
 62
       1
100
AcDbCircle
 10
48.4
 20
165.39422338
 30
0.0
 40
3.2
100
AcDbArc
 50
180.0
 51
270.0
  0
ARC
  5
1AF
100
AcDbEntity
  8
D-STR
  6
CONTINUOUS
 62
       1
100
AcDbCircle
 10
48.4
 20
252.59422338
 30
0.0
 40
3.2
100
AcDbArc
 50
90.0
 51
180.0
  0
LINE
  5
1B0
100
AcDbEntity
  8
D-STR
  6
CONTINUOUS
 62
       1
100
AcDbLine
 10
48.4
 20
158.99422338
 30
0.0
 11
92.0
 21
158.99422338
 31
0.0
  0
LINE
  5
1B1
100
AcDbEntity
  8
D-STR
  6
CONTINUOUS
 62
       1
100
AcDbLine
 10
92.0
 20
258.99422338
 30
0.0
 11
48.4
 21
258.99422338
 31
0.0
  0
LINE
  5
1B2
100
AcDbEntity
  8
D-STR
  6
CONTINUOUS
 62
       1
100
AcDbLine
 10
42.0
 20
252.59422338
 30
0.0
 11
42.0
 21
165.39422338
 31
0.0
  0
LINE
  5
1B3
100
AcDbEntity
  8
D-STR
  6
CONTINUOUS
 62
       1
100
AcDbLine
 10
92.0
 20
158.99422338
 30
0.0
 11
92.0
 21
162.19422338
 31
0.0
  0
LINE
  5
1B4
100
AcDbEntity
  8
D-STR
  6
CONTINUOUS
 62
       1
100
AcDbLine
 10
92.0
 20
255.79422338
 30
0.0
 11
92.0
 21
258.99422338
 31
0.0
  0
ARC
  5
1B5
100
AcDbEntity
  8
D-STR
  6
CONTINUOUS
 62
       1
100
AcDbCircle
 10
48.4
 20
252.59422338
 30
0.0
 40
6.4
100
AcDbArc
 50
90.0
 51
180.0
  0
ARC
  5
1B6
100
AcDbEntity
  8
D-STR
  6
CONTINUOUS
 62
       1
100
AcDbCircle
 10
48.4
 20
165.39422338
 30
0.0
 40
6.4
100
AcDbArc
 50
180.0
 51
270.0
  0
ENDBLK
  5
1B7
100
AcDbEntity
  8
0
100
AcDbBlockEnd
  0
BLOCK
  5
1B8
100
AcDbEntity
  8
0
100
AcDbBlockBegin
  2
GROUP_26
 70
       0
 10
0.0
 20
0.0
 30
0.0
  3
GROUP_26
  1

  0
LINE
  5
1B9
100
AcDbEntity
  8
D-STR
  6
CONTINUOUS
 62
       1
100
AcDbLine
 10
242.0
 20
256.69422338
 30
0.0
 11
196.6
 21
256.69422338
 31
0.0
  0
LINE
  5
1BA
100
AcDbEntity
  8
D-STR
  6
CONTINUOUS
 62
       1
100
AcDbLine
 10
194.3
 20
254.39422338
 30
0.0
 11
194.3
 21
163.59422338
 31
0.0
  0
LINE
  5
1BB
100
AcDbEntity
  8
D-STR
  6
CONTINUOUS
 62
       1
100
AcDbLine
 10
196.6
 20
161.29422338
 30
0.0
 11
242.0
 21
161.29422338
 31
0.0
  0
ARC
  5
1BC
100
AcDbEntity
  8
D-STR
  6
CONTINUOUS
 62
       1
100
AcDbCircle
 10
196.6
 20
163.59422338
 30
0.0
 40
2.3
100
AcDbArc
 50
180.0
 51
270.0
  0
ARC
  5
1BD
100
AcDbEntity
  8
D-STR
  6
CONTINUOUS
 62
       1
100
AcDbCircle
 10
196.6
 20
254.39422338
 30
0.0
 40
2.3
100
AcDbArc
 50
90.0
 51
180.0
  0
LINE
  5
1BE
100
AcDbEntity
  8
D-STR
  6
CONTINUOUS
 62
       1
100
AcDbLine
 10
196.6
 20
158.99422338
 30
0.0
 11
242.0
 21
158.99422338
 31
0.0
  0
LINE
  5
1BF
100
AcDbEntity
  8
D-STR
  6
CONTINUOUS
 62
       1
100
AcDbLine
 10
242.0
 20
258.99422338
 30
0.0
 11
196.6
 21
258.99422338
 31
0.0
  0
LINE
  5
1C0
100
AcDbEntity
  8
D-STR
  6
CONTINUOUS
 62
       1
100
AcDbLine
 10
192.0
 20
254.39422338
 30
0.0
 11
192.0
 21
163.59422338
 31
0.0
  0
ARC
  5
1C1
100
AcDbEntity
  8
D-STR
  6
CONTINUOUS
 62
       1
100
AcDbCircle
 10
196.6
 20
254.39422338
 30
0.0
 40
4.6
100
AcDbArc
 50
90.0
 51
180.0
  0
ARC
  5
1C2
100
AcDbEntity
  8
D-STR
  6
CONTINUOUS
 62
       1
100
AcDbCircle
 10
196.6
 20
163.59422338
 30
0.0
 40
4.6
100
AcDbArc
 50
180.0
 51
270.0
  0
LINE
  5
1C3
100
AcDbEntity
  8
D-STR
  6
CONTINUOUS
 62
       1
100
AcDbLine
 10
242.0
 20
158.99422338
 30
0.0
 11
242.0
 21
161.29422338
 31
0.0
  0
LINE
  5
1C4
100
AcDbEntity
  8
D-STR
  6
CONTINUOUS
 62
       1
100
AcDbLine
 10
242.0
 20
256.69422338
 30
0.0
 11
242.0
 21
258.99422338
 31
0.0
  0
ENDBLK
  5
1C5
100
AcDbEntity
  8
0
100
AcDbBlockEnd
  0
BLOCK
  5
1C6
100
AcDbEntity
  8
0
100
AcDbBlockBegin
  2
GROUP_27
 70
       0
 10
0.0
 20
0.0
 30
0.0
  3
GROUP_27
  1

  0
LINE
  5
1C7
100
AcDbEntity
  8
D-STR
  6
CONTINUOUS
 62
       1
100
AcDbLine
 10
237.0
 20
106.69422338
 30
0.0
 11
201.6
 21
106.69422338
 31
0.0
  0
LINE
  5
1C8
100
AcDbEntity
  8
D-STR
  6
CONTINUOUS
 62
       1
100
AcDbLine
 10
199.3
 20
104.39422338
 30
0.0
 11
199.3
 21
13.59422338
 31
0.0
  0
LINE
  5
1C9
100
AcDbEntity
  8
D-STR
  6
CONTINUOUS
 62
       1
100
AcDbLine
 10
201.6
 20
11.29422338
 30
0.0
 11
237.0
 21
11.29422338
 31
0.0
  0
ARC
  5
1CA
100
AcDbEntity
  8
D-STR
  6
CONTINUOUS
 62
       1
100
AcDbCircle
 10
201.6
 20
13.59422338
 30
0.0
 40
2.3
100
AcDbArc
 50
180.0
 51
270.0
  0
ARC
  5
1CB
100
AcDbEntity
  8
D-STR
  6
CONTINUOUS
 62
       1
100
AcDbCircle
 10
201.6
 20
104.39422338
 30
0.0
 40
2.3
100
AcDbArc
 50
90.0
 51
180.0
  0
LINE
  5
1CC
100
AcDbEntity
  8
D-STR
  6
CONTINUOUS
 62
       1
100
AcDbLine
 10
201.6
 20
8.99422338
 30
0.0
 11
237.0
 21
8.99422338
 31
0.0
  0
LINE
  5
1CD
100
AcDbEntity
  8
D-STR
  6
CONTINUOUS
 62
       1
100
AcDbLine
 10
237.0
 20
108.99422338
 30
0.0
 11
201.6
 21
108.99422338
 31
0.0
  0
LINE
  5
1CE
100
AcDbEntity
  8
D-STR
  6
CONTINUOUS
 62
       1
100
AcDbLine
 10
197.0
 20
104.39422338
 30
0.0
 11
197.0
 21
13.59422338
 31
0.0
  0
ARC
  5
1CF
100
AcDbEntity
  8
D-STR
  6
CONTINUOUS
 62
       1
100
AcDbCircle
 10
201.6
 20
104.39422338
 30
0.0
 40
4.6
100
AcDbArc
 50
90.0
 51
180.0
  0
ARC
  5
1D0
100
AcDbEntity
  8
D-STR
  6
CONTINUOUS
 62
       1
100
AcDbCircle
 10
201.6
 20
13.59422338
 30
0.0
 40
4.6
100
AcDbArc
 50
180.0
 51
270.0
  0
LINE
  5
1D1
100
AcDbEntity
  8
D-STR
  6
CONTINUOUS
 62
       1
100
AcDbLine
 10
237.0
 20
8.99422338
 30
0.0
 11
237.0
 21
11.29422338
 31
0.0
  0
LINE
  5
1D2
100
AcDbEntity
  8
D-STR
  6
CONTINUOUS
 62
       1
100
AcDbLine
 10
237.0
 20
106.69422338
 30
0.0
 11
237.0
 21
108.99422338
 31
0.0
  0
ENDBLK
  5
1D3
100
AcDbEntity
  8
0
100
AcDbBlockEnd
  0
BLOCK
  5
1D4
100
AcDbEntity
  8
0
100
AcDbBlockBegin
  2
GROUP_28
 70
       0
 10
0.0
 20
0.0
 30
0.0
  3
GROUP_28
  1

  0
LINE
  5
1D5
100
AcDbEntity
  8
D-STR
  6
CONTINUOUS
 62
       1
100
AcDbLine
 10
237.0
 20
-43.30577662
 30
0.0
 11
201.6
 21
-43.30577662
 31
0.0
  0
LINE
  5
1D6
100
AcDbEntity
  8
D-STR
  6
CONTINUOUS
 62
       1
100
AcDbLine
 10
199.3
 20
-45.60577662
 30
0.0
 11
199.3
 21
-116.40577662
 31
0.0
  0
LINE
  5
1D7
100
AcDbEntity
  8
D-STR
  6
CONTINUOUS
 62
       1
100
AcDbLine
 10
201.6
 20
-118.70577662
 30
0.0
 11
237.0
 21
-118.70577662
 31
0.0
  0
ARC
  5
1D8
100
AcDbEntity
  8
D-STR
  6
CONTINUOUS
 62
       1
100
AcDbCircle
 10
201.6
 20
-116.40577662
 30
0.0
 40
2.3
100
AcDbArc
 50
180.0
 51
270.0
  0
ARC
  5
1D9
100
AcDbEntity
  8
D-STR
  6
CONTINUOUS
 62
       1
100
AcDbCircle
 10
201.6
 20
-45.60577662
 30
0.0
 40
2.3
100
AcDbArc
 50
90.0
 51
180.0
  0
LINE
  5
1DA
100
AcDbEntity
  8
D-STR
  6
CONTINUOUS
 62
       1
100
AcDbLine
 10
201.6
 20
-121.00577662
 30
0.0
 11
237.0
 21
-121.00577662
 31
0.0
  0
LINE
  5
1DB
100
AcDbEntity
  8
D-STR
  6
CONTINUOUS
 62
       1
100
AcDbLine
 10
237.0
 20
-41.00577662
 30
0.0
 11
201.6
 21
-41.00577662
 31
0.0
  0
LINE
  5
1DC
100
AcDbEntity
  8
D-STR
  6
CONTINUOUS
 62
       1
100
AcDbLine
 10
197.0
 20
-45.60577662
 30
0.0
 11
197.0
 21
-116.40577662
 31
0.0
  0
ARC
  5
1DD
100
AcDbEntity
  8
D-STR
  6
CONTINUOUS
 62
       1
100
AcDbCircle
 10
201.6
 20
-45.60577662
 30
0.0
 40
4.6
100
AcDbArc
 50
90.0
 51
180.0
  0
ARC
  5
1DE
100
AcDbEntity
  8
D-STR
  6
CONTINUOUS
 62
       1
100
AcDbCircle
 10
201.6
 20
-116.40577662
 30
0.0
 40
4.6
100
AcDbArc
 50
180.0
 51
270.0
  0
LINE
  5
1DF
100
AcDbEntity
  8
D-STR
  6
CONTINUOUS
 62
       1
100
AcDbLine
 10
237.0
 20
-121.00577662
 30
0.0
 11
237.0
 21
-118.70577662
 31
0.0
  0
LINE
  5
1E0
100
AcDbEntity
  8
D-STR
  6
CONTINUOUS
 62
       1
100
AcDbLine
 10
237.0
 20
-43.30577662
 30
0.0
 11
237.0
 21
-41.00577662
 31
0.0
  0
ENDBLK
  5
1E1
100
AcDbEntity
  8
0
100
AcDbBlockEnd
  0
BLOCK
  5
1E2
100
AcDbEntity
  8
0
100
AcDbBlockBegin
  2
GROUP_29
 70
       0
 10
0.0
 20
0.0
 30
0.0
  3
GROUP_29
  1

  0
LINE
  5
1E3
100
AcDbEntity
  8
D-STR
  6
CONTINUOUS
 62
       1
100
AcDbLine
 10
232.0
 20
-173.30577662
 30
0.0
 11
206.6
 21
-173.30577662
 31
0.0
  0
LINE
  5
1E4
100
AcDbEntity
  8
D-STR
  6
CONTINUOUS
 62
       1
100
AcDbLine
 10
204.3
 20
-175.60577662
 30
0.0
 11
204.3
 21
-226.40577662
 31
0.0
  0
LINE
  5
1E5
100
AcDbEntity
  8
D-STR
  6
CONTINUOUS
 62
       1
100
AcDbLine
 10
206.6
 20
-228.70577662
 30
0.0
 11
232.0
 21
-228.70577662
 31
0.0
  0
ARC
  5
1E6
100
AcDbEntity
  8
D-STR
  6
CONTINUOUS
 62
       1
100
AcDbCircle
 10
206.6
 20
-226.40577662
 30
0.0
 40
2.3
100
AcDbArc
 50
180.0
 51
270.0
  0
ARC
  5
1E7
100
AcDbEntity
  8
D-STR
  6
CONTINUOUS
 62
       1
100
AcDbCircle
 10
206.6
 20
-175.60577662
 30
0.0
 40
2.3
100
AcDbArc
 50
90.0
 51
180.0
  0
LINE
  5
1E8
100
AcDbEntity
  8
D-STR
  6
CONTINUOUS
 62
       1
100
AcDbLine
 10
206.6
 20
-231.00577662
 30
0.0
 11
232.0
 21
-231.00577662
 31
0.0
  0
LINE
  5
1E9
100
AcDbEntity
  8
D-STR
  6
CONTINUOUS
 62
       1
100
AcDbLine
 10
232.0
 20
-171.00577662
 30
0.0
 11
206.6
 21
-171.00577662
 31
0.0
  0
LINE
  5
1EA
100
AcDbEntity
  8
D-STR
  6
CONTINUOUS
 62
       1
100
AcDbLine
 10
202.0
 20
-175.60577662
 30
0.0
 11
202.0
 21
-226.40577662
 31
0.0
  0
ARC
  5
1EB
100
AcDbEntity
  8
D-STR
  6
CONTINUOUS
 62
       1
100
AcDbCircle
 10
206.6
 20
-175.60577662
 30
0.0
 40
4.6
100
AcDbArc
 50
90.0
 51
180.0
  0
ARC
  5
1EC
100
AcDbEntity
  8
D-STR
  6
CONTINUOUS
 62
       1
100
AcDbCircle
 10
206.6
 20
-226.40577662
 30
0.0
 40
4.6
100
AcDbArc
 50
180.0
 51
270.0
  0
LINE
  5
1ED
100
AcDbEntity
  8
D-STR
  6
CONTINUOUS
 62
       1
100
AcDbLine
 10
232.0
 20
-231.00577662
 30
0.0
 11
232.0
 21
-228.70577662
 31
0.0
  0
LINE
  5
1EE
100
AcDbEntity
  8
D-STR
  6
CONTINUOUS
 62
       1
100
AcDbLine
 10
232.0
 20
-173.30577662
 30
0.0
 11
232.0
 21
-171.00577662
 31
0.0
  0
ENDBLK
  5
1EF
100
AcDbEntity
  8
0
100
AcDbBlockEnd
  0
BLOCK
  5
1F0
100
AcDbEntity
  8
0
100
AcDbBlockBegin
  2
GROUP_30
 70
       0
 10
0.0
 20
0.0
 30
0.0
  3
GROUP_30
  1

  0
LINE
  5
1F1
100
AcDbEntity
  8
D-STR
  6
CONTINUOUS
 62
       1
100
AcDbLine
 10
382.0
 20
-172.60577662
 30
0.0
 11
355.2
 21
-172.60577662
 31
0.0
  0
LINE
  5
1F2
100
AcDbEntity
  8
D-STR
  6
CONTINUOUS
 62
       1
100
AcDbLine
 10
353.6
 20
-174.20577662
 30
0.0
 11
353.6
 21
-227.80577662
 31
0.0
  0
LINE
  5
1F3
100
AcDbEntity
  8
D-STR
  6
CONTINUOUS
 62
       1
100
AcDbLine
 10
355.2
 20
-229.40577662
 30
0.0
 11
382.0
 21
-229.40577662
 31
0.0
  0
ARC
  5
1F4
100
AcDbEntity
  8
D-STR
  6
CONTINUOUS
 62
       1
100
AcDbCircle
 10
355.2
 20
-227.80577662
 30
0.0
 40
1.6
100
AcDbArc
 50
180.0
 51
270.0
  0
ARC
  5
1F5
100
AcDbEntity
  8
D-STR
  6
CONTINUOUS
 62
       1
100
AcDbCircle
 10
355.2
 20
-174.20577662
 30
0.0
 40
1.6
100
AcDbArc
 50
90.0
 51
180.0
  0
LINE
  5
1F6
100
AcDbEntity
  8
D-STR
  6
CONTINUOUS
 62
       1
100
AcDbLine
 10
355.2
 20
-231.00577662
 30
0.0
 11
382.0
 21
-231.00577662
 31
0.0
  0
LINE
  5
1F7
100
AcDbEntity
  8
D-STR
  6
CONTINUOUS
 62
       1
100
AcDbLine
 10
382.0
 20
-171.00577662
 30
0.0
 11
355.2
 21
-171.00577662
 31
0.0
  0
LINE
  5
1F8
100
AcDbEntity
  8
D-STR
  6
CONTINUOUS
 62
       1
100
AcDbLine
 10
352.0
 20
-174.20577662
 30
0.0
 11
352.0
 21
-227.80577662
 31
0.0
  0
LINE
  5
1F9
100
AcDbEntity
  8
D-STR
  6
CONTINUOUS
 62
       1
100
AcDbLine
 10
382.0
 20
-231.00577662
 30
0.0
 11
382.0
 21
-229.40577662
 31
0.0
  0
LINE
  5
1FA
100
AcDbEntity
  8
D-STR
  6
CONTINUOUS
 62
       1
100
AcDbLine
 10
382.0
 20
-172.60577662
 30
0.0
 11
382.0
 21
-171.00577662
 31
0.0
  0
ARC
  5
1FB
100
AcDbEntity
  8
D-STR
  6
CONTINUOUS
 62
       1
100
AcDbCircle
 10
355.2
 20
-174.20577662
 30
0.0
 40
3.2
100
AcDbArc
 50
90.0
 51
180.0
  0
ARC
  5
1FC
100
AcDbEntity
  8
D-STR
  6
CONTINUOUS
 62
       1
100
AcDbCircle
 10
355.2
 20
-227.80577662
 30
0.0
 40
3.2
100
AcDbArc
 50
180.0
 51
270.0
  0
ENDBLK
  5
1FD
100
AcDbEntity
  8
0
100
AcDbBlockEnd
  0
BLOCK
  5
1FE
100
AcDbEntity
  8
0
100
AcDbBlockBegin
  2
GROUP_31
 70
       0
 10
0.0
 20
0.0
 30
0.0
  3
GROUP_31
  1

  0
LINE
  5
1FF
100
AcDbEntity
  8
D-STR
  6
CONTINUOUS
 62
       1
100
AcDbLine
 10
537.0
 20
-258.2
 30
0.0
 11
499.4
 21
-258.2
 31
0.0
  0
LINE
  5
200
100
AcDbEntity
  8
D-STR
  6
CONTINUOUS
 62
       1
100
AcDbLine
 10
498.2
 20
-259.4
 30
0.0
 11
498.2
 21
-294.6
 31
0.0
  0
LINE
  5
201
100
AcDbEntity
  8
D-STR
  6
CONTINUOUS
 62
       1
100
AcDbLine
 10
499.4
 20
-295.8
 30
0.0
 11
537.0
 21
-295.8
 31
0.0
  0
ARC
  5
202
100
AcDbEntity
  8
D-STR
  6
CONTINUOUS
 62
       1
100
AcDbCircle
 10
499.4
 20
-259.4
 30
0.0
 40
1.2
100
AcDbArc
 50
90.0
 51
180.0
  0
ARC
  5
203
100
AcDbEntity
  8
D-STR
  6
CONTINUOUS
 62
       1
100
AcDbCircle
 10
499.4
 20
-294.6
 30
0.0
 40
1.2
100
AcDbArc
 50
180.0
 51
270.0
  0
LINE
  5
204
100
AcDbEntity
  8
D-STR
  6
CONTINUOUS
 62
       1
100
AcDbLine
 10
537.0
 20
-297.0
 30
0.0
 11
499.4
 21
-297.0
 31
0.0
  0
LINE
  5
205
100
AcDbEntity
  8
D-STR
  6
CONTINUOUS
 62
       1
100
AcDbLine
 10
499.4
 20
-257.0
 30
0.0
 11
537.0
 21
-257.0
 31
0.0
  0
LINE
  5
206
100
AcDbEntity
  8
D-STR
  6
CONTINUOUS
 62
       1
100
AcDbLine
 10
497.0
 20
-294.6
 30
0.0
 11
497.0
 21
-259.4
 31
0.0
  0
LINE
  5
207
100
AcDbEntity
  8
D-STR
  6
CONTINUOUS
 62
       1
100
AcDbLine
 10
537.0
 20
-297.0
 30
0.0
 11
537.0
 21
-295.8
 31
0.0
  0
LINE
  5
208
100
AcDbEntity
  8
D-STR
  6
CONTINUOUS
 62
       1
100
AcDbLine
 10
537.0
 20
-258.2
 30
0.0
 11
537.0
 21
-257.0
 31
0.0
  0
ARC
  5
209
100
AcDbEntity
  8
D-STR
  6
CONTINUOUS
 62
       1
100
AcDbCircle
 10
499.4
 20
-294.6
 30
0.0
 40
2.4
100
AcDbArc
 50
180.0
 51
270.0
  0
ARC
  5
20A
100
AcDbEntity
  8
D-STR
  6
CONTINUOUS
 62
       1
100
AcDbCircle
 10
499.4
 20
-259.4
 30
0.0
 40
2.4
100
AcDbArc
 50
90.0
 51
180.0
  0
ENDBLK
  5
20B
100
AcDbEntity
  8
0
100
AcDbBlockEnd
  0
ENDSEC
  0
SECTION
  2
ENTITIES
  0
TEXT
  5
20C
100
AcDbEntity
  8
D-STR-TXT
 62
       7
100
AcDbText
 10
-425.5
 20
3628.99422338
 30
0.0
 40
10.0
  1
1618(450x75x75x6)
 72
       5
 11
-340.5
 21
3628.99422338
 31
0.0
100
AcDbText
  0
TEXT
  5
20D
100
AcDbEntity
  8
D-STR-TXT
 62
       7
100
AcDbText
 10
-280.5
 20
3628.99422338
 30
0.0
 40
10.0
  1
1617(450x75x75x4.5)
 72
       5
 11
-185.5
 21
3628.99422338
 31
0.0
100
AcDbText
  0
TEXT
  5
20E
100
AcDbEntity
  8
D-STR-TXT
 62
       7
100
AcDbText
 10
-425.5
 20
3128.99422338
 30
0.0
 40
10.0
  1
1578(400x75x75x6)
 72
       5
 11
-340.5
 21
3128.99422338
 31
0.0
100
AcDbText
  0
TEXT
  5
20F
100
AcDbEntity
  8
D-STR-TXT
 62
       7
100
AcDbText
 10
-280.5
 20
3128.99422338
 30
0.0
 40
10.0
  1
1577(400x75x75x4.5)
 72
       5
 11
-185.5
 21
3128.99422338
 31
0.0
100
AcDbText
  0
TEXT
  5
210
100
AcDbEntity
  8
D-STR-TXT
 62
       7
100
AcDbText
 10
-280.5
 20
2678.99422338
 30
0.0
 40
10.0
  1
1537(350x50x50x4.5)
 72
       5
 11
-185.5
 21
2678.99422338
 31
0.0
100
AcDbText
  0
TEXT
  5
211
100
AcDbEntity
  8
D-STR-TXT
 62
       7
100
AcDbText
 10
-125.5
 20
2678.99422338
 30
0.0
 40
10.0
  1
1536(350x50x50x4)
 72
       5
 11
-40.5
 21
2678.99422338
 31
0.0
100
AcDbText
  0
TEXT
  5
212
100
AcDbEntity
  8
D-STR-TXT
 62
       7
100
AcDbText
 10
-280.5
 20
2278.99422338
 30
0.0
 40
10.0
  1
1497(300x50x50x4.5)
 72
       5
 11
-185.5
 21
2278.99422338
 31
0.0
100
AcDbText
  0
TEXT
  5
213
100
AcDbEntity
  8
D-STR-TXT
 62
       7
100
AcDbText
 10
-125.5
 20
2278.99422338
 30
0.0
 40
10.0
  1
1496(300x50x50x4)
 72
       5
 11
-40.5
 21
2278.99422338
 31
0.0
100
AcDbText
  0
TEXT
  5
214
100
AcDbEntity
  8
D-STR-TXT
 62
       7
100
AcDbText
 10
-425.5
 20
1928.99422338
 30
0.0
 40
10.0
  1
1458(250x75x75x6)
 72
       5
 11
-340.5
 21
1928.99422338
 31
0.0
100
AcDbText
  0
TEXT
  5
215
100
AcDbEntity
  8
D-STR-TXT
 62
       7
100
AcDbText
 10
-280.5
 20
1628.99422338
 30
0.0
 40
10.0
  1
1427(250x50x50x4.5)
 72
       5
 11
-185.5
 21
1628.99422338
 31
0.0
100
AcDbText
  0
TEXT
  5
216
100
AcDbEntity
  8
D-STR-TXT
 62
       7
100
AcDbText
 10
-125.5
 20
1628.99422338
 30
0.0
 40
10.0
  1
1426(250x50x50x4)
 72
       5
 11
-40.5
 21
1628.99422338
 31
0.0
100
AcDbText
  0
TEXT
  5
217
100
AcDbEntity
  8
D-STR-TXT
 62
       7
100
AcDbText
 10
-425.5
 20
1328.99422338
 30
0.0
 40
10.0
  1
1388(200x75x75x6)
 72
       5
 11
-340.5
 21
1328.99422338
 31
0.0
100
AcDbText
  0
TEXT
  5
218
100
AcDbEntity
  8
D-STR-TXT
 62
       7
100
AcDbText
 10
-280.5
 20
1328.99422338
 30
0.0
 40
10.0
  1
1387(200x75x75x4.5)
 72
       5
 11
-185.5
 21
1328.99422338
 31
0.0
100
AcDbText
  0
TEXT
  5
219
100
AcDbEntity
  8
D-STR-TXT
 62
       7
100
AcDbText
 10
-280.5
 20
1078.99422338
 30
0.0
 40
10.0
  1
1357(200x50x50x4.5)
 72
       5
 11
-185.5
 21
1078.99422338
 31
0.0
100
AcDbText
  0
TEXT
  5
21A
100
AcDbEntity
  8
D-STR-TXT
 62
       7
100
AcDbText
 10
-125.5
 20
1078.99422338
 30
0.0
 40
10.0
  1
1356(200x50x50x4)
 72
       5
 11
-40.5
 21
1078.99422338
 31
0.0
100
AcDbText
  0
TEXT
  5
21B
100
AcDbEntity
  8
D-STR-TXT
 62
       7
100
AcDbText
 10
19.5
 20
1078.99422338
 30
0.0
 40
10.0
  1
1355(200x50x50x3.2)
 72
       5
 11
114.5
 21
1078.99422338
 31
0.0
100
AcDbText
  0
TEXT
  5
21C
100
AcDbEntity
  8
D-STR-TXT
 62
       7
100
AcDbText
 10
-425.5
 20
828.99422338
 30
0.0
 40
10.0
  1
1318(150x75x75x6)
 72
       5
 11
-340.5
 21
828.99422338
 31
0.0
100
AcDbText
  0
TEXT
  5
21D
100
AcDbEntity
  8
D-STR-TXT
 62
       7
100
AcDbText
 10
-280.5
 20
828.99422338
 30
0.0
 40
10.0
  1
1317(150x75x75x4.5)
 72
       5
 11
-185.5
 21
828.99422338
 31
0.0
100
AcDbText
  0
TEXT
  5
21E
100
AcDbEntity
  8
D-STR-TXT
 62
       7
100
AcDbText
 10
-125.5
 20
828.99422338
 30
0.0
 40
10.0
  1
1316(150x75x75x4)
 72
       5
 11
-40.5
 21
828.99422338
 31
0.0
100
AcDbText
  0
TEXT
  5
21F
100
AcDbEntity
  8
D-STR-TXT
 62
       7
100
AcDbText
 10
19.5
 20
828.99422338
 30
0.0
 40
10.0
  1
1315(150x75x75x3.2)
 72
       5
 11
114.5
 21
828.99422338
 31
0.0
100
AcDbText
  0
TEXT
  5
220
100
AcDbEntity
  8
D-STR-TXT
 62
       7
100
AcDbText
 10
-280.5
 20
628.99422338
 30
0.0
 40
10.0
  1
1287(150x50x50x4.5)
 72
       5
 11
-185.5
 21
628.99422338
 31
0.0
100
AcDbText
  0
TEXT
  5
221
100
AcDbEntity
  8
D-STR-TXT
 62
       7
100
AcDbText
 10
19.5
 20
628.99422338
 30
0.0
 40
10.0
  1
1285(150x50x50x3.2)
 72
       5
 11
114.5
 21
628.99422338
 31
0.0
100
AcDbText
  0
TEXT
  5
222
100
AcDbEntity
  8
D-STR-TXT
 62
       7
100
AcDbText
 10
169.5
 20
628.99422338
 30
0.0
 40
10.0
  1
1283(150x50x50x2.3)
 72
       5
 11
264.5
 21
628.99422338
 31
0.0
100
AcDbText
  0
TEXT
  5
223
100
AcDbEntity
  8
D-STR-TXT
 62
       7
100
AcDbText
 10
19.5
 20
428.99422338
 30
0.0
 40
10.0
  1
1245(120x40x40x3.2)
 72
       5
 11
114.5
 21
428.99422338
 31
0.0
100
AcDbText
  0
TEXT
  5
224
100
AcDbEntity
  8
D-STR-TXT
 62
       7
100
AcDbText
 10
19.5
 20
258.99422338
 30
0.0
 40
10.0
  1
1205(100x50x50x3.2)
 72
       5
 11
114.5
 21
258.99422338
 31
0.0
100
AcDbText
  0
TEXT
  5
225
100
AcDbEntity
  8
D-STR-TXT
 62
       7
100
AcDbText
 10
169.5
 20
258.99422338
 30
0.0
 40
10.0
  1
1203(100x50x50x2.3)
 72
       5
 11
264.5
 21
258.99422338
 31
0.0
100
AcDbText
  0
TEXT
  5
226
100
AcDbEntity
  8
D-STR-TXT
 62
       7
100
AcDbText
 10
169.5
 20
108.99422338
 30
0.0
 40
10.0
  1
1173(100x40x40x2.3)
 72
       5
 11
264.5
 21
108.99422338
 31
0.0
100
AcDbText
  0
TEXT
  5
227
100
AcDbEntity
  8
D-STR-TXT
 62
       7
100
AcDbText
 10
172.0
 20
-41.00577662
 30
0.0
 40
10.0
  1
1133(80x40x40x2.3)
 72
       5
 11
262.0
 21
-41.00577662
 31
0.0
100
AcDbText
  0
TEXT
  5
228
100
AcDbEntity
  8
D-STR-TXT
 62
       7
100
AcDbText
 10
172.0
 20
-171.00577662
 30
0.0
 40
10.0
  1
1093(60x30x30x2.3)
 72
       5
 11
262.0
 21
-171.00577662
 31
0.0
100
AcDbText
  0
TEXT
  5
229
100
AcDbEntity
  8
D-STR-TXT
 62
       7
100
AcDbText
 10
322.0
 20
-171.00577662
 30
0.0
 40
10.0
  1
1091(60x30x30x1.6)
 72
       5
 11
412.0
 21
-171.00577662
 31
0.0
100
AcDbText
  0
TEXT
  5
22A
100
AcDbEntity
  8
D-STR-TXT
 62
       7
100
AcDbText
 10
472.0
 20
-257.0
 30
0.0
 40
10.0
  1
1055(40x40x40x1.2)
 72
       5
 11
562.0
 21
-257.0
 31
0.0
100
AcDbText
  0
INSERT
  5
22B
100
AcDbEntity
  8
0
  6
CONTINUOUS
100
AcDbBlockReference
  2
GROUP_1
 10
0.0
 20
0.0
 30
0.0
  0
INSERT
  5
22C
100
AcDbEntity
  8
0
  6
CONTINUOUS
100
AcDbBlockReference
  2
GROUP_2
 10
0.0
 20
0.0
 30
0.0
  0
INSERT
  5
22D
100
AcDbEntity
  8
0
  6
CONTINUOUS
100
AcDbBlockReference
  2
GROUP_3
 10
0.0
 20
0.0
 30
0.0
  0
INSERT
  5
22E
100
AcDbEntity
  8
0
  6
CONTINUOUS
100
AcDbBlockReference
  2
GROUP_4
 10
0.0
 20
0.0
 30
0.0
  0
INSERT
  5
22F
100
AcDbEntity
  8
0
  6
CONTINUOUS
100
AcDbBlockReference
  2
GROUP_5
 10
0.0
 20
0.0
 30
0.0
  0
INSERT
  5
230
100
AcDbEntity
  8
0
  6
CONTINUOUS
100
AcDbBlockReference
  2
GROUP_6
 10
0.0
 20
0.0
 30
0.0
  0
INSERT
  5
231
100
AcDbEntity
  8
0
  6
CONTINUOUS
100
AcDbBlockReference
  2
GROUP_7
 10
0.0
 20
0.0
 30
0.0
  0
INSERT
  5
232
100
AcDbEntity
  8
0
  6
CONTINUOUS
100
AcDbBlockReference
  2
GROUP_8
 10
0.0
 20
0.0
 30
0.0
  0
INSERT
  5
233
100
AcDbEntity
  8
0
  6
CONTINUOUS
100
AcDbBlockReference
  2
GROUP_9
 10
0.0
 20
0.0
 30
0.0
  0
INSERT
  5
234
100
AcDbEntity
  8
0
  6
CONTINUOUS
100
AcDbBlockReference
  2
GROUP_10
 10
0.0
 20
0.0
 30
0.0
  0
INSERT
  5
235
100
AcDbEntity
  8
0
  6
CONTINUOUS
100
AcDbBlockReference
  2
GROUP_11
 10
0.0
 20
0.0
 30
0.0
  0
INSERT
  5
236
100
AcDbEntity
  8
0
  6
CONTINUOUS
100
AcDbBlockReference
  2
GROUP_12
 10
0.0
 20
0.0
 30
0.0
  0
INSERT
  5
237
100
AcDbEntity
  8
0
  6
CONTINUOUS
100
AcDbBlockReference
  2
GROUP_13
 10
0.0
 20
0.0
 30
0.0
  0
INSERT
  5
238
100
AcDbEntity
  8
0
  6
CONTINUOUS
100
AcDbBlockReference
  2
GROUP_14
 10
0.0
 20
0.0
 30
0.0
  0
INSERT
  5
239
100
AcDbEntity
  8
0
  6
CONTINUOUS
100
AcDbBlockReference
  2
GROUP_15
 10
0.0
 20
0.0
 30
0.0
  0
INSERT
  5
23A
100
AcDbEntity
  8
0
  6
CONTINUOUS
100
AcDbBlockReference
  2
GROUP_16
 10
0.0
 20
0.0
 30
0.0
  0
INSERT
  5
23B
100
AcDbEntity
  8
0
  6
CONTINUOUS
100
AcDbBlockReference
  2
GROUP_17
 10
0.0
 20
0.0
 30
0.0
  0
INSERT
  5
23C
100
AcDbEntity
  8
0
  6
CONTINUOUS
100
AcDbBlockReference
  2
GROUP_18
 10
0.0
 20
0.0
 30
0.0
  0
INSERT
  5
23D
100
AcDbEntity
  8
0
  6
CONTINUOUS
100
AcDbBlockReference
  2
GROUP_19
 10
0.0
 20
0.0
 30
0.0
  0
INSERT
  5
23E
100
AcDbEntity
  8
0
  6
CONTINUOUS
100
AcDbBlockReference
  2
GROUP_20
 10
0.0
 20
0.0
 30
0.0
  0
INSERT
  5
23F
100
AcDbEntity
  8
0
  6
CONTINUOUS
100
AcDbBlockReference
  2
GROUP_21
 10
0.0
 20
0.0
 30
0.0
  0
INSERT
  5
240
100
AcDbEntity
  8
0
  6
CONTINUOUS
100
AcDbBlockReference
  2
GROUP_22
 10
0.0
 20
0.0
 30
0.0
  0
INSERT
  5
241
100
AcDbEntity
  8
0
  6
CONTINUOUS
100
AcDbBlockReference
  2
GROUP_23
 10
0.0
 20
0.0
 30
0.0
  0
INSERT
  5
242
100
AcDbEntity
  8
0
  6
CONTINUOUS
100
AcDbBlockReference
  2
GROUP_24
 10
0.0
 20
0.0
 30
0.0
  0
INSERT
  5
243
100
AcDbEntity
  8
0
  6
CONTINUOUS
100
AcDbBlockReference
  2
GROUP_25
 10
0.0
 20
0.0
 30
0.0
  0
INSERT
  5
244
100
AcDbEntity
  8
0
  6
CONTINUOUS
100
AcDbBlockReference
  2
GROUP_26
 10
0.0
 20
0.0
 30
0.0
  0
INSERT
  5
245
100
AcDbEntity
  8
0
  6
CONTINUOUS
100
AcDbBlockReference
  2
GROUP_27
 10
0.0
 20
0.0
 30
0.0
  0
INSERT
  5
246
100
AcDbEntity
  8
0
  6
CONTINUOUS
100
AcDbBlockReference
  2
GROUP_28
 10
0.0
 20
0.0
 30
0.0
  0
INSERT
  5
247
100
AcDbEntity
  8
0
  6
CONTINUOUS
100
AcDbBlockReference
  2
GROUP_29
 10
0.0
 20
0.0
 30
0.0
  0
INSERT
  5
248
100
AcDbEntity
  8
0
  6
CONTINUOUS
100
AcDbBlockReference
  2
GROUP_30
 10
0.0
 20
0.0
 30
0.0
  0
INSERT
  5
249
100
AcDbEntity
  8
0
  6
CONTINUOUS
100
AcDbBlockReference
  2
GROUP_31
 10
0.0
 20
0.0
 30
0.0
  0
ENDSEC
  0
SECTION
  2
OBJECTS
  0
DICTIONARY
  5
19
100
AcDbDictionary
  3
ACAD_GROUP
350
1A
  3
ACAD_MLINESTYLE
350
1B
  0
DICTIONARY
  5
1A
102
{ACAD_REACTORS
330
19
102
}
100
AcDbDictionary
  0
DICTIONARY
  5
1B
102
{ACAD_REACTORS
330
19
102
}
100
AcDbDictionary
  3
STANDARD
350
1C
  0
MLINESTYLE
  5
1C
102
{ACAD_REACTORS
330
1B
102
}
100
AcDbMlineStyle
  2
STANDARD
 70
       0
  3

 62
       0
 51
90.0
 52
90.0
 71
       2
 49
0.5
 62
     256
  6
BYLAYER
 49
-0.5
 62
     256
  6
BYLAYER
  0
ENDSEC
  0
EOF
