  0
SECTION
  2
HEADER
  9
$ACADVER
  1
AC1014
  9
$ACADMAINTVER
 70
       0
  9
$DWGCODEPAGE
  3
ANSI_932
  9
$INSBASE
 10
0.0
 20
0.0
 30
0.0
  9
$EXTMIN
 10
-440.2
 20
-1690.72
 30
0.0
  9
$EXTMAX
 10
64.2
 20
1700.72
 30
0.0
  9
$LIMMIN
 10
-455.9625
 20
-1796.7025
  9
$LIMMAX
 10
79.9625
 20
1806.7025
  9
$ORTHOMODE
 70
       0
  9
$REGENMODE
 70
       1
  9
$FILLMODE
 70
       1
  9
$QTEXTMODE
 70
       0
  9
$MIRRTEXT
 70
       1
  9
$DRAGMODE
 70
       2
  9
$LTSCALE
 40
1.0
  9
$OSMODE
 70
       0
  9
$ATTMODE
 70
       1
  9
$TEXTSIZE
 40
0.2
  9
$TRACEWID
 40
0.05
  9
$TEXTSTYLE
  7
STANDARD
  9
$CLAYER
  8
0
  9
$CELTYPE
  6
CONTINUOUS
  9
$CECOLOR
 62
     256
  9
$CELTSCALE
 40
1.0
  9
$DELOBJ
 70
       1
  9
$DISPSILH
 70
       0
  9
$DIMSCALE
 40
1.0
  9
$DIMASZ
 40
0.18
  9
$DIMEXO
 40
0.0625
  9
$DIMDLI
 40
0.38
  9
$DIMRND
 40
0.0
  9
$DIMDLE
 40
0.0
  9
$DIMEXE
 40
0.18
  9
$DIMTP
 40
0.0
  9
$DIMTM
 40
0.0
  9
$DIMTXT
 40
0.18
  9
$DIMCEN
 40
0.09
  9
$DIMTSZ
 40
0.0
  9
$DIMTOL
 70
       0
  9
$DIMLIM
 70
       0
  9
$DIMTIH
 70
       1
  9
$DIMTOH
 70
       1
  9
$DIMSE1
 70
       0
  9
$DIMSE2
 70
       0
  9
$DIMTAD
 70
       0
  9
$DIMZIN
 70
       0
  9
$DIMBLK
  1

  9
$DIMASO
 70
       1
  9
$DIMSHO
 70
       1
  9
$DIMPOST
  1

  9
$DIMAPOST
  1

  9
$DIMALT
 70
       0
  9
$DIMALTD
 70
       2
  9
$DIMALTF
 40
25.4
  9
$DIMLFAC
 40
1.0
  9
$DIMTOFL
 70
       0
  9
$DIMTVP
 40
0.0
  9
$DIMTIX
 70
       0
  9
$DIMSOXD
 70
       0
  9
$DIMSAH
 70
       0
  9
$DIMBLK1
  1

  9
$DIMBLK2
  1

  9
$DIMSTYLE
  2
STANDARD
  9
$DIMCLRD
 70
       0
  9
$DIMCLRE
 70
       0
  9
$DIMCLRT
 70
       0
  9
$DIMTFAC
 40
1.0
  9
$DIMGAP
 40
0.09
  9
$DIMJUST
 70
       0
  9
$DIMSD1
 70
       0
  9
$DIMSD2
 70
       0
  9
$DIMTOLJ
 70
       1
  9
$DIMTZIN
 70
       0
  9
$DIMALTZ
 70
       0
  9
$DIMALTTZ
 70
       0
  9
$DIMFIT
 70
       3
  9
$DIMUPT
 70
       0
  9
$DIMUNIT
 70
       2
  9
$DIMDEC
 70
       4
  9
$DIMTDEC
 70
       4
  9
$DIMALTU
 70
       2
  9
$DIMALTTD
 70
       2
  9
$DIMTXSTY
  7
STANDARD
  9
$DIMAUNIT
 70
       0
  9
$LUNITS
 70
       2
  9
$LUPREC
 70
       4
  9
$SKETCHINC
 40
0.1
  9
$FILLETRAD
 40
0.0
  9
$AUNITS
 70
       0
  9
$AUPREC
 70
       0
  9
$MENU
  1
acad
  9
$ELEVATION
 40
0.0
  9
$PELEVATION
 40
0.0
  9
$THICKNESS
 40
0.0
  9
$LIMCHECK
 70
       0
  9
$BLIPMODE
 70
       1
  9
$CHAMFERA
 40
0.0
  9
$CHAMFERB
 40
0.0
  9
$CHAMFERC
 40
0.0
  9
$CHAMFERD
 40
0.0
  9
$SKPOLY
 70
       0
  9
$TDCREATE
 40
0.000000000
  9
$TDUPDATE
 40
0.000000000
  9
$TDINDWG
 40
0.0000000000
  9
$TDUSRTIMER
 40
0.0000000000
  9
$USRTIMER
 70
       1
  9
$ANGBASE
 50
0.0
  9
$ANGDIR
 70
       0
  9
$PDMODE
 70
       0
  9
$PDSIZE
 40
1.0
  9
$PLINEWID
 40
0.0
  9
$COORDS
 70
       1
  9
$SPLFRAME
 70
       0
  9
$SPLINETYPE
 70
       6
  9
$SPLINESEGS
 70
       8
  9
$ATTDIA
 70
       0
  9
$ATTREQ
 70
       1
  9
$HANDLING
 70
       1
  9
$HANDSEED
  5
2D2
  9
$SURFTAB1
 70
       6
  9
$SURFTAB2
 70
       6
  9
$SURFTYPE
 70
       6
  9
$SURFU
 70
       6
  9
$SURFV
 70
       6
  9
$UCSNAME
  2

  9
$UCSORG
 10
0.0
 20
0.0
 30
0.0
  9
$UCSXDIR
 10
1.0
 20
0.0
 30
0.0
  9
$UCSYDIR
 10
0.0
 20
1.0
 30
0.0
  9
$PUCSNAME
  2

  9
$PUCSORG
 10
0.0
 20
0.0
 30
0.0
  9
$PUCSXDIR
 10
1.0
 20
0.0
 30
0.0
  9
$PUCSYDIR
 10
0.0
 20
1.0
 30
0.0
  9
$USERI1
 70
       0
  9
$USERI2
 70
       0
  9
$USERI3
 70
       0
  9
$USERI4
 70
       0
  9
$USERI5
 70
       0
  9
$USERR1
 40
0.0
  9
$USERR2
 40
0.0
  9
$USERR3
 40
0.0
  9
$USERR4
 40
0.0
  9
$USERR5
 40
0.0
  9
$WORLDVIEW
 70
       1
  9
$SHADEDGE
 70
       3
  9
$SHADEDIF
 70
      70
  9
$TILEMODE
 70
       1
  9
$MAXACTVP
 70
      16
  9
$PINSBASE
 10
0.0
 20
0.0
 30
0.0
  9
$PLIMCHECK
 70
       0
  9
$PEXTMIN
 10
1.00000000E+20
 20
1.00000000E+20
 30
1.00000000E+20
  9
$PEXTMAX
 10
-1.00000000E+20
 20
-1.00000000E+20
 30
-1.00000000E+20
  9
$PLIMMIN
 10
0.0
 20
0.0
  9
$PLIMMAX
 10
12.0
 20
9.0
  9
$UNITMODE
 70
       0
  9
$VISRETAIN
 70
       0
  9
$PLINEGEN
 70
       1
  9
$PSLTSCALE
 70
       0
  9
$TREEDEPTH
 70
    3020
  9
$PICKSTYLE
 70
       1
  9
$CMLSTYLE
  2
STANDARD
  9
$CMLJUST
 70
       0
  9
$CMLSCALE
 40
1.0
  9
$PROXYGRAPHICS
 70
       0
  9
$MEASUREMENT
 70
       0
  0
ENDSEC
  0
SECTION
  2
CLASSES
  0
CLASS
  1
LWPOLYLINE
  2
AcDbPolyline
  3
"AutoCAD"
 90
        0
280
       0
281
       1
  0
CLASS
  1
IMAGE
  2
AcDbRasterImage
  3
ISM
 90
      127
280
       0
281
       1
  0
CLASS
  1
OLE2FRAME
  2
AcDbOle2Frame
  3
""
 90
        0
280
       0
281
       1
  0
CLASS
  1
HATCH
  2
AcDbHatch
  3
"ACAD_SEDONA"
 90
        0
280
       0
281
       1
  0
CLASS
  1
DICTIONARYVAR
  2
AcDbDictionaryVar
  3
"AutoCAD"
 90
        0
280
       0
281
       0
  0
CLASS
  1
RASTERVARIABLES
  2
AcDbRasterVariables
  3
ISM
 90
        0
280
       0
281
       0
  0
CLASS
  1
IMAGEDEF
  2
AcDbRasterImageDef
  3
ISM
 90
        0
280
       0
281
       0
  0
CLASS
  1
IMAGEDEF_REACTOR
  2
AcDbRasterImageDefReactor
  3
ISM
 90
        1
280
       0
281
       0
  0
CLASS
  1
IDBUFFER
  2
AcDbIdBuffer
  3
"Acad"
 90
        0
280
       0
281
       0
  0
CLASS
  1
SPATIAL_FILTER
  2
AcDbSpatialFilter
  3
"Acad"
 90
        0
280
       0
281
       0
  0
CLASS
  1
XRECORD
  2
AcDbXrecord
  3
"<Built In>"
 90
        0
280
       0
281
       0
  0
CLASS
  1
SORTENTSTABLE
  2
AcDbSortentsTable
  3
"AutoCAD"
 90
        0
280
       0
281
       0
  0
CLASS
  1
LAYER_INDEX
  2
AcDbLayerIndex
  3
"Acad"
 90
        0
280
       0
281
       0
  0
CLASS
  1
SPATIAL_INDEX
  2
AcDbSpatialIndex
  3
"Acad"
 90
        0
280
       0
281
       0
  0
CLASS
  1
OBJECT_PTR
  2
CAseDLPNTableRecord
  3
"ASE-LPNTableRecord"
 90
        1
280
       0
281
       0
  0
CLASS
  1
LAYOUT
  2
AcDbLayout
  3
"AutoCAD 2000"
 90
        1
280
       0
281
       0
  0
CLASS
  1
PLOTSETTINGS
  2
AcDbPlotSettings
  3
"AutoCAD 2000"
 90
        1
280
       0
281
       0
  0
CLASS
  1
ACDBDICTIONARYWDFLT
  2
AcDbDictionaryWithDefault
  3
"AutoCAD 2000"
 90
        1
280
       0
281
       0
  0
CLASS
  1
ACDBPLACEHOLDER
  2
AcDbPlaceHolder
  3
"AutoCAD 2000"
 90
        1
280
       0
281
       0
  0
CLASS
  1
VBA_PROJECT
  2
AcDbVbaProject
  3
"acadvba"
 90
        1
280
       0
281
       0
  0
CLASS
  1
WIPEOUT
  2
AcDbWipeout
  3
WipeOut|AutoCAD Express Tool|expresstools@autodesk.com
 90
      127
280
       0
281
       1
  0
CLASS
  1
WIPEOUTVARIABLES
  2
AcDbWipeoutVariables
  3
WipeOut|AutoCAD Express Tool|expresstools@autodesk.com
 90
        0
280
       0
281
       0
  0
CLASS
  1
RTEXT
  2
RText
  3
RText|AutoCAD Express Tool|expresstools@autodesk.com
 90
        0
280
       0
281
       1
  0
CLASS
  1
ARCALIGNEDTEXT
  2
AcDbArcAlignedText
  3
ATEXT|AutoCAD Express Tool|expresstools@autodesk.com
 90
        0
280
       0
281
       1
  0
ENDSEC
  0
SECTION
  2
TABLES
  0
TABLE
  2
VPORT
  5
7
100
AcDbSymbolTable
 70
       1
  0
VPORT
  5
15
100
AcDbSymbolTableRecord
100
AcDbViewportTableRecord
  2
*ACTIVE
 70
       0
 10
0.0
 20
0.0
 11
1.0
 21
1.0
 12
-188.0
 22
5.0
 13
0.0
 23
0.0
 14
1.0
 24
1.0
 15
0.0
 25
0.0
 16
0.0
 26
0.0
 36
1.0
 17
0.0
 27
0.0
 37
0.0
 40
3603.405
 41
0.14872738
 42
50.0
 43
0.0
 44
0.0
 50
0.0
 51
0.0
 71
       0
 72
     100
 73
       1
 74
       1
 75
       0
 76
       0
 77
       0
 78
       0
  0
ENDTAB
  0
TABLE
  2
LTYPE
  5
4
100
AcDbSymbolTable
 70
      30
  0
LTYPE
  5
11
100
AcDbSymbolTableRecord
100
AcDbLinetypeTableRecord
  2
BYBLOCK
 70
      64
  3

 72
      65
 73
       0
 40
0.0
  0
LTYPE
  5
12
100
AcDbSymbolTableRecord
100
AcDbLinetypeTableRecord
  2
BYLAYER
 70
      64
  3

 72
      65
 73
       0
 40
0.0
  0
LTYPE
  5
13
100
AcDbSymbolTableRecord
100
AcDbLinetypeTableRecord
  2
CONTINUOUS
 70
      64
  3
Solid line
 72
      65
 73
       0
 40
0.0
  0
LTYPE
  5
1D
100
AcDbSymbolTableRecord
100
AcDbLinetypeTableRecord
  2
HIDDENX2
 70
      64
  3
CADPAC LINETYPE
 72
      65
 73
       2
 40
33.64
 49
25.23
 74
       0
 49
-8.41
 74
       0
  0
LTYPE
  5
1E
100
AcDbSymbolTableRecord
100
AcDbLinetypeTableRecord
  2
HIDDEN
 70
      64
  3
CADPAC LINETYPE
 72
      65
 73
       2
 40
25.23
 49
16.82
 74
       0
 49
-8.41
 74
       0
  0
LTYPE
  5
1F
100
AcDbSymbolTableRecord
100
AcDbLinetypeTableRecord
  2
HIDDEN2
 70
      64
  3
CADPAC LINETYPE
 72
      65
 73
       2
 40
21.025
 49
12.615
 74
       0
 49
-8.41
 74
       0
  0
LTYPE
  5
20
100
AcDbSymbolTableRecord
100
AcDbLinetypeTableRecord
  2
DASHED
 70
      64
  3
CADPAC LINETYPE
 72
      65
 73
       2
 40
25.23
 49
16.82
 74
       0
 49
-8.41
 74
       0
  0
LTYPE
  5
21
100
AcDbSymbolTableRecord
100
AcDbLinetypeTableRecord
  2
DASHED2
 70
      64
  3
CADPAC LINETYPE
 72
      65
 73
       2
 40
18.9225
 49
12.615
 74
       0
 49
-6.3075
 74
       0
  0
LTYPE
  5
22
100
AcDbSymbolTableRecord
100
AcDbLinetypeTableRecord
  2
DASHEDX2
 70
      64
  3
CADPAC LINETYPE
 72
      65
 73
       2
 40
37.845
 49
25.23
 74
       0
 49
-12.615
 74
       0
  0
LTYPE
  5
23
100
AcDbSymbolTableRecord
100
AcDbLinetypeTableRecord
  2
DOTX2
 70
      64
  3
CADPAC LINETYPE
 72
      65
 73
       2
 40
10.5125
 49
0.0
 74
       0
 49
-10.5125
 74
       0
  0
LTYPE
  5
24
100
AcDbSymbolTableRecord
100
AcDbLinetypeTableRecord
  2
DOT
 70
      64
  3
CADPAC LINETYPE
 72
      65
 73
       2
 40
8.41
 49
0.0
 74
       0
 49
-8.41
 74
       0
  0
LTYPE
  5
25
100
AcDbSymbolTableRecord
100
AcDbLinetypeTableRecord
  2
DOT2
 70
      64
  3
CADPAC LINETYPE
 72
      65
 73
       2
 40
6.3075
 49
0.0
 74
       0
 49
-6.3075
 74
       0
  0
LTYPE
  5
26
100
AcDbSymbolTableRecord
100
AcDbLinetypeTableRecord
  2
CENTERX2
 70
      64
  3
CADPAC LINETYPE
 72
      65
 73
       4
 40
50.46
 49
21.025
 74
       0
 49
-10.5125
 74
       0
 49
8.41
 74
       0
 49
-10.5125
 74
       0
  0
LTYPE
  5
27
100
AcDbSymbolTableRecord
100
AcDbLinetypeTableRecord
  2
CENTER
 70
      64
  3
CADPAC LINETYPE
 72
      65
 73
       4
 40
38.686
 49
16.82
 74
       0
 49
-8.41
 74
       0
 49
5.046
 74
       0
 49
-8.41
 74
       0
  0
LTYPE
  5
28
100
AcDbSymbolTableRecord
100
AcDbLinetypeTableRecord
  2
CENTER2
 70
      64
  3
CADPAC LINETYPE
 72
      65
 73
       4
 40
26.912
 49
12.615
 74
       0
 49
-6.3075
 74
       0
 49
1.682
 74
       0
 49
-6.3075
 74
       0
  0
LTYPE
  5
29
100
AcDbSymbolTableRecord
100
AcDbLinetypeTableRecord
  2
DASHDOTX2
 70
      64
  3
CADPAC LINETYPE
 72
      65
 73
       4
 40
42.05
 49
21.025
 74
       0
 49
-10.5125
 74
       0
 49
0.0
 74
       0
 49
-10.5125
 74
       0
  0
LTYPE
  5
2A
100
AcDbSymbolTableRecord
100
AcDbLinetypeTableRecord
  2
DASHDOT
 70
      64
  3
CADPAC LINETYPE
 72
      65
 73
       4
 40
33.64
 49
16.82
 74
       0
 49
-8.41
 74
       0
 49
0.0
 74
       0
 49
-8.41
 74
       0
  0
LTYPE
  5
2B
100
AcDbSymbolTableRecord
100
AcDbLinetypeTableRecord
  2
DASHDOT2
 70
      64
  3
CADPAC LINETYPE
 72
      65
 73
       4
 40
25.23
 49
12.615
 74
       0
 49
-6.3075
 74
       0
 49
0.0
 74
       0
 49
-6.3075
 74
       0
  0
LTYPE
  5
2C
100
AcDbSymbolTableRecord
100
AcDbLinetypeTableRecord
  2
DIVIDEX2
 70
      64
  3
CADPAC LINETYPE
 72
      65
 73
       6
 40
52.5625
 49
21.025
 74
       0
 49
-10.5125
 74
       0
 49
0.0
 74
       0
 49
-10.5125
 74
       0
 49
0.0
 74
       0
 49
-10.5125
 74
       0
  0
LTYPE
  5
2D
100
AcDbSymbolTableRecord
100
AcDbLinetypeTableRecord
  2
DIVIDE
 70
      64
  3
CADPAC LINETYPE
 72
      65
 73
       6
 40
42.05
 49
16.82
 74
       0
 49
-8.41
 74
       0
 49
0.0
 74
       0
 49
-8.41
 74
       0
 49
0.0
 74
       0
 49
-8.41
 74
       0
  0
LTYPE
  5
2E
100
AcDbSymbolTableRecord
100
AcDbLinetypeTableRecord
  2
DIVIDE2
 70
      64
  3
CADPAC LINETYPE
 72
      65
 73
       6
 40
31.5375
 49
12.615
 74
       0
 49
-6.3075
 74
       0
 49
0.0
 74
       0
 49
-6.3075
 74
       0
 49
0.0
 74
       0
 49
-6.3075
 74
       0
  0
LTYPE
  5
2F
100
AcDbSymbolTableRecord
100
AcDbLinetypeTableRecord
  2
BORDERX2
 70
      64
  3
CADPAC LINETYPE
 72
      65
 73
       6
 40
73.5875
 49
21.025
 74
       0
 49
-10.5125
 74
       0
 49
21.025
 74
       0
 49
-10.5125
 74
       0
 49
0.0
 74
       0
 49
-10.5125
 74
       0
  0
LTYPE
  5
30
100
AcDbSymbolTableRecord
100
AcDbLinetypeTableRecord
  2
BORDER
 70
      64
  3
CADPAC LINETYPE
 72
      65
 73
       6
 40
58.87
 49
16.82
 74
       0
 49
-8.41
 74
       0
 49
16.82
 74
       0
 49
-8.41
 74
       0
 49
0.0
 74
       0
 49
-8.41
 74
       0
  0
LTYPE
  5
31
100
AcDbSymbolTableRecord
100
AcDbLinetypeTableRecord
  2
BORDER2
 70
      64
  3
CADPAC LINETYPE
 72
      65
 73
       6
 40
44.1525
 49
12.615
 74
       0
 49
-6.3075
 74
       0
 49
12.615
 74
       0
 49
-6.3075
 74
       0
 49
0.0
 74
       0
 49
-6.3075
 74
       0
  0
LTYPE
  5
32
100
AcDbSymbolTableRecord
100
AcDbLinetypeTableRecord
  2
PHANTOMX2
 70
      64
  3
CADPAC LINETYPE
 72
      65
 73
       6
 40
63.075
 49
21.025
 74
       0
 49
-8.41
 74
       0
 49
8.41
 74
       0
 49
-8.41
 74
       0
 49
8.41
 74
       0
 49
-8.41
 74
       0
  0
LTYPE
  5
33
100
AcDbSymbolTableRecord
100
AcDbLinetypeTableRecord
  2
PHANTOM
 70
      64
  3
CADPAC LINETYPE
 72
      65
 73
       6
 40
52.142
 49
16.82
 74
       0
 49
-8.41
 74
       0
 49
5.046
 74
       0
 49
-8.41
 74
       0
 49
5.046
 74
       0
 49
-8.41
 74
       0
  0
LTYPE
  5
34
100
AcDbSymbolTableRecord
100
AcDbLinetypeTableRecord
  2
PHANTOM2
 70
      64
  3
CADPAC LINETYPE
 72
      65
 73
       6
 40
44.573
 49
12.615
 74
       0
 49
-8.41
 74
       0
 49
3.364
 74
       0
 49
-8.41
 74
       0
 49
3.364
 74
       0
 49
-8.41
 74
       0
  0
LTYPE
  5
35
100
AcDbSymbolTableRecord
100
AcDbLinetypeTableRecord
  2
ACAD_ISO06W100
 70
      64
  3
CADPAC LINETYPE
 72
      65
 73
       8
 40
56.7675
 49
21.025
 74
       0
 49
-10.5125
 74
       0
 49
0.0
 74
       0
 49
-8.41
 74
       0
 49
0.0
 74
       0
 49
-8.41
 74
       0
 49
0.0
 74
       0
 49
-8.41
 74
       0
  0
LTYPE
  5
36
100
AcDbSymbolTableRecord
100
AcDbLinetypeTableRecord
  2
ACAD_ISO13W100
 70
      64
  3
CADPAC LINETYPE
 72
      65
 73
       8
 40
67.28
 49
16.82
 74
       0
 49
-8.41
 74
       0
 49
16.82
 74
       0
 49
-8.41
 74
       0
 49
0.0
 74
       0
 49
-8.41
 74
       0
 49
0.0
 74
       0
 49
-8.41
 74
       0
  0
LTYPE
  5
37
100
AcDbSymbolTableRecord
100
AcDbLinetypeTableRecord
  2
ACAD_ISO14W100
 70
      64
  3
CADPAC LINETYPE
 72
      65
 73
       8
 40
50.46
 49
16.82
 74
       0
 49
-8.41
 74
       0
 49
0.0
 74
       0
 49
-8.41
 74
       0
 49
0.0
 74
       0
 49
-8.41
 74
       0
 49
0.0
 74
       0
 49
-8.41
 74
       0
  0
ENDTAB
  0
TABLE
  2
LAYER
  5
2
100
AcDbSymbolTable
 70
       3
  0
LAYER
  5
14
100
AcDbSymbolTableRecord
100
AcDbLayerTableRecord
  2
0
 70
       0
 62
       7
  6
CONTINUOUS
  0
LAYER
  5
38
100
AcDbSymbolTableRecord
100
AcDbLayerTableRecord
  2
D-STR
 70
       0
 62
       7
  6
CONTINUOUS
  0
LAYER
  5
39
100
AcDbSymbolTableRecord
100
AcDbLayerTableRecord
  2
D-STR-TXT
 70
       0
 62
       7
  6
CONTINUOUS
  0
ENDTAB
  0
TABLE
  2
STYLE
  5
3
100
AcDbSymbolTable
 70
       1
  0
STYLE
  5
17
100
AcDbSymbolTableRecord
100
AcDbTextStyleTableRecord
  2
STANDARD
 70
       0
 40
0.0
 41
1.0
 50
0.0
 71
       0
 42
10.0
  3
MS Gothic.ttf
  4

1001
ACAD
1000
MS Gothic
1071
    32786
  0
ENDTAB
  0
TABLE
  2
VIEW
  5
5
100
AcDbSymbolTable
 70
       1
  0
VIEW
  5
3A
100
AcDbSymbolTableRecord
100
AcDbViewTableRecord
  2
QQQQ
 70
       0
 40
3603.405
 10
-188.0
 20
5.0
 41
535.925
 11
0.0
 21
0.0
 31
1.0
 12
100.0
 22
100.0
 32
0.0
 42
50.0
 43
0.0
 44
0.0
 50
0.0
 71
       0
  0
ENDTAB
  0
TABLE
  2
UCS
  5
6
100
AcDbSymbolTable
 70
       0
  0
ENDTAB
  0
TABLE
  2
APPID
  5
8
100
AcDbSymbolTable
 70
       1
  0
APPID
  5
16
100
AcDbSymbolTableRecord
100
AcDbRegAppTableRecord
  2
ACAD
 70
       0
  0
ENDTAB
  0
TABLE
  2
DIMSTYLE
  5
9
100
AcDbSymbolTable
 70
       1
  0
DIMSTYLE
105
18
100
AcDbSymbolTableRecord
100
AcDbDimStyleTableRecord
  2
STANDARD
 70
       0
  3

  4

  5

  6

  7

 40
1.0
 41
0.18
 42
0.0625
 43
0.38
 44
0.18
 45
0.0
 46
0.0
 47
0.0
 48
0.0
 71
       0
 72
       0
 73
       1
 74
       1
 75
       0
 76
       0
 77
       0
 78
       0
140
0.18
141
0.09
142
0.0
143
25.4
144
1.0
145
0.0
146
1.0
147
0.09
170
       0
171
       2
172
       0
173
       0
174
       0
175
       0
176
       0
177
       0
178
       0
270
       2
271
       4
272
       4
273
       2
274
       2
275
       0
280
       0
281
       0
282
       0
283
       1
284
       0
285
       0
286
       0
287
       0
288
       0
340
17
  0
ENDTAB
  0
TABLE
  2
BLOCK_RECORD
  5
1
100
AcDbSymbolTable
 70
      39
  0
BLOCK_RECORD
  5
A
100
AcDbSymbolTableRecord
100
AcDbBlockTableRecord
  2
*MODEL_SPACE
  0
BLOCK_RECORD
  5
B
100
AcDbSymbolTableRecord
100
AcDbBlockTableRecord
  2
*PAPER_SPACE
  0
BLOCK_RECORD
  5
3B
100
AcDbSymbolTableRecord
100
AcDbBlockTableRecord
  2
GROUP_1
  0
BLOCK_RECORD
  5
3C
100
AcDbSymbolTableRecord
100
AcDbBlockTableRecord
  2
GROUP_2
  0
BLOCK_RECORD
  5
3D
100
AcDbSymbolTableRecord
100
AcDbBlockTableRecord
  2
GROUP_3
  0
BLOCK_RECORD
  5
3E
100
AcDbSymbolTableRecord
100
AcDbBlockTableRecord
  2
GROUP_4
  0
BLOCK_RECORD
  5
3F
100
AcDbSymbolTableRecord
100
AcDbBlockTableRecord
  2
GROUP_5
  0
BLOCK_RECORD
  5
40
100
AcDbSymbolTableRecord
100
AcDbBlockTableRecord
  2
GROUP_6
  0
BLOCK_RECORD
  5
41
100
AcDbSymbolTableRecord
100
AcDbBlockTableRecord
  2
GROUP_7
  0
BLOCK_RECORD
  5
42
100
AcDbSymbolTableRecord
100
AcDbBlockTableRecord
  2
GROUP_8
  0
BLOCK_RECORD
  5
43
100
AcDbSymbolTableRecord
100
AcDbBlockTableRecord
  2
GROUP_9
  0
BLOCK_RECORD
  5
44
100
AcDbSymbolTableRecord
100
AcDbBlockTableRecord
  2
GROUP_10
  0
BLOCK_RECORD
  5
45
100
AcDbSymbolTableRecord
100
AcDbBlockTableRecord
  2
GROUP_11
  0
BLOCK_RECORD
  5
46
100
AcDbSymbolTableRecord
100
AcDbBlockTableRecord
  2
GROUP_12
  0
BLOCK_RECORD
  5
47
100
AcDbSymbolTableRecord
100
AcDbBlockTableRecord
  2
GROUP_13
  0
BLOCK_RECORD
  5
48
100
AcDbSymbolTableRecord
100
AcDbBlockTableRecord
  2
GROUP_14
  0
BLOCK_RECORD
  5
49
100
AcDbSymbolTableRecord
100
AcDbBlockTableRecord
  2
GROUP_15
  0
BLOCK_RECORD
  5
4A
100
AcDbSymbolTableRecord
100
AcDbBlockTableRecord
  2
GROUP_16
  0
BLOCK_RECORD
  5
4B
100
AcDbSymbolTableRecord
100
AcDbBlockTableRecord
  2
GROUP_17
  0
BLOCK_RECORD
  5
4C
100
AcDbSymbolTableRecord
100
AcDbBlockTableRecord
  2
GROUP_18
  0
BLOCK_RECORD
  5
4D
100
AcDbSymbolTableRecord
100
AcDbBlockTableRecord
  2
GROUP_19
  0
BLOCK_RECORD
  5
4E
100
AcDbSymbolTableRecord
100
AcDbBlockTableRecord
  2
GROUP_20
  0
BLOCK_RECORD
  5
4F
100
AcDbSymbolTableRecord
100
AcDbBlockTableRecord
  2
GROUP_21
  0
BLOCK_RECORD
  5
50
100
AcDbSymbolTableRecord
100
AcDbBlockTableRecord
  2
GROUP_22
  0
BLOCK_RECORD
  5
51
100
AcDbSymbolTableRecord
100
AcDbBlockTableRecord
  2
GROUP_23
  0
BLOCK_RECORD
  5
52
100
AcDbSymbolTableRecord
100
AcDbBlockTableRecord
  2
GROUP_24
  0
BLOCK_RECORD
  5
53
100
AcDbSymbolTableRecord
100
AcDbBlockTableRecord
  2
GROUP_25
  0
BLOCK_RECORD
  5
54
100
AcDbSymbolTableRecord
100
AcDbBlockTableRecord
  2
GROUP_26
  0
BLOCK_RECORD
  5
55
100
AcDbSymbolTableRecord
100
AcDbBlockTableRecord
  2
GROUP_27
  0
BLOCK_RECORD
  5
56
100
AcDbSymbolTableRecord
100
AcDbBlockTableRecord
  2
GROUP_28
  0
BLOCK_RECORD
  5
57
100
AcDbSymbolTableRecord
100
AcDbBlockTableRecord
  2
GROUP_29
  0
BLOCK_RECORD
  5
58
100
AcDbSymbolTableRecord
100
AcDbBlockTableRecord
  2
GROUP_30
  0
BLOCK_RECORD
  5
59
100
AcDbSymbolTableRecord
100
AcDbBlockTableRecord
  2
GROUP_31
  0
BLOCK_RECORD
  5
5A
100
AcDbSymbolTableRecord
100
AcDbBlockTableRecord
  2
GROUP_32
  0
BLOCK_RECORD
  5
5B
100
AcDbSymbolTableRecord
100
AcDbBlockTableRecord
  2
GROUP_33
  0
BLOCK_RECORD
  5
5C
100
AcDbSymbolTableRecord
100
AcDbBlockTableRecord
  2
GROUP_34
  0
BLOCK_RECORD
  5
5D
100
AcDbSymbolTableRecord
100
AcDbBlockTableRecord
  2
GROUP_35
  0
BLOCK_RECORD
  5
5E
100
AcDbSymbolTableRecord
100
AcDbBlockTableRecord
  2
GROUP_36
  0
BLOCK_RECORD
  5
5F
100
AcDbSymbolTableRecord
100
AcDbBlockTableRecord
  2
GROUP_37
  0
BLOCK_RECORD
  5
60
100
AcDbSymbolTableRecord
100
AcDbBlockTableRecord
  2
GROUP_38
  0
BLOCK_RECORD
  5
61
100
AcDbSymbolTableRecord
100
AcDbBlockTableRecord
  2
GROUP_39
  0
ENDTAB
  0
ENDSEC
  0
SECTION
  2
BLOCKS
  0
BLOCK
  5
D
100
AcDbEntity
  8
0
100
AcDbBlockBegin
  2
*MODEL_SPACE
 70
       0
 10
0.0
 20
0.0
 30
0.0
  3
*MODEL_SPACE
  1

  0
ENDBLK
  5
E
100
AcDbEntity
  8
0
100
AcDbBlockEnd
  0
BLOCK
  5
F
100
AcDbEntity
 67
       1
  8
0
100
AcDbBlockBegin
  2
*PAPER_SPACE
 70
       0
 10
0.0
 20
0.0
 30
0.0
  3
*PAPER_SPACE
  1

  0
ENDBLK
  5
10
100
AcDbEntity
 67
       1
  8
0
100
AcDbBlockEnd
  0
BLOCK
  5
62
100
AcDbEntity
  8
0
100
AcDbBlockBegin
  2
GROUP_1
 70
       0
 10
0.0
 20
0.0
 30
0.0
  3
GROUP_1
  1

  0
LINE
  5
63
100
AcDbEntity
  8
D-STR
  6
CONTINUOUS
 62
       1
100
AcDbLine
 10
-400.5
 20
1585.5
 30
0.0
 11
-416.5
 21
1585.5
 31
0.0
  0
LINE
  5
64
100
AcDbEntity
  8
D-STR
  6
CONTINUOUS
 62
       1
100
AcDbLine
 10
-416.5
 20
1625.5
 30
0.0
 11
-400.5
 21
1625.5
 31
0.0
  0
LINE
  5
65
100
AcDbEntity
  8
D-STR
  6
CONTINUOUS
 62
       1
100
AcDbLine
 10
-420.5
 20
1589.5
 30
0.0
 11
-420.5
 21
1621.5
 31
0.0
  0
LINE
  5
66
100
AcDbEntity
  8
D-STR
  6
CONTINUOUS
 62
       1
100
AcDbLine
 10
-418.5
 20
1621.5
 30
0.0
 11
-418.5
 21
1589.5
 31
0.0
  0
LINE
  5
67
100
AcDbEntity
  8
D-STR
  6
CONTINUOUS
 62
       1
100
AcDbLine
 10
-400.5
 20
1623.5
 30
0.0
 11
-416.5
 21
1623.5
 31
0.0
  0
LINE
  5
68
100
AcDbEntity
  8
D-STR
  6
CONTINUOUS
 62
       1
100
AcDbLine
 10
-416.5
 20
1587.5
 30
0.0
 11
-400.5
 21
1587.5
 31
0.0
  0
LINE
  5
69
100
AcDbEntity
  8
D-STR
  6
CONTINUOUS
 62
       1
100
AcDbLine
 10
-400.5
 20
1585.5
 30
0.0
 11
-400.5
 21
1587.5
 31
0.0
  0
LINE
  5
6A
100
AcDbEntity
  8
D-STR
  6
CONTINUOUS
 62
       1
100
AcDbLine
 10
-400.5
 20
1623.5
 30
0.0
 11
-400.5
 21
1625.5
 31
0.0
  0
ARC
  5
6B
100
AcDbEntity
  8
D-STR
  6
CONTINUOUS
 62
       1
100
AcDbCircle
 10
-416.5
 20
1621.5
 30
0.0
 40
2.0
100
AcDbArc
 50
90.0
 51
180.0
  0
ARC
  5
6C
100
AcDbEntity
  8
D-STR
  6
CONTINUOUS
 62
       1
100
AcDbCircle
 10
-416.5
 20
1589.5
 30
0.0
 40
2.0
100
AcDbArc
 50
180.0
 51
270.0
  0
ARC
  5
6D
100
AcDbEntity
  8
D-STR
  6
CONTINUOUS
 62
       1
100
AcDbCircle
 10
-416.5
 20
1589.5
 30
0.0
 40
4.0
100
AcDbArc
 50
180.0
 51
270.0
  0
ARC
  5
6E
100
AcDbEntity
  8
D-STR
  6
CONTINUOUS
 62
       1
100
AcDbCircle
 10
-416.5
 20
1621.5
 30
0.0
 40
4.0
100
AcDbArc
 50
90.0
 51
180.0
  0
ENDBLK
  5
6F
100
AcDbEntity
  8
0
100
AcDbBlockEnd
  0
BLOCK
  5
70
100
AcDbEntity
  8
0
100
AcDbBlockBegin
  2
GROUP_2
 70
       0
 10
0.0
 20
0.0
 30
0.0
  3
GROUP_2
  1

  0
LINE
  5
71
100
AcDbEntity
  8
D-STR
  6
CONTINUOUS
 62
       1
100
AcDbLine
 10
-300.5
 20
1585.5
 30
0.0
 11
-314.5
 21
1585.5
 31
0.0
  0
LINE
  5
72
100
AcDbEntity
  8
D-STR
  6
CONTINUOUS
 62
       1
100
AcDbLine
 10
-314.5
 20
1625.5
 30
0.0
 11
-300.5
 21
1625.5
 31
0.0
  0
LINE
  5
73
100
AcDbEntity
  8
D-STR
  6
CONTINUOUS
 62
       1
100
AcDbLine
 10
-320.5
 20
1591.5
 30
0.0
 11
-320.5
 21
1619.5
 31
0.0
  0
LINE
  5
74
100
AcDbEntity
  8
D-STR
  6
CONTINUOUS
 62
       1
100
AcDbLine
 10
-314.5
 20
1588.5
 30
0.0
 11
-300.5
 21
1588.5
 31
0.0
  0
LINE
  5
75
100
AcDbEntity
  8
D-STR
  6
CONTINUOUS
 62
       1
100
AcDbLine
 10
-317.5
 20
1619.5
 30
0.0
 11
-317.5
 21
1591.5
 31
0.0
  0
LINE
  5
76
100
AcDbEntity
  8
D-STR
  6
CONTINUOUS
 62
       1
100
AcDbLine
 10
-300.5
 20
1622.5
 30
0.0
 11
-314.5
 21
1622.5
 31
0.0
  0
LINE
  5
77
100
AcDbEntity
  8
D-STR
  6
CONTINUOUS
 62
       1
100
AcDbLine
 10
-300.5
 20
1585.5
 30
0.0
 11
-300.5
 21
1588.5
 31
0.0
  0
LINE
  5
78
100
AcDbEntity
  8
D-STR
  6
CONTINUOUS
 62
       1
100
AcDbLine
 10
-300.5
 20
1622.5
 30
0.0
 11
-300.5
 21
1625.5
 31
0.0
  0
ARC
  5
79
100
AcDbEntity
  8
D-STR
  6
CONTINUOUS
 62
       1
100
AcDbCircle
 10
-314.5
 20
1619.5
 30
0.0
 40
3.0
100
AcDbArc
 50
90.0
 51
180.0
  0
ARC
  5
7A
100
AcDbEntity
  8
D-STR
  6
CONTINUOUS
 62
       1
100
AcDbCircle
 10
-314.5
 20
1591.5
 30
0.0
 40
3.0
100
AcDbArc
 50
180.0
 51
270.0
  0
ARC
  5
7B
100
AcDbEntity
  8
D-STR
  6
CONTINUOUS
 62
       1
100
AcDbCircle
 10
-314.5
 20
1591.5
 30
0.0
 40
6.0
100
AcDbArc
 50
180.0
 51
270.0
  0
ARC
  5
7C
100
AcDbEntity
  8
D-STR
  6
CONTINUOUS
 62
       1
100
AcDbCircle
 10
-314.5
 20
1619.5
 30
0.0
 40
6.0
100
AcDbArc
 50
90.0
 51
180.0
  0
ENDBLK
  5
7D
100
AcDbEntity
  8
0
100
AcDbBlockEnd
  0
BLOCK
  5
7E
100
AcDbEntity
  8
0
100
AcDbBlockBegin
  2
GROUP_3
 70
       0
 10
0.0
 20
0.0
 30
0.0
  3
GROUP_3
  1

  0
LINE
  5
7F
100
AcDbEntity
  8
D-STR
  6
CONTINUOUS
 62
       1
100
AcDbLine
 10
-295.5
 20
1510.5
 30
0.0
 11
-314.5
 21
1510.5
 31
0.0
  0
LINE
  5
80
100
AcDbEntity
  8
D-STR
  6
CONTINUOUS
 62
       1
100
AcDbLine
 10
-314.5
 20
1560.5
 30
0.0
 11
-295.5
 21
1560.5
 31
0.0
  0
LINE
  5
81
100
AcDbEntity
  8
D-STR
  6
CONTINUOUS
 62
       1
100
AcDbLine
 10
-320.5
 20
1516.5
 30
0.0
 11
-320.5
 21
1554.5
 31
0.0
  0
LINE
  5
82
100
AcDbEntity
  8
D-STR
  6
CONTINUOUS
 62
       1
100
AcDbLine
 10
-314.5
 20
1513.5
 30
0.0
 11
-295.5
 21
1513.5
 31
0.0
  0
LINE
  5
83
100
AcDbEntity
  8
D-STR
  6
CONTINUOUS
 62
       1
100
AcDbLine
 10
-317.5
 20
1554.5
 30
0.0
 11
-317.5
 21
1516.5
 31
0.0
  0
LINE
  5
84
100
AcDbEntity
  8
D-STR
  6
CONTINUOUS
 62
       1
100
AcDbLine
 10
-295.5
 20
1557.5
 30
0.0
 11
-314.5
 21
1557.5
 31
0.0
  0
LINE
  5
85
100
AcDbEntity
  8
D-STR
  6
CONTINUOUS
 62
       1
100
AcDbLine
 10
-295.5
 20
1510.5
 30
0.0
 11
-295.5
 21
1513.5
 31
0.0
  0
LINE
  5
86
100
AcDbEntity
  8
D-STR
  6
CONTINUOUS
 62
       1
100
AcDbLine
 10
-295.5
 20
1557.5
 30
0.0
 11
-295.5
 21
1560.5
 31
0.0
  0
ARC
  5
87
100
AcDbEntity
  8
D-STR
  6
CONTINUOUS
 62
       1
100
AcDbCircle
 10
-314.5
 20
1554.5
 30
0.0
 40
3.0
100
AcDbArc
 50
90.0
 51
180.0
  0
ARC
  5
88
100
AcDbEntity
  8
D-STR
  6
CONTINUOUS
 62
       1
100
AcDbCircle
 10
-314.5
 20
1516.5
 30
0.0
 40
3.0
100
AcDbArc
 50
180.0
 51
270.0
  0
ARC
  5
89
100
AcDbEntity
  8
D-STR
  6
CONTINUOUS
 62
       1
100
AcDbCircle
 10
-314.5
 20
1516.5
 30
0.0
 40
6.0
100
AcDbArc
 50
180.0
 51
270.0
  0
ARC
  5
8A
100
AcDbEntity
  8
D-STR
  6
CONTINUOUS
 62
       1
100
AcDbCircle
 10
-314.5
 20
1554.5
 30
0.0
 40
6.0
100
AcDbArc
 50
90.0
 51
180.0
  0
ENDBLK
  5
8B
100
AcDbEntity
  8
0
100
AcDbBlockEnd
  0
BLOCK
  5
8C
100
AcDbEntity
  8
0
100
AcDbBlockBegin
  2
GROUP_4
 70
       0
 10
0.0
 20
0.0
 30
0.0
  3
GROUP_4
  1

  0
LINE
  5
8D
100
AcDbEntity
  8
D-STR
  6
CONTINUOUS
 62
       1
100
AcDbLine
 10
-395.5
 20
1510.5
 30
0.0
 11
-416.5
 21
1510.5
 31
0.0
  0
LINE
  5
8E
100
AcDbEntity
  8
D-STR
  6
CONTINUOUS
 62
       1
100
AcDbLine
 10
-416.5
 20
1560.5
 30
0.0
 11
-395.5
 21
1560.5
 31
0.0
  0
LINE
  5
8F
100
AcDbEntity
  8
D-STR
  6
CONTINUOUS
 62
       1
100
AcDbLine
 10
-420.5
 20
1514.5
 30
0.0
 11
-420.5
 21
1556.5
 31
0.0
  0
LINE
  5
90
100
AcDbEntity
  8
D-STR
  6
CONTINUOUS
 62
       1
100
AcDbLine
 10
-418.5
 20
1556.5
 30
0.0
 11
-418.5
 21
1514.5
 31
0.0
  0
LINE
  5
91
100
AcDbEntity
  8
D-STR
  6
CONTINUOUS
 62
       1
100
AcDbLine
 10
-395.5
 20
1558.5
 30
0.0
 11
-416.5
 21
1558.5
 31
0.0
  0
LINE
  5
92
100
AcDbEntity
  8
D-STR
  6
CONTINUOUS
 62
       1
100
AcDbLine
 10
-416.5
 20
1512.5
 30
0.0
 11
-395.5
 21
1512.5
 31
0.0
  0
LINE
  5
93
100
AcDbEntity
  8
D-STR
  6
CONTINUOUS
 62
       1
100
AcDbLine
 10
-395.5
 20
1510.5
 30
0.0
 11
-395.5
 21
1512.5
 31
0.0
  0
LINE
  5
94
100
AcDbEntity
  8
D-STR
  6
CONTINUOUS
 62
       1
100
AcDbLine
 10
-395.5
 20
1558.5
 30
0.0
 11
-395.5
 21
1560.5
 31
0.0
  0
ARC
  5
95
100
AcDbEntity
  8
D-STR
  6
CONTINUOUS
 62
       1
100
AcDbCircle
 10
-416.5
 20
1556.5
 30
0.0
 40
2.0
100
AcDbArc
 50
90.0
 51
180.0
  0
ARC
  5
96
100
AcDbEntity
  8
D-STR
  6
CONTINUOUS
 62
       1
100
AcDbCircle
 10
-416.5
 20
1514.5
 30
0.0
 40
2.0
100
AcDbArc
 50
180.0
 51
270.0
  0
ARC
  5
97
100
AcDbEntity
  8
D-STR
  6
CONTINUOUS
 62
       1
100
AcDbCircle
 10
-416.5
 20
1514.5
 30
0.0
 40
4.0
100
AcDbArc
 50
180.0
 51
270.0
  0
ARC
  5
98
100
AcDbEntity
  8
D-STR
  6
CONTINUOUS
 62
       1
100
AcDbCircle
 10
-416.5
 20
1556.5
 30
0.0
 40
4.0
100
AcDbArc
 50
90.0
 51
180.0
  0
ENDBLK
  5
99
100
AcDbEntity
  8
0
100
AcDbBlockEnd
  0
BLOCK
  5
9A
100
AcDbEntity
  8
0
100
AcDbBlockBegin
  2
GROUP_5
 70
       0
 10
0.0
 20
0.0
 30
0.0
  3
GROUP_5
  1

  0
LINE
  5
9B
100
AcDbEntity
  8
D-STR
  6
CONTINUOUS
 62
       1
100
AcDbLine
 10
-390.5
 20
1420.5
 30
0.0
 11
-416.5
 21
1420.5
 31
0.0
  0
LINE
  5
9C
100
AcDbEntity
  8
D-STR
  6
CONTINUOUS
 62
       1
100
AcDbLine
 10
-416.5
 20
1480.5
 30
0.0
 11
-390.5
 21
1480.5
 31
0.0
  0
LINE
  5
9D
100
AcDbEntity
  8
D-STR
  6
CONTINUOUS
 62
       1
100
AcDbLine
 10
-420.5
 20
1424.5
 30
0.0
 11
-420.5
 21
1476.5
 31
0.0
  0
LINE
  5
9E
100
AcDbEntity
  8
D-STR
  6
CONTINUOUS
 62
       1
100
AcDbLine
 10
-390.5
 20
1478.5
 30
0.0
 11
-416.5
 21
1478.5
 31
0.0
  0
LINE
  5
9F
100
AcDbEntity
  8
D-STR
  6
CONTINUOUS
 62
       1
100
AcDbLine
 10
-418.5
 20
1476.5
 30
0.0
 11
-418.5
 21
1424.5
 31
0.0
  0
LINE
  5
A0
100
AcDbEntity
  8
D-STR
  6
CONTINUOUS
 62
       1
100
AcDbLine
 10
-416.5
 20
1422.5
 30
0.0
 11
-390.5
 21
1422.5
 31
0.0
  0
LINE
  5
A1
100
AcDbEntity
  8
D-STR
  6
CONTINUOUS
 62
       1
100
AcDbLine
 10
-390.5
 20
1420.5
 30
0.0
 11
-390.5
 21
1422.5
 31
0.0
  0
LINE
  5
A2
100
AcDbEntity
  8
D-STR
  6
CONTINUOUS
 62
       1
100
AcDbLine
 10
-390.5
 20
1478.5
 30
0.0
 11
-390.5
 21
1480.5
 31
0.0
  0
ARC
  5
A3
100
AcDbEntity
  8
D-STR
  6
CONTINUOUS
 62
       1
100
AcDbCircle
 10
-416.5
 20
1476.5
 30
0.0
 40
2.0
100
AcDbArc
 50
90.0
 51
180.0
  0
ARC
  5
A4
100
AcDbEntity
  8
D-STR
  6
CONTINUOUS
 62
       1
100
AcDbCircle
 10
-416.5
 20
1424.5
 30
0.0
 40
2.0
100
AcDbArc
 50
180.0
 51
270.0
  0
ARC
  5
A5
100
AcDbEntity
  8
D-STR
  6
CONTINUOUS
 62
       1
100
AcDbCircle
 10
-416.5
 20
1424.5
 30
0.0
 40
4.0
100
AcDbArc
 50
180.0
 51
270.0
  0
ARC
  5
A6
100
AcDbEntity
  8
D-STR
  6
CONTINUOUS
 62
       1
100
AcDbCircle
 10
-416.5
 20
1476.5
 30
0.0
 40
4.0
100
AcDbArc
 50
90.0
 51
180.0
  0
ENDBLK
  5
A7
100
AcDbEntity
  8
0
100
AcDbBlockEnd
  0
BLOCK
  5
A8
100
AcDbEntity
  8
0
100
AcDbBlockBegin
  2
GROUP_6
 70
       0
 10
0.0
 20
0.0
 30
0.0
  3
GROUP_6
  1

  0
LINE
  5
A9
100
AcDbEntity
  8
D-STR
  6
CONTINUOUS
 62
       1
100
AcDbLine
 10
-290.5
 20
1420.5
 30
0.0
 11
-314.5
 21
1420.5
 31
0.0
  0
LINE
  5
AA
100
AcDbEntity
  8
D-STR
  6
CONTINUOUS
 62
       1
100
AcDbLine
 10
-314.5
 20
1480.5
 30
0.0
 11
-290.5
 21
1480.5
 31
0.0
  0
LINE
  5
AB
100
AcDbEntity
  8
D-STR
  6
CONTINUOUS
 62
       1
100
AcDbLine
 10
-320.5
 20
1426.5
 30
0.0
 11
-320.5
 21
1474.5
 31
0.0
  0
LINE
  5
AC
100
AcDbEntity
  8
D-STR
  6
CONTINUOUS
 62
       1
100
AcDbLine
 10
-314.5
 20
1423.5
 30
0.0
 11
-290.5
 21
1423.5
 31
0.0
  0
LINE
  5
AD
100
AcDbEntity
  8
D-STR
  6
CONTINUOUS
 62
       1
100
AcDbLine
 10
-317.5
 20
1474.5
 30
0.0
 11
-317.5
 21
1426.5
 31
0.0
  0
LINE
  5
AE
100
AcDbEntity
  8
D-STR
  6
CONTINUOUS
 62
       1
100
AcDbLine
 10
-290.5
 20
1477.5
 30
0.0
 11
-314.5
 21
1477.5
 31
0.0
  0
LINE
  5
AF
100
AcDbEntity
  8
D-STR
  6
CONTINUOUS
 62
       1
100
AcDbLine
 10
-290.5
 20
1420.5
 30
0.0
 11
-290.5
 21
1423.5
 31
0.0
  0
LINE
  5
B0
100
AcDbEntity
  8
D-STR
  6
CONTINUOUS
 62
       1
100
AcDbLine
 10
-290.5
 20
1477.5
 30
0.0
 11
-290.5
 21
1480.5
 31
0.0
  0
ARC
  5
B1
100
AcDbEntity
  8
D-STR
  6
CONTINUOUS
 62
       1
100
AcDbCircle
 10
-314.5
 20
1474.5
 30
0.0
 40
3.0
100
AcDbArc
 50
90.0
 51
180.0
  0
ARC
  5
B2
100
AcDbEntity
  8
D-STR
  6
CONTINUOUS
 62
       1
100
AcDbCircle
 10
-314.5
 20
1426.5
 30
0.0
 40
3.0
100
AcDbArc
 50
180.0
 51
270.0
  0
ARC
  5
B3
100
AcDbEntity
  8
D-STR
  6
CONTINUOUS
 62
       1
100
AcDbCircle
 10
-314.5
 20
1426.5
 30
0.0
 40
6.0
100
AcDbArc
 50
180.0
 51
270.0
  0
ARC
  5
B4
100
AcDbEntity
  8
D-STR
  6
CONTINUOUS
 62
       1
100
AcDbCircle
 10
-314.5
 20
1474.5
 30
0.0
 40
6.0
100
AcDbArc
 50
90.0
 51
180.0
  0
ENDBLK
  5
B5
100
AcDbEntity
  8
0
100
AcDbBlockEnd
  0
BLOCK
  5
B6
100
AcDbEntity
  8
0
100
AcDbBlockBegin
  2
GROUP_7
 70
       0
 10
0.0
 20
0.0
 30
0.0
  3
GROUP_7
  1

  0
LINE
  5
B7
100
AcDbEntity
  8
D-STR
  6
CONTINUOUS
 62
       1
100
AcDbLine
 10
-285.5
 20
1315.5
 30
0.0
 11
-314.5
 21
1315.5
 31
0.0
  0
LINE
  5
B8
100
AcDbEntity
  8
D-STR
  6
CONTINUOUS
 62
       1
100
AcDbLine
 10
-314.5
 20
1385.5
 30
0.0
 11
-285.5
 21
1385.5
 31
0.0
  0
LINE
  5
B9
100
AcDbEntity
  8
D-STR
  6
CONTINUOUS
 62
       1
100
AcDbLine
 10
-320.5
 20
1321.5
 30
0.0
 11
-320.5
 21
1379.5
 31
0.0
  0
LINE
  5
BA
100
AcDbEntity
  8
D-STR
  6
CONTINUOUS
 62
       1
100
AcDbLine
 10
-314.5
 20
1318.5
 30
0.0
 11
-285.5
 21
1318.5
 31
0.0
  0
LINE
  5
BB
100
AcDbEntity
  8
D-STR
  6
CONTINUOUS
 62
       1
100
AcDbLine
 10
-317.5
 20
1379.5
 30
0.0
 11
-317.5
 21
1321.5
 31
0.0
  0
LINE
  5
BC
100
AcDbEntity
  8
D-STR
  6
CONTINUOUS
 62
       1
100
AcDbLine
 10
-285.5
 20
1382.5
 30
0.0
 11
-314.5
 21
1382.5
 31
0.0
  0
LINE
  5
BD
100
AcDbEntity
  8
D-STR
  6
CONTINUOUS
 62
       1
100
AcDbLine
 10
-285.5
 20
1315.5
 30
0.0
 11
-285.5
 21
1318.5
 31
0.0
  0
LINE
  5
BE
100
AcDbEntity
  8
D-STR
  6
CONTINUOUS
 62
       1
100
AcDbLine
 10
-285.5
 20
1382.5
 30
0.0
 11
-285.5
 21
1385.5
 31
0.0
  0
ARC
  5
BF
100
AcDbEntity
  8
D-STR
  6
CONTINUOUS
 62
       1
100
AcDbCircle
 10
-314.5
 20
1379.5
 30
0.0
 40
3.0
100
AcDbArc
 50
90.0
 51
180.0
  0
ARC
  5
C0
100
AcDbEntity
  8
D-STR
  6
CONTINUOUS
 62
       1
100
AcDbCircle
 10
-314.5
 20
1321.5
 30
0.0
 40
3.0
100
AcDbArc
 50
180.0
 51
270.0
  0
ARC
  5
C1
100
AcDbEntity
  8
D-STR
  6
CONTINUOUS
 62
       1
100
AcDbCircle
 10
-314.5
 20
1321.5
 30
0.0
 40
6.0
100
AcDbArc
 50
180.0
 51
270.0
  0
ARC
  5
C2
100
AcDbEntity
  8
D-STR
  6
CONTINUOUS
 62
       1
100
AcDbCircle
 10
-314.5
 20
1379.5
 30
0.0
 40
6.0
100
AcDbArc
 50
90.0
 51
180.0
  0
ENDBLK
  5
C3
100
AcDbEntity
  8
0
100
AcDbBlockEnd
  0
BLOCK
  5
C4
100
AcDbEntity
  8
0
100
AcDbBlockBegin
  2
GROUP_8
 70
       0
 10
0.0
 20
0.0
 30
0.0
  3
GROUP_8
  1

  0
LINE
  5
C5
100
AcDbEntity
  8
D-STR
  6
CONTINUOUS
 62
       1
100
AcDbLine
 10
-385.5
 20
1315.5
 30
0.0
 11
-416.5
 21
1315.5
 31
0.0
  0
LINE
  5
C6
100
AcDbEntity
  8
D-STR
  6
CONTINUOUS
 62
       1
100
AcDbLine
 10
-416.5
 20
1385.5
 30
0.0
 11
-385.5
 21
1385.5
 31
0.0
  0
LINE
  5
C7
100
AcDbEntity
  8
D-STR
  6
CONTINUOUS
 62
       1
100
AcDbLine
 10
-420.5
 20
1319.5
 30
0.0
 11
-420.5
 21
1381.5
 31
0.0
  0
LINE
  5
C8
100
AcDbEntity
  8
D-STR
  6
CONTINUOUS
 62
       1
100
AcDbLine
 10
-385.5
 20
1383.5
 30
0.0
 11
-416.5
 21
1383.5
 31
0.0
  0
LINE
  5
C9
100
AcDbEntity
  8
D-STR
  6
CONTINUOUS
 62
       1
100
AcDbLine
 10
-418.5
 20
1381.5
 30
0.0
 11
-418.5
 21
1319.5
 31
0.0
  0
LINE
  5
CA
100
AcDbEntity
  8
D-STR
  6
CONTINUOUS
 62
       1
100
AcDbLine
 10
-416.5
 20
1317.5
 30
0.0
 11
-385.5
 21
1317.5
 31
0.0
  0
LINE
  5
CB
100
AcDbEntity
  8
D-STR
  6
CONTINUOUS
 62
       1
100
AcDbLine
 10
-385.5
 20
1315.5
 30
0.0
 11
-385.5
 21
1317.5
 31
0.0
  0
LINE
  5
CC
100
AcDbEntity
  8
D-STR
  6
CONTINUOUS
 62
       1
100
AcDbLine
 10
-385.5
 20
1383.5
 30
0.0
 11
-385.5
 21
1385.5
 31
0.0
  0
ARC
  5
CD
100
AcDbEntity
  8
D-STR
  6
CONTINUOUS
 62
       1
100
AcDbCircle
 10
-416.5
 20
1381.5
 30
0.0
 40
2.0
100
AcDbArc
 50
90.0
 51
180.0
  0
ARC
  5
CE
100
AcDbEntity
  8
D-STR
  6
CONTINUOUS
 62
       1
100
AcDbCircle
 10
-416.5
 20
1319.5
 30
0.0
 40
2.0
100
AcDbArc
 50
180.0
 51
270.0
  0
ARC
  5
CF
100
AcDbEntity
  8
D-STR
  6
CONTINUOUS
 62
       1
100
AcDbCircle
 10
-416.5
 20
1319.5
 30
0.0
 40
4.0
100
AcDbArc
 50
180.0
 51
270.0
  0
ARC
  5
D0
100
AcDbEntity
  8
D-STR
  6
CONTINUOUS
 62
       1
100
AcDbCircle
 10
-416.5
 20
1381.5
 30
0.0
 40
4.0
100
AcDbArc
 50
90.0
 51
180.0
  0
ENDBLK
  5
D1
100
AcDbEntity
  8
0
100
AcDbBlockEnd
  0
BLOCK
  5
D2
100
AcDbEntity
  8
0
100
AcDbBlockBegin
  2
GROUP_9
 70
       0
 10
0.0
 20
0.0
 30
0.0
  3
GROUP_9
  1

  0
LINE
  5
D3
100
AcDbEntity
  8
D-STR
  6
CONTINUOUS
 62
       1
100
AcDbLine
 10
-385.5
 20
1203.0
 30
0.0
 11
-416.5
 21
1203.0
 31
0.0
  0
LINE
  5
D4
100
AcDbEntity
  8
D-STR
  6
CONTINUOUS
 62
       1
100
AcDbLine
 10
-416.5
 20
1278.0
 30
0.0
 11
-385.5
 21
1278.0
 31
0.0
  0
LINE
  5
D5
100
AcDbEntity
  8
D-STR
  6
CONTINUOUS
 62
       1
100
AcDbLine
 10
-420.5
 20
1207.0
 30
0.0
 11
-420.5
 21
1274.0
 31
0.0
  0
LINE
  5
D6
100
AcDbEntity
  8
D-STR
  6
CONTINUOUS
 62
       1
100
AcDbLine
 10
-385.5
 20
1276.0
 30
0.0
 11
-416.5
 21
1276.0
 31
0.0
  0
LINE
  5
D7
100
AcDbEntity
  8
D-STR
  6
CONTINUOUS
 62
       1
100
AcDbLine
 10
-418.5
 20
1274.0
 30
0.0
 11
-418.5
 21
1207.0
 31
0.0
  0
LINE
  5
D8
100
AcDbEntity
  8
D-STR
  6
CONTINUOUS
 62
       1
100
AcDbLine
 10
-416.5
 20
1205.0
 30
0.0
 11
-385.5
 21
1205.0
 31
0.0
  0
LINE
  5
D9
100
AcDbEntity
  8
D-STR
  6
CONTINUOUS
 62
       1
100
AcDbLine
 10
-385.5
 20
1203.0
 30
0.0
 11
-385.5
 21
1205.0
 31
0.0
  0
LINE
  5
DA
100
AcDbEntity
  8
D-STR
  6
CONTINUOUS
 62
       1
100
AcDbLine
 10
-385.5
 20
1276.0
 30
0.0
 11
-385.5
 21
1278.0
 31
0.0
  0
ARC
  5
DB
100
AcDbEntity
  8
D-STR
  6
CONTINUOUS
 62
       1
100
AcDbCircle
 10
-416.5
 20
1274.0
 30
0.0
 40
2.0
100
AcDbArc
 50
90.0
 51
180.0
  0
ARC
  5
DC
100
AcDbEntity
  8
D-STR
  6
CONTINUOUS
 62
       1
100
AcDbCircle
 10
-416.5
 20
1207.0
 30
0.0
 40
2.0
100
AcDbArc
 50
180.0
 51
270.0
  0
ARC
  5
DD
100
AcDbEntity
  8
D-STR
  6
CONTINUOUS
 62
       1
100
AcDbCircle
 10
-416.5
 20
1207.0
 30
0.0
 40
4.0
100
AcDbArc
 50
180.0
 51
270.0
  0
ARC
  5
DE
100
AcDbEntity
  8
D-STR
  6
CONTINUOUS
 62
       1
100
AcDbCircle
 10
-416.5
 20
1274.0
 30
0.0
 40
4.0
100
AcDbArc
 50
90.0
 51
180.0
  0
ENDBLK
  5
DF
100
AcDbEntity
  8
0
100
AcDbBlockEnd
  0
BLOCK
  5
E0
100
AcDbEntity
  8
0
100
AcDbBlockBegin
  2
GROUP_10
 70
       0
 10
0.0
 20
0.0
 30
0.0
  3
GROUP_10
  1

  0
LINE
  5
E1
100
AcDbEntity
  8
D-STR
  6
CONTINUOUS
 62
       1
100
AcDbLine
 10
-285.5
 20
1203.0
 30
0.0
 11
-314.5
 21
1203.0
 31
0.0
  0
LINE
  5
E2
100
AcDbEntity
  8
D-STR
  6
CONTINUOUS
 62
       1
100
AcDbLine
 10
-314.5
 20
1278.0
 30
0.0
 11
-285.5
 21
1278.0
 31
0.0
  0
LINE
  5
E3
100
AcDbEntity
  8
D-STR
  6
CONTINUOUS
 62
       1
100
AcDbLine
 10
-320.5
 20
1209.0
 30
0.0
 11
-320.5
 21
1272.0
 31
0.0
  0
LINE
  5
E4
100
AcDbEntity
  8
D-STR
  6
CONTINUOUS
 62
       1
100
AcDbLine
 10
-314.5
 20
1206.0
 30
0.0
 11
-285.5
 21
1206.0
 31
0.0
  0
LINE
  5
E5
100
AcDbEntity
  8
D-STR
  6
CONTINUOUS
 62
       1
100
AcDbLine
 10
-317.5
 20
1272.0
 30
0.0
 11
-317.5
 21
1209.0
 31
0.0
  0
LINE
  5
E6
100
AcDbEntity
  8
D-STR
  6
CONTINUOUS
 62
       1
100
AcDbLine
 10
-285.5
 20
1275.0
 30
0.0
 11
-314.5
 21
1275.0
 31
0.0
  0
LINE
  5
E7
100
AcDbEntity
  8
D-STR
  6
CONTINUOUS
 62
       1
100
AcDbLine
 10
-285.5
 20
1203.0
 30
0.0
 11
-285.5
 21
1206.0
 31
0.0
  0
LINE
  5
E8
100
AcDbEntity
  8
D-STR
  6
CONTINUOUS
 62
       1
100
AcDbLine
 10
-285.5
 20
1275.0
 30
0.0
 11
-285.5
 21
1278.0
 31
0.0
  0
ARC
  5
E9
100
AcDbEntity
  8
D-STR
  6
CONTINUOUS
 62
       1
100
AcDbCircle
 10
-314.5
 20
1272.0
 30
0.0
 40
3.0
100
AcDbArc
 50
90.0
 51
180.0
  0
ARC
  5
EA
100
AcDbEntity
  8
D-STR
  6
CONTINUOUS
 62
       1
100
AcDbCircle
 10
-314.5
 20
1209.0
 30
0.0
 40
3.0
100
AcDbArc
 50
180.0
 51
270.0
  0
ARC
  5
EB
100
AcDbEntity
  8
D-STR
  6
CONTINUOUS
 62
       1
100
AcDbCircle
 10
-314.5
 20
1209.0
 30
0.0
 40
6.0
100
AcDbArc
 50
180.0
 51
270.0
  0
ARC
  5
EC
100
AcDbEntity
  8
D-STR
  6
CONTINUOUS
 62
       1
100
AcDbCircle
 10
-314.5
 20
1272.0
 30
0.0
 40
6.0
100
AcDbArc
 50
90.0
 51
180.0
  0
ENDBLK
  5
ED
100
AcDbEntity
  8
0
100
AcDbBlockEnd
  0
BLOCK
  5
EE
100
AcDbEntity
  8
0
100
AcDbBlockBegin
  2
GROUP_11
 70
       0
 10
0.0
 20
0.0
 30
0.0
  3
GROUP_11
  1

  0
LINE
  5
EF
100
AcDbEntity
  8
D-STR
  6
CONTINUOUS
 62
       1
100
AcDbLine
 10
-380.5
 20
1083.0
 30
0.0
 11
-416.5
 21
1083.0
 31
0.0
  0
LINE
  5
F0
100
AcDbEntity
  8
D-STR
  6
CONTINUOUS
 62
       1
100
AcDbLine
 10
-416.5
 20
1163.0
 30
0.0
 11
-380.5
 21
1163.0
 31
0.0
  0
LINE
  5
F1
100
AcDbEntity
  8
D-STR
  6
CONTINUOUS
 62
       1
100
AcDbLine
 10
-420.5
 20
1087.0
 30
0.0
 11
-420.5
 21
1159.0
 31
0.0
  0
LINE
  5
F2
100
AcDbEntity
  8
D-STR
  6
CONTINUOUS
 62
       1
100
AcDbLine
 10
-380.5
 20
1161.0
 30
0.0
 11
-416.5
 21
1161.0
 31
0.0
  0
LINE
  5
F3
100
AcDbEntity
  8
D-STR
  6
CONTINUOUS
 62
       1
100
AcDbLine
 10
-418.5
 20
1159.0
 30
0.0
 11
-418.5
 21
1087.0
 31
0.0
  0
LINE
  5
F4
100
AcDbEntity
  8
D-STR
  6
CONTINUOUS
 62
       1
100
AcDbLine
 10
-416.5
 20
1085.0
 30
0.0
 11
-380.5
 21
1085.0
 31
0.0
  0
LINE
  5
F5
100
AcDbEntity
  8
D-STR
  6
CONTINUOUS
 62
       1
100
AcDbLine
 10
-380.5
 20
1083.0
 30
0.0
 11
-380.5
 21
1085.0
 31
0.0
  0
LINE
  5
F6
100
AcDbEntity
  8
D-STR
  6
CONTINUOUS
 62
       1
100
AcDbLine
 10
-380.5
 20
1161.0
 30
0.0
 11
-380.5
 21
1163.0
 31
0.0
  0
ARC
  5
F7
100
AcDbEntity
  8
D-STR
  6
CONTINUOUS
 62
       1
100
AcDbCircle
 10
-416.5
 20
1159.0
 30
0.0
 40
2.0
100
AcDbArc
 50
90.0
 51
180.0
  0
ARC
  5
F8
100
AcDbEntity
  8
D-STR
  6
CONTINUOUS
 62
       1
100
AcDbCircle
 10
-416.5
 20
1087.0
 30
0.0
 40
2.0
100
AcDbArc
 50
180.0
 51
270.0
  0
ARC
  5
F9
100
AcDbEntity
  8
D-STR
  6
CONTINUOUS
 62
       1
100
AcDbCircle
 10
-416.5
 20
1087.0
 30
0.0
 40
4.0
100
AcDbArc
 50
180.0
 51
270.0
  0
ARC
  5
FA
100
AcDbEntity
  8
D-STR
  6
CONTINUOUS
 62
       1
100
AcDbCircle
 10
-416.5
 20
1159.0
 30
0.0
 40
4.0
100
AcDbArc
 50
90.0
 51
180.0
  0
ENDBLK
  5
FB
100
AcDbEntity
  8
0
100
AcDbBlockEnd
  0
BLOCK
  5
FC
100
AcDbEntity
  8
0
100
AcDbBlockBegin
  2
GROUP_12
 70
       0
 10
0.0
 20
0.0
 30
0.0
  3
GROUP_12
  1

  0
LINE
  5
FD
100
AcDbEntity
  8
D-STR
  6
CONTINUOUS
 62
       1
100
AcDbLine
 10
-280.5
 20
1083.0
 30
0.0
 11
-314.5
 21
1083.0
 31
0.0
  0
LINE
  5
FE
100
AcDbEntity
  8
D-STR
  6
CONTINUOUS
 62
       1
100
AcDbLine
 10
-314.5
 20
1163.0
 30
0.0
 11
-280.5
 21
1163.0
 31
0.0
  0
LINE
  5
FF
100
AcDbEntity
  8
D-STR
  6
CONTINUOUS
 62
       1
100
AcDbLine
 10
-320.5
 20
1089.0
 30
0.0
 11
-320.5
 21
1157.0
 31
0.0
  0
LINE
  5
100
100
AcDbEntity
  8
D-STR
  6
CONTINUOUS
 62
       1
100
AcDbLine
 10
-314.5
 20
1086.0
 30
0.0
 11
-280.5
 21
1086.0
 31
0.0
  0
LINE
  5
101
100
AcDbEntity
  8
D-STR
  6
CONTINUOUS
 62
       1
100
AcDbLine
 10
-317.5
 20
1157.0
 30
0.0
 11
-317.5
 21
1089.0
 31
0.0
  0
LINE
  5
102
100
AcDbEntity
  8
D-STR
  6
CONTINUOUS
 62
       1
100
AcDbLine
 10
-280.5
 20
1160.0
 30
0.0
 11
-314.5
 21
1160.0
 31
0.0
  0
LINE
  5
103
100
AcDbEntity
  8
D-STR
  6
CONTINUOUS
 62
       1
100
AcDbLine
 10
-280.5
 20
1083.0
 30
0.0
 11
-280.5
 21
1086.0
 31
0.0
  0
LINE
  5
104
100
AcDbEntity
  8
D-STR
  6
CONTINUOUS
 62
       1
100
AcDbLine
 10
-280.5
 20
1160.0
 30
0.0
 11
-280.5
 21
1163.0
 31
0.0
  0
ARC
  5
105
100
AcDbEntity
  8
D-STR
  6
CONTINUOUS
 62
       1
100
AcDbCircle
 10
-314.5
 20
1157.0
 30
0.0
 40
3.0
100
AcDbArc
 50
90.0
 51
180.0
  0
ARC
  5
106
100
AcDbEntity
  8
D-STR
  6
CONTINUOUS
 62
       1
100
AcDbCircle
 10
-314.5
 20
1089.0
 30
0.0
 40
3.0
100
AcDbArc
 50
180.0
 51
270.0
  0
ARC
  5
107
100
AcDbEntity
  8
D-STR
  6
CONTINUOUS
 62
       1
100
AcDbCircle
 10
-314.5
 20
1089.0
 30
0.0
 40
6.0
100
AcDbArc
 50
180.0
 51
270.0
  0
ARC
  5
108
100
AcDbEntity
  8
D-STR
  6
CONTINUOUS
 62
       1
100
AcDbCircle
 10
-314.5
 20
1157.0
 30
0.0
 40
6.0
100
AcDbArc
 50
90.0
 51
180.0
  0
ENDBLK
  5
109
100
AcDbEntity
  8
0
100
AcDbBlockEnd
  0
BLOCK
  5
10A
100
AcDbEntity
  8
0
100
AcDbBlockBegin
  2
GROUP_13
 70
       0
 10
0.0
 20
0.0
 30
0.0
  3
GROUP_13
  1

  0
LINE
  5
10B
100
AcDbEntity
  8
D-STR
  6
CONTINUOUS
 62
       1
100
AcDbLine
 10
-180.5
 20
1083.0
 30
0.0
 11
-212.5
 21
1083.0
 31
0.0
  0
LINE
  5
10C
100
AcDbEntity
  8
D-STR
  6
CONTINUOUS
 62
       1
100
AcDbLine
 10
-212.5
 20
1163.0
 30
0.0
 11
-180.5
 21
1163.0
 31
0.0
  0
LINE
  5
10D
100
AcDbEntity
  8
D-STR
  6
CONTINUOUS
 62
       1
100
AcDbLine
 10
-220.5
 20
1091.0
 30
0.0
 11
-220.5
 21
1155.0
 31
0.0
  0
LINE
  5
10E
100
AcDbEntity
  8
D-STR
  6
CONTINUOUS
 62
       1
100
AcDbLine
 10
-180.5
 20
1159.0
 30
0.0
 11
-212.5
 21
1159.0
 31
0.0
  0
LINE
  5
10F
100
AcDbEntity
  8
D-STR
  6
CONTINUOUS
 62
       1
100
AcDbLine
 10
-216.5
 20
1155.0
 30
0.0
 11
-216.5
 21
1091.0
 31
0.0
  0
LINE
  5
110
100
AcDbEntity
  8
D-STR
  6
CONTINUOUS
 62
       1
100
AcDbLine
 10
-212.5
 20
1087.0
 30
0.0
 11
-180.5
 21
1087.0
 31
0.0
  0
LINE
  5
111
100
AcDbEntity
  8
D-STR
  6
CONTINUOUS
 62
       1
100
AcDbLine
 10
-180.5
 20
1083.0
 30
0.0
 11
-180.5
 21
1087.0
 31
0.0
  0
LINE
  5
112
100
AcDbEntity
  8
D-STR
  6
CONTINUOUS
 62
       1
100
AcDbLine
 10
-180.5
 20
1159.0
 30
0.0
 11
-180.5
 21
1163.0
 31
0.0
  0
ARC
  5
113
100
AcDbEntity
  8
D-STR
  6
CONTINUOUS
 62
       1
100
AcDbCircle
 10
-212.5
 20
1155.0
 30
0.0
 40
4.0
100
AcDbArc
 50
90.0
 51
180.0
  0
ARC
  5
114
100
AcDbEntity
  8
D-STR
  6
CONTINUOUS
 62
       1
100
AcDbCircle
 10
-212.5
 20
1091.0
 30
0.0
 40
4.0
100
AcDbArc
 50
180.0
 51
270.0
  0
ARC
  5
115
100
AcDbEntity
  8
D-STR
  6
CONTINUOUS
 62
       1
100
AcDbCircle
 10
-212.5
 20
1091.0
 30
0.0
 40
8.0
100
AcDbArc
 50
180.0
 51
270.0
  0
ARC
  5
116
100
AcDbEntity
  8
D-STR
  6
CONTINUOUS
 62
       1
100
AcDbCircle
 10
-212.5
 20
1155.0
 30
0.0
 40
8.0
100
AcDbArc
 50
90.0
 51
180.0
  0
ENDBLK
  5
117
100
AcDbEntity
  8
0
100
AcDbBlockEnd
  0
BLOCK
  5
118
100
AcDbEntity
  8
0
100
AcDbBlockBegin
  2
GROUP_14
 70
       0
 10
0.0
 20
0.0
 30
0.0
  3
GROUP_14
  1

  0
LINE
  5
119
100
AcDbEntity
  8
D-STR
  6
CONTINUOUS
 62
       1
100
AcDbLine
 10
-80.5
 20
1083.0
 30
0.0
 11
-110.5
 21
1083.0
 31
0.0
  0
LINE
  5
11A
100
AcDbEntity
  8
D-STR
  6
CONTINUOUS
 62
       1
100
AcDbLine
 10
-110.5
 20
1163.0
 30
0.0
 11
-80.5
 21
1163.0
 31
0.0
  0
LINE
  5
11B
100
AcDbEntity
  8
D-STR
  6
CONTINUOUS
 62
       1
100
AcDbLine
 10
-120.5
 20
1093.0
 30
0.0
 11
-120.5
 21
1153.0
 31
0.0
  0
LINE
  5
11C
100
AcDbEntity
  8
D-STR
  6
CONTINUOUS
 62
       1
100
AcDbLine
 10
-110.5
 20
1088.0
 30
0.0
 11
-80.5
 21
1088.0
 31
0.0
  0
LINE
  5
11D
100
AcDbEntity
  8
D-STR
  6
CONTINUOUS
 62
       1
100
AcDbLine
 10
-115.5
 20
1153.0
 30
0.0
 11
-115.5
 21
1093.0
 31
0.0
  0
LINE
  5
11E
100
AcDbEntity
  8
D-STR
  6
CONTINUOUS
 62
       1
100
AcDbLine
 10
-80.5
 20
1158.0
 30
0.0
 11
-110.5
 21
1158.0
 31
0.0
  0
LINE
  5
11F
100
AcDbEntity
  8
D-STR
  6
CONTINUOUS
 62
       1
100
AcDbLine
 10
-80.5
 20
1083.0
 30
0.0
 11
-80.5
 21
1088.0
 31
0.0
  0
LINE
  5
120
100
AcDbEntity
  8
D-STR
  6
CONTINUOUS
 62
       1
100
AcDbLine
 10
-80.5
 20
1158.0
 30
0.0
 11
-80.5
 21
1163.0
 31
0.0
  0
ARC
  5
121
100
AcDbEntity
  8
D-STR
  6
CONTINUOUS
 62
       1
100
AcDbCircle
 10
-110.5
 20
1153.0
 30
0.0
 40
5.0
100
AcDbArc
 50
90.0
 51
180.0
  0
ARC
  5
122
100
AcDbEntity
  8
D-STR
  6
CONTINUOUS
 62
       1
100
AcDbCircle
 10
-110.5
 20
1093.0
 30
0.0
 40
5.0
100
AcDbArc
 50
180.0
 51
270.0
  0
ARC
  5
123
100
AcDbEntity
  8
D-STR
  6
CONTINUOUS
 62
       1
100
AcDbCircle
 10
-110.5
 20
1093.0
 30
0.0
 40
10.0
100
AcDbArc
 50
180.0
 51
270.0
  0
ARC
  5
124
100
AcDbEntity
  8
D-STR
  6
CONTINUOUS
 62
       1
100
AcDbCircle
 10
-110.5
 20
1153.0
 30
0.0
 40
10.0
100
AcDbArc
 50
90.0
 51
180.0
  0
ENDBLK
  5
125
100
AcDbEntity
  8
0
100
AcDbBlockEnd
  0
BLOCK
  5
126
100
AcDbEntity
  8
0
100
AcDbBlockBegin
  2
GROUP_15
 70
       0
 10
0.0
 20
0.0
 30
0.0
  3
GROUP_15
  1

  0
LINE
  5
127
100
AcDbEntity
  8
D-STR
  6
CONTINUOUS
 62
       1
100
AcDbLine
 10
19.5
 20
1083.0
 30
0.0
 11
-8.5
 21
1083.0
 31
0.0
  0
LINE
  5
128
100
AcDbEntity
  8
D-STR
  6
CONTINUOUS
 62
       1
100
AcDbLine
 10
-8.5
 20
1163.0
 30
0.0
 11
19.5
 21
1163.0
 31
0.0
  0
LINE
  5
129
100
AcDbEntity
  8
D-STR
  6
CONTINUOUS
 62
       1
100
AcDbLine
 10
-20.5
 20
1095.0
 30
0.0
 11
-20.5
 21
1151.0
 31
0.0
  0
LINE
  5
12A
100
AcDbEntity
  8
D-STR
  6
CONTINUOUS
 62
       1
100
AcDbLine
 10
19.5
 20
1157.0
 30
0.0
 11
-8.5
 21
1157.0
 31
0.0
  0
LINE
  5
12B
100
AcDbEntity
  8
D-STR
  6
CONTINUOUS
 62
       1
100
AcDbLine
 10
-14.5
 20
1151.0
 30
0.0
 11
-14.5
 21
1095.0
 31
0.0
  0
LINE
  5
12C
100
AcDbEntity
  8
D-STR
  6
CONTINUOUS
 62
       1
100
AcDbLine
 10
-8.5
 20
1089.0
 30
0.0
 11
19.5
 21
1089.0
 31
0.0
  0
LINE
  5
12D
100
AcDbEntity
  8
D-STR
  6
CONTINUOUS
 62
       1
100
AcDbLine
 10
19.5
 20
1083.0
 30
0.0
 11
19.5
 21
1089.0
 31
0.0
  0
LINE
  5
12E
100
AcDbEntity
  8
D-STR
  6
CONTINUOUS
 62
       1
100
AcDbLine
 10
19.5
 20
1157.0
 30
0.0
 11
19.5
 21
1163.0
 31
0.0
  0
ARC
  5
12F
100
AcDbEntity
  8
D-STR
  6
CONTINUOUS
 62
       1
100
AcDbCircle
 10
-8.5
 20
1151.0
 30
0.0
 40
6.0
100
AcDbArc
 50
90.0
 51
180.0
  0
ARC
  5
130
100
AcDbEntity
  8
D-STR
  6
CONTINUOUS
 62
       1
100
AcDbCircle
 10
-8.5
 20
1095.0
 30
0.0
 40
6.0
100
AcDbArc
 50
180.0
 51
270.0
  0
ARC
  5
131
100
AcDbEntity
  8
D-STR
  6
CONTINUOUS
 62
       1
100
AcDbCircle
 10
-8.5
 20
1095.0
 30
0.0
 40
12.0
100
AcDbArc
 50
180.0
 51
270.0
  0
ARC
  5
132
100
AcDbEntity
  8
D-STR
  6
CONTINUOUS
 62
       1
100
AcDbCircle
 10
-8.5
 20
1151.0
 30
0.0
 40
12.0
100
AcDbArc
 50
90.0
 51
180.0
  0
ENDBLK
  5
133
100
AcDbEntity
  8
0
100
AcDbBlockEnd
  0
BLOCK
  5
134
100
AcDbEntity
  8
0
100
AcDbBlockBegin
  2
GROUP_16
 70
       0
 10
0.0
 20
0.0
 30
0.0
  3
GROUP_16
  1

  0
LINE
  5
135
100
AcDbEntity
  8
D-STR
  6
CONTINUOUS
 62
       1
100
AcDbLine
 10
29.5
 20
933.0
 30
0.0
 11
-8.5
 21
933.0
 31
0.0
  0
LINE
  5
136
100
AcDbEntity
  8
D-STR
  6
CONTINUOUS
 62
       1
100
AcDbLine
 10
-8.5
 20
1033.0
 30
0.0
 11
29.5
 21
1033.0
 31
0.0
  0
LINE
  5
137
100
AcDbEntity
  8
D-STR
  6
CONTINUOUS
 62
       1
100
AcDbLine
 10
-20.5
 20
945.0
 30
0.0
 11
-20.5
 21
1021.0
 31
0.0
  0
LINE
  5
138
100
AcDbEntity
  8
D-STR
  6
CONTINUOUS
 62
       1
100
AcDbLine
 10
29.5
 20
1027.0
 30
0.0
 11
-8.5
 21
1027.0
 31
0.0
  0
LINE
  5
139
100
AcDbEntity
  8
D-STR
  6
CONTINUOUS
 62
       1
100
AcDbLine
 10
-14.5
 20
1021.0
 30
0.0
 11
-14.5
 21
945.0
 31
0.0
  0
LINE
  5
13A
100
AcDbEntity
  8
D-STR
  6
CONTINUOUS
 62
       1
100
AcDbLine
 10
-8.5
 20
939.0
 30
0.0
 11
29.5
 21
939.0
 31
0.0
  0
LINE
  5
13B
100
AcDbEntity
  8
D-STR
  6
CONTINUOUS
 62
       1
100
AcDbLine
 10
29.5
 20
933.0
 30
0.0
 11
29.5
 21
939.0
 31
0.0
  0
LINE
  5
13C
100
AcDbEntity
  8
D-STR
  6
CONTINUOUS
 62
       1
100
AcDbLine
 10
29.5
 20
1027.0
 30
0.0
 11
29.5
 21
1033.0
 31
0.0
  0
ARC
  5
13D
100
AcDbEntity
  8
D-STR
  6
CONTINUOUS
 62
       1
100
AcDbCircle
 10
-8.5
 20
1021.0
 30
0.0
 40
6.0
100
AcDbArc
 50
90.0
 51
180.0
  0
ARC
  5
13E
100
AcDbEntity
  8
D-STR
  6
CONTINUOUS
 62
       1
100
AcDbCircle
 10
-8.5
 20
945.0
 30
0.0
 40
6.0
100
AcDbArc
 50
180.0
 51
270.0
  0
ARC
  5
13F
100
AcDbEntity
  8
D-STR
  6
CONTINUOUS
 62
       1
100
AcDbCircle
 10
-8.5
 20
945.0
 30
0.0
 40
12.0
100
AcDbArc
 50
180.0
 51
270.0
  0
ARC
  5
140
100
AcDbEntity
  8
D-STR
  6
CONTINUOUS
 62
       1
100
AcDbCircle
 10
-8.5
 20
1021.0
 30
0.0
 40
12.0
100
AcDbArc
 50
90.0
 51
180.0
  0
ENDBLK
  5
141
100
AcDbEntity
  8
0
100
AcDbBlockEnd
  0
BLOCK
  5
142
100
AcDbEntity
  8
0
100
AcDbBlockBegin
  2
GROUP_17
 70
       0
 10
0.0
 20
0.0
 30
0.0
  3
GROUP_17
  1

  0
LINE
  5
143
100
AcDbEntity
  8
D-STR
  6
CONTINUOUS
 62
       1
100
AcDbLine
 10
-70.5
 20
933.0
 30
0.0
 11
-110.5
 21
933.0
 31
0.0
  0
LINE
  5
144
100
AcDbEntity
  8
D-STR
  6
CONTINUOUS
 62
       1
100
AcDbLine
 10
-110.5
 20
1033.0
 30
0.0
 11
-70.5
 21
1033.0
 31
0.0
  0
LINE
  5
145
100
AcDbEntity
  8
D-STR
  6
CONTINUOUS
 62
       1
100
AcDbLine
 10
-120.5
 20
943.0
 30
0.0
 11
-120.5
 21
1023.0
 31
0.0
  0
LINE
  5
146
100
AcDbEntity
  8
D-STR
  6
CONTINUOUS
 62
       1
100
AcDbLine
 10
-110.5
 20
938.0
 30
0.0
 11
-70.5
 21
938.0
 31
0.0
  0
LINE
  5
147
100
AcDbEntity
  8
D-STR
  6
CONTINUOUS
 62
       1
100
AcDbLine
 10
-115.5
 20
1023.0
 30
0.0
 11
-115.5
 21
943.0
 31
0.0
  0
LINE
  5
148
100
AcDbEntity
  8
D-STR
  6
CONTINUOUS
 62
       1
100
AcDbLine
 10
-70.5
 20
1028.0
 30
0.0
 11
-110.5
 21
1028.0
 31
0.0
  0
LINE
  5
149
100
AcDbEntity
  8
D-STR
  6
CONTINUOUS
 62
       1
100
AcDbLine
 10
-70.5
 20
933.0
 30
0.0
 11
-70.5
 21
938.0
 31
0.0
  0
LINE
  5
14A
100
AcDbEntity
  8
D-STR
  6
CONTINUOUS
 62
       1
100
AcDbLine
 10
-70.5
 20
1028.0
 30
0.0
 11
-70.5
 21
1033.0
 31
0.0
  0
ARC
  5
14B
100
AcDbEntity
  8
D-STR
  6
CONTINUOUS
 62
       1
100
AcDbCircle
 10
-110.5
 20
1023.0
 30
0.0
 40
5.0
100
AcDbArc
 50
90.0
 51
180.0
  0
ARC
  5
14C
100
AcDbEntity
  8
D-STR
  6
CONTINUOUS
 62
       1
100
AcDbCircle
 10
-110.5
 20
943.0
 30
0.0
 40
5.0
100
AcDbArc
 50
180.0
 51
270.0
  0
ARC
  5
14D
100
AcDbEntity
  8
D-STR
  6
CONTINUOUS
 62
       1
100
AcDbCircle
 10
-110.5
 20
943.0
 30
0.0
 40
10.0
100
AcDbArc
 50
180.0
 51
270.0
  0
ARC
  5
14E
100
AcDbEntity
  8
D-STR
  6
CONTINUOUS
 62
       1
100
AcDbCircle
 10
-110.5
 20
1023.0
 30
0.0
 40
10.0
100
AcDbArc
 50
90.0
 51
180.0
  0
ENDBLK
  5
14F
100
AcDbEntity
  8
0
100
AcDbBlockEnd
  0
BLOCK
  5
150
100
AcDbEntity
  8
0
100
AcDbBlockBegin
  2
GROUP_18
 70
       0
 10
0.0
 20
0.0
 30
0.0
  3
GROUP_18
  1

  0
LINE
  5
151
100
AcDbEntity
  8
D-STR
  6
CONTINUOUS
 62
       1
100
AcDbLine
 10
-170.5
 20
933.0
 30
0.0
 11
-212.5
 21
933.0
 31
0.0
  0
LINE
  5
152
100
AcDbEntity
  8
D-STR
  6
CONTINUOUS
 62
       1
100
AcDbLine
 10
-212.5
 20
1033.0
 30
0.0
 11
-170.5
 21
1033.0
 31
0.0
  0
LINE
  5
153
100
AcDbEntity
  8
D-STR
  6
CONTINUOUS
 62
       1
100
AcDbLine
 10
-220.5
 20
941.0
 30
0.0
 11
-220.5
 21
1025.0
 31
0.0
  0
LINE
  5
154
100
AcDbEntity
  8
D-STR
  6
CONTINUOUS
 62
       1
100
AcDbLine
 10
-170.5
 20
1029.0
 30
0.0
 11
-212.5
 21
1029.0
 31
0.0
  0
LINE
  5
155
100
AcDbEntity
  8
D-STR
  6
CONTINUOUS
 62
       1
100
AcDbLine
 10
-216.5
 20
1025.0
 30
0.0
 11
-216.5
 21
941.0
 31
0.0
  0
LINE
  5
156
100
AcDbEntity
  8
D-STR
  6
CONTINUOUS
 62
       1
100
AcDbLine
 10
-212.5
 20
937.0
 30
0.0
 11
-170.5
 21
937.0
 31
0.0
  0
LINE
  5
157
100
AcDbEntity
  8
D-STR
  6
CONTINUOUS
 62
       1
100
AcDbLine
 10
-170.5
 20
933.0
 30
0.0
 11
-170.5
 21
937.0
 31
0.0
  0
LINE
  5
158
100
AcDbEntity
  8
D-STR
  6
CONTINUOUS
 62
       1
100
AcDbLine
 10
-170.5
 20
1029.0
 30
0.0
 11
-170.5
 21
1033.0
 31
0.0
  0
ARC
  5
159
100
AcDbEntity
  8
D-STR
  6
CONTINUOUS
 62
       1
100
AcDbCircle
 10
-212.5
 20
1025.0
 30
0.0
 40
4.0
100
AcDbArc
 50
90.0
 51
180.0
  0
ARC
  5
15A
100
AcDbEntity
  8
D-STR
  6
CONTINUOUS
 62
       1
100
AcDbCircle
 10
-212.5
 20
941.0
 30
0.0
 40
4.0
100
AcDbArc
 50
180.0
 51
270.0
  0
ARC
  5
15B
100
AcDbEntity
  8
D-STR
  6
CONTINUOUS
 62
       1
100
AcDbCircle
 10
-212.5
 20
941.0
 30
0.0
 40
8.0
100
AcDbArc
 50
180.0
 51
270.0
  0
ARC
  5
15C
100
AcDbEntity
  8
D-STR
  6
CONTINUOUS
 62
       1
100
AcDbCircle
 10
-212.5
 20
1025.0
 30
0.0
 40
8.0
100
AcDbArc
 50
90.0
 51
180.0
  0
ENDBLK
  5
15D
100
AcDbEntity
  8
0
100
AcDbBlockEnd
  0
BLOCK
  5
15E
100
AcDbEntity
  8
0
100
AcDbBlockBegin
  2
GROUP_19
 70
       0
 10
0.0
 20
0.0
 30
0.0
  3
GROUP_19
  1

  0
LINE
  5
15F
100
AcDbEntity
  8
D-STR
  6
CONTINUOUS
 62
       1
100
AcDbLine
 10
-270.5
 20
933.0
 30
0.0
 11
-314.5
 21
933.0
 31
0.0
  0
LINE
  5
160
100
AcDbEntity
  8
D-STR
  6
CONTINUOUS
 62
       1
100
AcDbLine
 10
-314.5
 20
1033.0
 30
0.0
 11
-270.5
 21
1033.0
 31
0.0
  0
LINE
  5
161
100
AcDbEntity
  8
D-STR
  6
CONTINUOUS
 62
       1
100
AcDbLine
 10
-320.5
 20
939.0
 30
0.0
 11
-320.5
 21
1027.0
 31
0.0
  0
LINE
  5
162
100
AcDbEntity
  8
D-STR
  6
CONTINUOUS
 62
       1
100
AcDbLine
 10
-314.5
 20
936.0
 30
0.0
 11
-270.5
 21
936.0
 31
0.0
  0
LINE
  5
163
100
AcDbEntity
  8
D-STR
  6
CONTINUOUS
 62
       1
100
AcDbLine
 10
-317.5
 20
1027.0
 30
0.0
 11
-317.5
 21
939.0
 31
0.0
  0
LINE
  5
164
100
AcDbEntity
  8
D-STR
  6
CONTINUOUS
 62
       1
100
AcDbLine
 10
-270.5
 20
1030.0
 30
0.0
 11
-314.5
 21
1030.0
 31
0.0
  0
LINE
  5
165
100
AcDbEntity
  8
D-STR
  6
CONTINUOUS
 62
       1
100
AcDbLine
 10
-270.5
 20
933.0
 30
0.0
 11
-270.5
 21
936.0
 31
0.0
  0
LINE
  5
166
100
AcDbEntity
  8
D-STR
  6
CONTINUOUS
 62
       1
100
AcDbLine
 10
-270.5
 20
1030.0
 30
0.0
 11
-270.5
 21
1033.0
 31
0.0
  0
ARC
  5
167
100
AcDbEntity
  8
D-STR
  6
CONTINUOUS
 62
       1
100
AcDbCircle
 10
-314.5
 20
1027.0
 30
0.0
 40
3.0
100
AcDbArc
 50
90.0
 51
180.0
  0
ARC
  5
168
100
AcDbEntity
  8
D-STR
  6
CONTINUOUS
 62
       1
100
AcDbCircle
 10
-314.5
 20
939.0
 30
0.0
 40
3.0
100
AcDbArc
 50
180.0
 51
270.0
  0
ARC
  5
169
100
AcDbEntity
  8
D-STR
  6
CONTINUOUS
 62
       1
100
AcDbCircle
 10
-314.5
 20
939.0
 30
0.0
 40
6.0
100
AcDbArc
 50
180.0
 51
270.0
  0
ARC
  5
16A
100
AcDbEntity
  8
D-STR
  6
CONTINUOUS
 62
       1
100
AcDbCircle
 10
-314.5
 20
1027.0
 30
0.0
 40
6.0
100
AcDbArc
 50
90.0
 51
180.0
  0
ENDBLK
  5
16B
100
AcDbEntity
  8
0
100
AcDbBlockEnd
  0
BLOCK
  5
16C
100
AcDbEntity
  8
0
100
AcDbBlockBegin
  2
GROUP_20
 70
       0
 10
0.0
 20
0.0
 30
0.0
  3
GROUP_20
  1

  0
LINE
  5
16D
100
AcDbEntity
  8
D-STR
  6
CONTINUOUS
 62
       1
100
AcDbLine
 10
-370.5
 20
933.0
 30
0.0
 11
-416.5
 21
933.0
 31
0.0
  0
LINE
  5
16E
100
AcDbEntity
  8
D-STR
  6
CONTINUOUS
 62
       1
100
AcDbLine
 10
-416.5
 20
1033.0
 30
0.0
 11
-370.5
 21
1033.0
 31
0.0
  0
LINE
  5
16F
100
AcDbEntity
  8
D-STR
  6
CONTINUOUS
 62
       1
100
AcDbLine
 10
-420.5
 20
937.0
 30
0.0
 11
-420.5
 21
1029.0
 31
0.0
  0
LINE
  5
170
100
AcDbEntity
  8
D-STR
  6
CONTINUOUS
 62
       1
100
AcDbLine
 10
-370.5
 20
1031.0
 30
0.0
 11
-416.5
 21
1031.0
 31
0.0
  0
LINE
  5
171
100
AcDbEntity
  8
D-STR
  6
CONTINUOUS
 62
       1
100
AcDbLine
 10
-418.5
 20
1029.0
 30
0.0
 11
-418.5
 21
937.0
 31
0.0
  0
LINE
  5
172
100
AcDbEntity
  8
D-STR
  6
CONTINUOUS
 62
       1
100
AcDbLine
 10
-416.5
 20
935.0
 30
0.0
 11
-370.5
 21
935.0
 31
0.0
  0
LINE
  5
173
100
AcDbEntity
  8
D-STR
  6
CONTINUOUS
 62
       1
100
AcDbLine
 10
-370.5
 20
933.0
 30
0.0
 11
-370.5
 21
935.0
 31
0.0
  0
LINE
  5
174
100
AcDbEntity
  8
D-STR
  6
CONTINUOUS
 62
       1
100
AcDbLine
 10
-370.5
 20
1031.0
 30
0.0
 11
-370.5
 21
1033.0
 31
0.0
  0
ARC
  5
175
100
AcDbEntity
  8
D-STR
  6
CONTINUOUS
 62
       1
100
AcDbCircle
 10
-416.5
 20
1029.0
 30
0.0
 40
2.0
100
AcDbArc
 50
90.0
 51
180.0
  0
ARC
  5
176
100
AcDbEntity
  8
D-STR
  6
CONTINUOUS
 62
       1
100
AcDbCircle
 10
-416.5
 20
937.0
 30
0.0
 40
2.0
100
AcDbArc
 50
180.0
 51
270.0
  0
ARC
  5
177
100
AcDbEntity
  8
D-STR
  6
CONTINUOUS
 62
       1
100
AcDbCircle
 10
-416.5
 20
937.0
 30
0.0
 40
4.0
100
AcDbArc
 50
180.0
 51
270.0
  0
ARC
  5
178
100
AcDbEntity
  8
D-STR
  6
CONTINUOUS
 62
       1
100
AcDbCircle
 10
-416.5
 20
1029.0
 30
0.0
 40
4.0
100
AcDbArc
 50
90.0
 51
180.0
  0
ENDBLK
  5
179
100
AcDbEntity
  8
0
100
AcDbBlockEnd
  0
BLOCK
  5
17A
100
AcDbEntity
  8
0
100
AcDbBlockBegin
  2
GROUP_21
 70
       0
 10
0.0
 20
0.0
 30
0.0
  3
GROUP_21
  1

  0
LINE
  5
17B
100
AcDbEntity
  8
D-STR
  6
CONTINUOUS
 62
       1
100
AcDbLine
 10
-360.5
 20
753.0
 30
0.0
 11
-416.5
 21
753.0
 31
0.0
  0
LINE
  5
17C
100
AcDbEntity
  8
D-STR
  6
CONTINUOUS
 62
       1
100
AcDbLine
 10
-416.5
 20
873.0
 30
0.0
 11
-360.5
 21
873.0
 31
0.0
  0
LINE
  5
17D
100
AcDbEntity
  8
D-STR
  6
CONTINUOUS
 62
       1
100
AcDbLine
 10
-420.5
 20
757.0
 30
0.0
 11
-420.5
 21
869.0
 31
0.0
  0
LINE
  5
17E
100
AcDbEntity
  8
D-STR
  6
CONTINUOUS
 62
       1
100
AcDbLine
 10
-360.5
 20
871.0
 30
0.0
 11
-416.5
 21
871.0
 31
0.0
  0
LINE
  5
17F
100
AcDbEntity
  8
D-STR
  6
CONTINUOUS
 62
       1
100
AcDbLine
 10
-418.5
 20
869.0
 30
0.0
 11
-418.5
 21
757.0
 31
0.0
  0
LINE
  5
180
100
AcDbEntity
  8
D-STR
  6
CONTINUOUS
 62
       1
100
AcDbLine
 10
-416.5
 20
755.0
 30
0.0
 11
-360.5
 21
755.0
 31
0.0
  0
LINE
  5
181
100
AcDbEntity
  8
D-STR
  6
CONTINUOUS
 62
       1
100
AcDbLine
 10
-360.5
 20
753.0
 30
0.0
 11
-360.5
 21
755.0
 31
0.0
  0
LINE
  5
182
100
AcDbEntity
  8
D-STR
  6
CONTINUOUS
 62
       1
100
AcDbLine
 10
-360.5
 20
871.0
 30
0.0
 11
-360.5
 21
873.0
 31
0.0
  0
ARC
  5
183
100
AcDbEntity
  8
D-STR
  6
CONTINUOUS
 62
       1
100
AcDbCircle
 10
-416.5
 20
869.0
 30
0.0
 40
2.0
100
AcDbArc
 50
90.0
 51
180.0
  0
ARC
  5
184
100
AcDbEntity
  8
D-STR
  6
CONTINUOUS
 62
       1
100
AcDbCircle
 10
-416.5
 20
757.0
 30
0.0
 40
2.0
100
AcDbArc
 50
180.0
 51
270.0
  0
ARC
  5
185
100
AcDbEntity
  8
D-STR
  6
CONTINUOUS
 62
       1
100
AcDbCircle
 10
-416.5
 20
757.0
 30
0.0
 40
4.0
100
AcDbArc
 50
180.0
 51
270.0
  0
ARC
  5
186
100
AcDbEntity
  8
D-STR
  6
CONTINUOUS
 62
       1
100
AcDbCircle
 10
-416.5
 20
869.0
 30
0.0
 40
4.0
100
AcDbArc
 50
90.0
 51
180.0
  0
ENDBLK
  5
187
100
AcDbEntity
  8
0
100
AcDbBlockEnd
  0
BLOCK
  5
188
100
AcDbEntity
  8
0
100
AcDbBlockBegin
  2
GROUP_22
 70
       0
 10
0.0
 20
0.0
 30
0.0
  3
GROUP_22
  1

  0
LINE
  5
189
100
AcDbEntity
  8
D-STR
  6
CONTINUOUS
 62
       1
100
AcDbLine
 10
-314.5
 20
753.0
 30
0.0
 11
-260.5
 21
753.0
 31
0.0
  0
LINE
  5
18A
100
AcDbEntity
  8
D-STR
  6
CONTINUOUS
 62
       1
100
AcDbLine
 10
-314.5
 20
873.0
 30
0.0
 11
-260.5
 21
873.0
 31
0.0
  0
LINE
  5
18B
100
AcDbEntity
  8
D-STR
  6
CONTINUOUS
 62
       1
100
AcDbLine
 10
-320.5
 20
759.0
 30
0.0
 11
-320.5
 21
867.0
 31
0.0
  0
LINE
  5
18C
100
AcDbEntity
  8
D-STR
  6
CONTINUOUS
 62
       1
100
AcDbLine
 10
-314.5
 20
756.0
 30
0.0
 11
-260.5
 21
756.0
 31
0.0
  0
LINE
  5
18D
100
AcDbEntity
  8
D-STR
  6
CONTINUOUS
 62
       1
100
AcDbLine
 10
-317.5
 20
867.0
 30
0.0
 11
-317.5
 21
759.0
 31
0.0
  0
LINE
  5
18E
100
AcDbEntity
  8
D-STR
  6
CONTINUOUS
 62
       1
100
AcDbLine
 10
-260.5
 20
870.0
 30
0.0
 11
-314.5
 21
870.0
 31
0.0
  0
LINE
  5
18F
100
AcDbEntity
  8
D-STR
  6
CONTINUOUS
 62
       1
100
AcDbLine
 10
-260.5
 20
753.0
 30
0.0
 11
-260.5
 21
756.0
 31
0.0
  0
LINE
  5
190
100
AcDbEntity
  8
D-STR
  6
CONTINUOUS
 62
       1
100
AcDbLine
 10
-260.5
 20
870.0
 30
0.0
 11
-260.5
 21
873.0
 31
0.0
  0
ARC
  5
191
100
AcDbEntity
  8
D-STR
  6
CONTINUOUS
 62
       1
100
AcDbCircle
 10
-314.5
 20
867.0
 30
0.0
 40
3.0
100
AcDbArc
 50
90.0
 51
180.0
  0
ARC
  5
192
100
AcDbEntity
  8
D-STR
  6
CONTINUOUS
 62
       1
100
AcDbCircle
 10
-314.5
 20
759.0
 30
0.0
 40
3.0
100
AcDbArc
 50
180.0
 51
270.0
  0
ARC
  5
193
100
AcDbEntity
  8
D-STR
  6
CONTINUOUS
 62
       1
100
AcDbCircle
 10
-314.5
 20
759.0
 30
0.0
 40
6.0
100
AcDbArc
 50
180.0
 51
270.0
  0
ARC
  5
194
100
AcDbEntity
  8
D-STR
  6
CONTINUOUS
 62
       1
100
AcDbCircle
 10
-314.5
 20
867.0
 30
0.0
 40
6.0
100
AcDbArc
 50
90.0
 51
180.0
  0
ENDBLK
  5
195
100
AcDbEntity
  8
0
100
AcDbBlockEnd
  0
BLOCK
  5
196
100
AcDbEntity
  8
0
100
AcDbBlockBegin
  2
GROUP_23
 70
       0
 10
0.0
 20
0.0
 30
0.0
  3
GROUP_23
  1

  0
LINE
  5
197
100
AcDbEntity
  8
D-STR
  6
CONTINUOUS
 62
       1
100
AcDbLine
 10
-160.5
 20
753.0
 30
0.0
 11
-212.5
 21
753.0
 31
0.0
  0
LINE
  5
198
100
AcDbEntity
  8
D-STR
  6
CONTINUOUS
 62
       1
100
AcDbLine
 10
-212.5
 20
873.0
 30
0.0
 11
-160.5
 21
873.0
 31
0.0
  0
LINE
  5
199
100
AcDbEntity
  8
D-STR
  6
CONTINUOUS
 62
       1
100
AcDbLine
 10
-220.5
 20
761.0
 30
0.0
 11
-220.5
 21
865.0
 31
0.0
  0
LINE
  5
19A
100
AcDbEntity
  8
D-STR
  6
CONTINUOUS
 62
       1
100
AcDbLine
 10
-160.5
 20
869.0
 30
0.0
 11
-212.5
 21
869.0
 31
0.0
  0
LINE
  5
19B
100
AcDbEntity
  8
D-STR
  6
CONTINUOUS
 62
       1
100
AcDbLine
 10
-216.5
 20
865.0
 30
0.0
 11
-216.5
 21
761.0
 31
0.0
  0
LINE
  5
19C
100
AcDbEntity
  8
D-STR
  6
CONTINUOUS
 62
       1
100
AcDbLine
 10
-212.5
 20
757.0
 30
0.0
 11
-160.5
 21
757.0
 31
0.0
  0
LINE
  5
19D
100
AcDbEntity
  8
D-STR
  6
CONTINUOUS
 62
       1
100
AcDbLine
 10
-160.5
 20
753.0
 30
0.0
 11
-160.5
 21
757.0
 31
0.0
  0
LINE
  5
19E
100
AcDbEntity
  8
D-STR
  6
CONTINUOUS
 62
       1
100
AcDbLine
 10
-160.5
 20
869.0
 30
0.0
 11
-160.5
 21
873.0
 31
0.0
  0
ARC
  5
19F
100
AcDbEntity
  8
D-STR
  6
CONTINUOUS
 62
       1
100
AcDbCircle
 10
-212.5
 20
865.0
 30
0.0
 40
4.0
100
AcDbArc
 50
90.0
 51
180.0
  0
ARC
  5
1A0
100
AcDbEntity
  8
D-STR
  6
CONTINUOUS
 62
       1
100
AcDbCircle
 10
-212.5
 20
761.0
 30
0.0
 40
4.0
100
AcDbArc
 50
180.0
 51
270.0
  0
ARC
  5
1A1
100
AcDbEntity
  8
D-STR
  6
CONTINUOUS
 62
       1
100
AcDbCircle
 10
-212.5
 20
761.0
 30
0.0
 40
8.0
100
AcDbArc
 50
180.0
 51
270.0
  0
ARC
  5
1A2
100
AcDbEntity
  8
D-STR
  6
CONTINUOUS
 62
       1
100
AcDbCircle
 10
-212.5
 20
865.0
 30
0.0
 40
8.0
100
AcDbArc
 50
90.0
 51
180.0
  0
ENDBLK
  5
1A3
100
AcDbEntity
  8
0
100
AcDbBlockEnd
  0
BLOCK
  5
1A4
100
AcDbEntity
  8
0
100
AcDbBlockBegin
  2
GROUP_24
 70
       0
 10
0.0
 20
0.0
 30
0.0
  3
GROUP_24
  1

  0
LINE
  5
1A5
100
AcDbEntity
  8
D-STR
  6
CONTINUOUS
 62
       1
100
AcDbLine
 10
-60.5
 20
753.0
 30
0.0
 11
-110.5
 21
753.0
 31
0.0
  0
LINE
  5
1A6
100
AcDbEntity
  8
D-STR
  6
CONTINUOUS
 62
       1
100
AcDbLine
 10
-110.5
 20
873.0
 30
0.0
 11
-60.5
 21
873.0
 31
0.0
  0
LINE
  5
1A7
100
AcDbEntity
  8
D-STR
  6
CONTINUOUS
 62
       1
100
AcDbLine
 10
-120.5
 20
763.0
 30
0.0
 11
-120.5
 21
863.0
 31
0.0
  0
LINE
  5
1A8
100
AcDbEntity
  8
D-STR
  6
CONTINUOUS
 62
       1
100
AcDbLine
 10
-110.5
 20
758.0
 30
0.0
 11
-60.5
 21
758.0
 31
0.0
  0
LINE
  5
1A9
100
AcDbEntity
  8
D-STR
  6
CONTINUOUS
 62
       1
100
AcDbLine
 10
-115.5
 20
863.0
 30
0.0
 11
-115.5
 21
763.0
 31
0.0
  0
LINE
  5
1AA
100
AcDbEntity
  8
D-STR
  6
CONTINUOUS
 62
       1
100
AcDbLine
 10
-60.5
 20
868.0
 30
0.0
 11
-110.5
 21
868.0
 31
0.0
  0
LINE
  5
1AB
100
AcDbEntity
  8
D-STR
  6
CONTINUOUS
 62
       1
100
AcDbLine
 10
-60.5
 20
753.0
 30
0.0
 11
-60.5
 21
758.0
 31
0.0
  0
LINE
  5
1AC
100
AcDbEntity
  8
D-STR
  6
CONTINUOUS
 62
       1
100
AcDbLine
 10
-60.5
 20
868.0
 30
0.0
 11
-60.5
 21
873.0
 31
0.0
  0
ARC
  5
1AD
100
AcDbEntity
  8
D-STR
  6
CONTINUOUS
 62
       1
100
AcDbCircle
 10
-110.5
 20
863.0
 30
0.0
 40
5.0
100
AcDbArc
 50
90.0
 51
180.0
  0
ARC
  5
1AE
100
AcDbEntity
  8
D-STR
  6
CONTINUOUS
 62
       1
100
AcDbCircle
 10
-110.5
 20
763.0
 30
0.0
 40
5.0
100
AcDbArc
 50
180.0
 51
270.0
  0
ARC
  5
1AF
100
AcDbEntity
  8
D-STR
  6
CONTINUOUS
 62
       1
100
AcDbCircle
 10
-110.5
 20
763.0
 30
0.0
 40
10.0
100
AcDbArc
 50
180.0
 51
270.0
  0
ARC
  5
1B0
100
AcDbEntity
  8
D-STR
  6
CONTINUOUS
 62
       1
100
AcDbCircle
 10
-110.5
 20
863.0
 30
0.0
 40
10.0
100
AcDbArc
 50
90.0
 51
180.0
  0
ENDBLK
  5
1B1
100
AcDbEntity
  8
0
100
AcDbBlockEnd
  0
BLOCK
  5
1B2
100
AcDbEntity
  8
0
100
AcDbBlockBegin
  2
GROUP_25
 70
       0
 10
0.0
 20
0.0
 30
0.0
  3
GROUP_25
  1

  0
LINE
  5
1B3
100
AcDbEntity
  8
D-STR
  6
CONTINUOUS
 62
       1
100
AcDbLine
 10
39.5
 20
753.0
 30
0.0
 11
-8.5
 21
753.0
 31
0.0
  0
LINE
  5
1B4
100
AcDbEntity
  8
D-STR
  6
CONTINUOUS
 62
       1
100
AcDbLine
 10
-8.5
 20
873.0
 30
0.0
 11
39.5
 21
873.0
 31
0.0
  0
LINE
  5
1B5
100
AcDbEntity
  8
D-STR
  6
CONTINUOUS
 62
       1
100
AcDbLine
 10
-20.5
 20
765.0
 30
0.0
 11
-20.5
 21
861.0
 31
0.0
  0
LINE
  5
1B6
100
AcDbEntity
  8
D-STR
  6
CONTINUOUS
 62
       1
100
AcDbLine
 10
39.5
 20
867.0
 30
0.0
 11
-8.5
 21
867.0
 31
0.0
  0
LINE
  5
1B7
100
AcDbEntity
  8
D-STR
  6
CONTINUOUS
 62
       1
100
AcDbLine
 10
-14.5
 20
861.0
 30
0.0
 11
-14.5
 21
765.0
 31
0.0
  0
LINE
  5
1B8
100
AcDbEntity
  8
D-STR
  6
CONTINUOUS
 62
       1
100
AcDbLine
 10
-8.5
 20
759.0
 30
0.0
 11
39.5
 21
759.0
 31
0.0
  0
LINE
  5
1B9
100
AcDbEntity
  8
D-STR
  6
CONTINUOUS
 62
       1
100
AcDbLine
 10
39.5
 20
753.0
 30
0.0
 11
39.5
 21
759.0
 31
0.0
  0
LINE
  5
1BA
100
AcDbEntity
  8
D-STR
  6
CONTINUOUS
 62
       1
100
AcDbLine
 10
39.5
 20
867.0
 30
0.0
 11
39.5
 21
873.0
 31
0.0
  0
ARC
  5
1BB
100
AcDbEntity
  8
D-STR
  6
CONTINUOUS
 62
       1
100
AcDbCircle
 10
-8.5
 20
861.0
 30
0.0
 40
6.0
100
AcDbArc
 50
90.0
 51
180.0
  0
ARC
  5
1BC
100
AcDbEntity
  8
D-STR
  6
CONTINUOUS
 62
       1
100
AcDbCircle
 10
-8.5
 20
765.0
 30
0.0
 40
6.0
100
AcDbArc
 50
180.0
 51
270.0
  0
ARC
  5
1BD
100
AcDbEntity
  8
D-STR
  6
CONTINUOUS
 62
       1
100
AcDbCircle
 10
-8.5
 20
765.0
 30
0.0
 40
12.0
100
AcDbArc
 50
180.0
 51
270.0
  0
ARC
  5
1BE
100
AcDbEntity
  8
D-STR
  6
CONTINUOUS
 62
       1
100
AcDbCircle
 10
-8.5
 20
861.0
 30
0.0
 40
12.0
100
AcDbArc
 50
90.0
 51
180.0
  0
ENDBLK
  5
1BF
100
AcDbEntity
  8
0
100
AcDbBlockEnd
  0
BLOCK
  5
1C0
100
AcDbEntity
  8
0
100
AcDbBlockBegin
  2
GROUP_26
 70
       0
 10
0.0
 20
0.0
 30
0.0
  3
GROUP_26
  1

  0
LINE
  5
1C1
100
AcDbEntity
  8
D-STR
  6
CONTINUOUS
 62
       1
100
AcDbLine
 10
29.5
 20
528.0
 30
0.0
 11
-8.5
 21
528.0
 31
0.0
  0
LINE
  5
1C2
100
AcDbEntity
  8
D-STR
  6
CONTINUOUS
 62
       1
100
AcDbLine
 10
-8.5
 20
678.0
 30
0.0
 11
29.5
 21
678.0
 31
0.0
  0
LINE
  5
1C3
100
AcDbEntity
  8
D-STR
  6
CONTINUOUS
 62
       1
100
AcDbLine
 10
-20.5
 20
540.0
 30
0.0
 11
-20.5
 21
666.0
 31
0.0
  0
LINE
  5
1C4
100
AcDbEntity
  8
D-STR
  6
CONTINUOUS
 62
       1
100
AcDbLine
 10
29.5
 20
672.0
 30
0.0
 11
-8.5
 21
672.0
 31
0.0
  0
LINE
  5
1C5
100
AcDbEntity
  8
D-STR
  6
CONTINUOUS
 62
       1
100
AcDbLine
 10
-14.5
 20
666.0
 30
0.0
 11
-14.5
 21
540.0
 31
0.0
  0
LINE
  5
1C6
100
AcDbEntity
  8
D-STR
  6
CONTINUOUS
 62
       1
100
AcDbLine
 10
-8.5
 20
534.0
 30
0.0
 11
29.5
 21
534.0
 31
0.0
  0
LINE
  5
1C7
100
AcDbEntity
  8
D-STR
  6
CONTINUOUS
 62
       1
100
AcDbLine
 10
29.5
 20
528.0
 30
0.0
 11
29.5
 21
534.0
 31
0.0
  0
LINE
  5
1C8
100
AcDbEntity
  8
D-STR
  6
CONTINUOUS
 62
       1
100
AcDbLine
 10
29.5
 20
672.0
 30
0.0
 11
29.5
 21
678.0
 31
0.0
  0
ARC
  5
1C9
100
AcDbEntity
  8
D-STR
  6
CONTINUOUS
 62
       1
100
AcDbCircle
 10
-8.5
 20
666.0
 30
0.0
 40
6.0
100
AcDbArc
 50
90.0
 51
180.0
  0
ARC
  5
1CA
100
AcDbEntity
  8
D-STR
  6
CONTINUOUS
 62
       1
100
AcDbCircle
 10
-8.5
 20
540.0
 30
0.0
 40
6.0
100
AcDbArc
 50
180.0
 51
270.0
  0
ARC
  5
1CB
100
AcDbEntity
  8
D-STR
  6
CONTINUOUS
 62
       1
100
AcDbCircle
 10
-8.5
 20
540.0
 30
0.0
 40
12.0
100
AcDbArc
 50
180.0
 51
270.0
  0
ARC
  5
1CC
100
AcDbEntity
  8
D-STR
  6
CONTINUOUS
 62
       1
100
AcDbCircle
 10
-8.5
 20
666.0
 30
0.0
 40
12.0
100
AcDbArc
 50
90.0
 51
180.0
  0
ENDBLK
  5
1CD
100
AcDbEntity
  8
0
100
AcDbBlockEnd
  0
BLOCK
  5
1CE
100
AcDbEntity
  8
0
100
AcDbBlockBegin
  2
GROUP_27
 70
       0
 10
0.0
 20
0.0
 30
0.0
  3
GROUP_27
  1

  0
LINE
  5
1CF
100
AcDbEntity
  8
D-STR
  6
CONTINUOUS
 62
       1
100
AcDbLine
 10
-70.5
 20
528.0
 30
0.0
 11
-110.5
 21
528.0
 31
0.0
  0
LINE
  5
1D0
100
AcDbEntity
  8
D-STR
  6
CONTINUOUS
 62
       1
100
AcDbLine
 10
-110.5
 20
678.0
 30
0.0
 11
-70.5
 21
678.0
 31
0.0
  0
LINE
  5
1D1
100
AcDbEntity
  8
D-STR
  6
CONTINUOUS
 62
       1
100
AcDbLine
 10
-120.5
 20
538.0
 30
0.0
 11
-120.5
 21
668.0
 31
0.0
  0
LINE
  5
1D2
100
AcDbEntity
  8
D-STR
  6
CONTINUOUS
 62
       1
100
AcDbLine
 10
-110.5
 20
533.0
 30
0.0
 11
-70.5
 21
533.0
 31
0.0
  0
LINE
  5
1D3
100
AcDbEntity
  8
D-STR
  6
CONTINUOUS
 62
       1
100
AcDbLine
 10
-115.5
 20
668.0
 30
0.0
 11
-115.5
 21
538.0
 31
0.0
  0
LINE
  5
1D4
100
AcDbEntity
  8
D-STR
  6
CONTINUOUS
 62
       1
100
AcDbLine
 10
-70.5
 20
673.0
 30
0.0
 11
-110.5
 21
673.0
 31
0.0
  0
LINE
  5
1D5
100
AcDbEntity
  8
D-STR
  6
CONTINUOUS
 62
       1
100
AcDbLine
 10
-70.5
 20
528.0
 30
0.0
 11
-70.5
 21
533.0
 31
0.0
  0
LINE
  5
1D6
100
AcDbEntity
  8
D-STR
  6
CONTINUOUS
 62
       1
100
AcDbLine
 10
-70.5
 20
673.0
 30
0.0
 11
-70.5
 21
678.0
 31
0.0
  0
ARC
  5
1D7
100
AcDbEntity
  8
D-STR
  6
CONTINUOUS
 62
       1
100
AcDbCircle
 10
-110.5
 20
668.0
 30
0.0
 40
5.0
100
AcDbArc
 50
90.0
 51
180.0
  0
ARC
  5
1D8
100
AcDbEntity
  8
D-STR
  6
CONTINUOUS
 62
       1
100
AcDbCircle
 10
-110.5
 20
538.0
 30
0.0
 40
5.0
100
AcDbArc
 50
180.0
 51
270.0
  0
ARC
  5
1D9
100
AcDbEntity
  8
D-STR
  6
CONTINUOUS
 62
       1
100
AcDbCircle
 10
-110.5
 20
538.0
 30
0.0
 40
10.0
100
AcDbArc
 50
180.0
 51
270.0
  0
ARC
  5
1DA
100
AcDbEntity
  8
D-STR
  6
CONTINUOUS
 62
       1
100
AcDbCircle
 10
-110.5
 20
668.0
 30
0.0
 40
10.0
100
AcDbArc
 50
90.0
 51
180.0
  0
ENDBLK
  5
1DB
100
AcDbEntity
  8
0
100
AcDbBlockEnd
  0
BLOCK
  5
1DC
100
AcDbEntity
  8
0
100
AcDbBlockBegin
  2
GROUP_28
 70
       0
 10
0.0
 20
0.0
 30
0.0
  3
GROUP_28
  1

  0
LINE
  5
1DD
100
AcDbEntity
  8
D-STR
  6
CONTINUOUS
 62
       1
100
AcDbLine
 10
-170.5
 20
528.0
 30
0.0
 11
-212.5
 21
528.0
 31
0.0
  0
LINE
  5
1DE
100
AcDbEntity
  8
D-STR
  6
CONTINUOUS
 62
       1
100
AcDbLine
 10
-212.5
 20
678.0
 30
0.0
 11
-170.5
 21
678.0
 31
0.0
  0
LINE
  5
1DF
100
AcDbEntity
  8
D-STR
  6
CONTINUOUS
 62
       1
100
AcDbLine
 10
-220.5
 20
536.0
 30
0.0
 11
-220.5
 21
670.0
 31
0.0
  0
LINE
  5
1E0
100
AcDbEntity
  8
D-STR
  6
CONTINUOUS
 62
       1
100
AcDbLine
 10
-170.5
 20
674.0
 30
0.0
 11
-212.5
 21
674.0
 31
0.0
  0
LINE
  5
1E1
100
AcDbEntity
  8
D-STR
  6
CONTINUOUS
 62
       1
100
AcDbLine
 10
-216.5
 20
670.0
 30
0.0
 11
-216.5
 21
536.0
 31
0.0
  0
LINE
  5
1E2
100
AcDbEntity
  8
D-STR
  6
CONTINUOUS
 62
       1
100
AcDbLine
 10
-212.5
 20
532.0
 30
0.0
 11
-170.5
 21
532.0
 31
0.0
  0
LINE
  5
1E3
100
AcDbEntity
  8
D-STR
  6
CONTINUOUS
 62
       1
100
AcDbLine
 10
-170.5
 20
528.0
 30
0.0
 11
-170.5
 21
532.0
 31
0.0
  0
LINE
  5
1E4
100
AcDbEntity
  8
D-STR
  6
CONTINUOUS
 62
       1
100
AcDbLine
 10
-170.5
 20
674.0
 30
0.0
 11
-170.5
 21
678.0
 31
0.0
  0
ARC
  5
1E5
100
AcDbEntity
  8
D-STR
  6
CONTINUOUS
 62
       1
100
AcDbCircle
 10
-212.5
 20
670.0
 30
0.0
 40
4.0
100
AcDbArc
 50
90.0
 51
180.0
  0
ARC
  5
1E6
100
AcDbEntity
  8
D-STR
  6
CONTINUOUS
 62
       1
100
AcDbCircle
 10
-212.5
 20
536.0
 30
0.0
 40
4.0
100
AcDbArc
 50
180.0
 51
270.0
  0
ARC
  5
1E7
100
AcDbEntity
  8
D-STR
  6
CONTINUOUS
 62
       1
100
AcDbCircle
 10
-212.5
 20
536.0
 30
0.0
 40
8.0
100
AcDbArc
 50
180.0
 51
270.0
  0
ARC
  5
1E8
100
AcDbEntity
  8
D-STR
  6
CONTINUOUS
 62
       1
100
AcDbCircle
 10
-212.5
 20
670.0
 30
0.0
 40
8.0
100
AcDbArc
 50
90.0
 51
180.0
  0
ENDBLK
  5
1E9
100
AcDbEntity
  8
0
100
AcDbBlockEnd
  0
BLOCK
  5
1EA
100
AcDbEntity
  8
0
100
AcDbBlockBegin
  2
GROUP_29
 70
       0
 10
0.0
 20
0.0
 30
0.0
  3
GROUP_29
  1

  0
LINE
  5
1EB
100
AcDbEntity
  8
D-STR
  6
CONTINUOUS
 62
       1
100
AcDbLine
 10
-270.5
 20
528.0
 30
0.0
 11
-314.5
 21
528.0
 31
0.0
  0
LINE
  5
1EC
100
AcDbEntity
  8
D-STR
  6
CONTINUOUS
 62
       1
100
AcDbLine
 10
-314.5
 20
678.0
 30
0.0
 11
-270.5
 21
678.0
 31
0.0
  0
LINE
  5
1ED
100
AcDbEntity
  8
D-STR
  6
CONTINUOUS
 62
       1
100
AcDbLine
 10
-320.5
 20
534.0
 30
0.0
 11
-320.5
 21
672.0
 31
0.0
  0
LINE
  5
1EE
100
AcDbEntity
  8
D-STR
  6
CONTINUOUS
 62
       1
100
AcDbLine
 10
-314.5
 20
531.0
 30
0.0
 11
-270.5
 21
531.0
 31
0.0
  0
LINE
  5
1EF
100
AcDbEntity
  8
D-STR
  6
CONTINUOUS
 62
       1
100
AcDbLine
 10
-317.5
 20
672.0
 30
0.0
 11
-317.5
 21
534.0
 31
0.0
  0
LINE
  5
1F0
100
AcDbEntity
  8
D-STR
  6
CONTINUOUS
 62
       1
100
AcDbLine
 10
-270.5
 20
675.0
 30
0.0
 11
-314.5
 21
675.0
 31
0.0
  0
LINE
  5
1F1
100
AcDbEntity
  8
D-STR
  6
CONTINUOUS
 62
       1
100
AcDbLine
 10
-270.5
 20
528.0
 30
0.0
 11
-270.5
 21
531.0
 31
0.0
  0
LINE
  5
1F2
100
AcDbEntity
  8
D-STR
  6
CONTINUOUS
 62
       1
100
AcDbLine
 10
-270.5
 20
675.0
 30
0.0
 11
-270.5
 21
678.0
 31
0.0
  0
ARC
  5
1F3
100
AcDbEntity
  8
D-STR
  6
CONTINUOUS
 62
       1
100
AcDbCircle
 10
-314.5
 20
672.0
 30
0.0
 40
3.0
100
AcDbArc
 50
90.0
 51
180.0
  0
ARC
  5
1F4
100
AcDbEntity
  8
D-STR
  6
CONTINUOUS
 62
       1
100
AcDbCircle
 10
-314.5
 20
534.0
 30
0.0
 40
3.0
100
AcDbArc
 50
180.0
 51
270.0
  0
ARC
  5
1F5
100
AcDbEntity
  8
D-STR
  6
CONTINUOUS
 62
       1
100
AcDbCircle
 10
-314.5
 20
534.0
 30
0.0
 40
6.0
100
AcDbArc
 50
180.0
 51
270.0
  0
ARC
  5
1F6
100
AcDbEntity
  8
D-STR
  6
CONTINUOUS
 62
       1
100
AcDbCircle
 10
-314.5
 20
672.0
 30
0.0
 40
6.0
100
AcDbArc
 50
90.0
 51
180.0
  0
ENDBLK
  5
1F7
100
AcDbEntity
  8
0
100
AcDbBlockEnd
  0
BLOCK
  5
1F8
100
AcDbEntity
  8
0
100
AcDbBlockBegin
  2
GROUP_30
 70
       0
 10
0.0
 20
0.0
 30
0.0
  3
GROUP_30
  1

  0
LINE
  5
1F9
100
AcDbEntity
  8
D-STR
  6
CONTINUOUS
 62
       1
100
AcDbLine
 10
-370.5
 20
528.0
 30
0.0
 11
-416.5
 21
528.0
 31
0.0
  0
LINE
  5
1FA
100
AcDbEntity
  8
D-STR
  6
CONTINUOUS
 62
       1
100
AcDbLine
 10
-416.5
 20
678.0
 30
0.0
 11
-370.5
 21
678.0
 31
0.0
  0
LINE
  5
1FB
100
AcDbEntity
  8
D-STR
  6
CONTINUOUS
 62
       1
100
AcDbLine
 10
-420.5
 20
532.0
 30
0.0
 11
-420.5
 21
674.0
 31
0.0
  0
LINE
  5
1FC
100
AcDbEntity
  8
D-STR
  6
CONTINUOUS
 62
       1
100
AcDbLine
 10
-370.5
 20
676.0
 30
0.0
 11
-416.5
 21
676.0
 31
0.0
  0
LINE
  5
1FD
100
AcDbEntity
  8
D-STR
  6
CONTINUOUS
 62
       1
100
AcDbLine
 10
-418.5
 20
674.0
 30
0.0
 11
-418.5
 21
532.0
 31
0.0
  0
LINE
  5
1FE
100
AcDbEntity
  8
D-STR
  6
CONTINUOUS
 62
       1
100
AcDbLine
 10
-416.5
 20
530.0
 30
0.0
 11
-370.5
 21
530.0
 31
0.0
  0
LINE
  5
1FF
100
AcDbEntity
  8
D-STR
  6
CONTINUOUS
 62
       1
100
AcDbLine
 10
-370.5
 20
528.0
 30
0.0
 11
-370.5
 21
530.0
 31
0.0
  0
LINE
  5
200
100
AcDbEntity
  8
D-STR
  6
CONTINUOUS
 62
       1
100
AcDbLine
 10
-370.5
 20
676.0
 30
0.0
 11
-370.5
 21
678.0
 31
0.0
  0
ARC
  5
201
100
AcDbEntity
  8
D-STR
  6
CONTINUOUS
 62
       1
100
AcDbCircle
 10
-416.5
 20
674.0
 30
0.0
 40
2.0
100
AcDbArc
 50
90.0
 51
180.0
  0
ARC
  5
202
100
AcDbEntity
  8
D-STR
  6
CONTINUOUS
 62
       1
100
AcDbCircle
 10
-416.5
 20
532.0
 30
0.0
 40
2.0
100
AcDbArc
 50
180.0
 51
270.0
  0
ARC
  5
203
100
AcDbEntity
  8
D-STR
  6
CONTINUOUS
 62
       1
100
AcDbCircle
 10
-416.5
 20
532.0
 30
0.0
 40
4.0
100
AcDbArc
 50
180.0
 51
270.0
  0
ARC
  5
204
100
AcDbEntity
  8
D-STR
  6
CONTINUOUS
 62
       1
100
AcDbCircle
 10
-416.5
 20
674.0
 30
0.0
 40
4.0
100
AcDbArc
 50
90.0
 51
180.0
  0
ENDBLK
  5
205
100
AcDbEntity
  8
0
100
AcDbBlockEnd
  0
BLOCK
  5
206
100
AcDbEntity
  8
0
100
AcDbBlockBegin
  2
GROUP_31
 70
       0
 10
0.0
 20
0.0
 30
0.0
  3
GROUP_31
  1

  0
LINE
  5
207
100
AcDbEntity
  8
D-STR
  6
CONTINUOUS
 62
       1
100
AcDbLine
 10
-145.5
 20
303.0
 30
0.0
 11
-212.5
 21
303.0
 31
0.0
  0
LINE
  5
208
100
AcDbEntity
  8
D-STR
  6
CONTINUOUS
 62
       1
100
AcDbLine
 10
-212.5
 20
453.0
 30
0.0
 11
-145.5
 21
453.0
 31
0.0
  0
LINE
  5
209
100
AcDbEntity
  8
D-STR
  6
CONTINUOUS
 62
       1
100
AcDbLine
 10
-220.5
 20
311.0
 30
0.0
 11
-220.5
 21
445.0
 31
0.0
  0
LINE
  5
20A
100
AcDbEntity
  8
D-STR
  6
CONTINUOUS
 62
       1
100
AcDbLine
 10
-145.5
 20
449.0
 30
0.0
 11
-212.5
 21
449.0
 31
0.0
  0
LINE
  5
20B
100
AcDbEntity
  8
D-STR
  6
CONTINUOUS
 62
       1
100
AcDbLine
 10
-216.5
 20
445.0
 30
0.0
 11
-216.5
 21
311.0
 31
0.0
  0
LINE
  5
20C
100
AcDbEntity
  8
D-STR
  6
CONTINUOUS
 62
       1
100
AcDbLine
 10
-212.5
 20
307.0
 30
0.0
 11
-145.5
 21
307.0
 31
0.0
  0
LINE
  5
20D
100
AcDbEntity
  8
D-STR
  6
CONTINUOUS
 62
       1
100
AcDbLine
 10
-145.5
 20
303.0
 30
0.0
 11
-145.5
 21
307.0
 31
0.0
  0
LINE
  5
20E
100
AcDbEntity
  8
D-STR
  6
CONTINUOUS
 62
       1
100
AcDbLine
 10
-145.5
 20
449.0
 30
0.0
 11
-145.5
 21
453.0
 31
0.0
  0
ARC
  5
20F
100
AcDbEntity
  8
D-STR
  6
CONTINUOUS
 62
       1
100
AcDbCircle
 10
-212.5
 20
445.0
 30
0.0
 40
4.0
100
AcDbArc
 50
90.0
 51
180.0
  0
ARC
  5
210
100
AcDbEntity
  8
D-STR
  6
CONTINUOUS
 62
       1
100
AcDbCircle
 10
-212.5
 20
311.0
 30
0.0
 40
4.0
100
AcDbArc
 50
180.0
 51
270.0
  0
ARC
  5
211
100
AcDbEntity
  8
D-STR
  6
CONTINUOUS
 62
       1
100
AcDbCircle
 10
-212.5
 20
311.0
 30
0.0
 40
8.0
100
AcDbArc
 50
180.0
 51
270.0
  0
ARC
  5
212
100
AcDbEntity
  8
D-STR
  6
CONTINUOUS
 62
       1
100
AcDbCircle
 10
-212.5
 20
445.0
 30
0.0
 40
8.0
100
AcDbArc
 50
90.0
 51
180.0
  0
ENDBLK
  5
213
100
AcDbEntity
  8
0
100
AcDbBlockEnd
  0
BLOCK
  5
214
100
AcDbEntity
  8
0
100
AcDbBlockBegin
  2
GROUP_32
 70
       0
 10
0.0
 20
0.0
 30
0.0
  3
GROUP_32
  1

  0
LINE
  5
215
100
AcDbEntity
  8
D-STR
  6
CONTINUOUS
 62
       1
100
AcDbLine
 10
-45.5
 20
303.0
 30
0.0
 11
-110.5
 21
303.0
 31
0.0
  0
LINE
  5
216
100
AcDbEntity
  8
D-STR
  6
CONTINUOUS
 62
       1
100
AcDbLine
 10
-110.5
 20
453.0
 30
0.0
 11
-45.5
 21
453.0
 31
0.0
  0
LINE
  5
217
100
AcDbEntity
  8
D-STR
  6
CONTINUOUS
 62
       1
100
AcDbLine
 10
-120.5
 20
313.0
 30
0.0
 11
-120.5
 21
443.0
 31
0.0
  0
LINE
  5
218
100
AcDbEntity
  8
D-STR
  6
CONTINUOUS
 62
       1
100
AcDbLine
 10
-110.5
 20
308.0
 30
0.0
 11
-45.5
 21
308.0
 31
0.0
  0
LINE
  5
219
100
AcDbEntity
  8
D-STR
  6
CONTINUOUS
 62
       1
100
AcDbLine
 10
-115.5
 20
443.0
 30
0.0
 11
-115.5
 21
313.0
 31
0.0
  0
LINE
  5
21A
100
AcDbEntity
  8
D-STR
  6
CONTINUOUS
 62
       1
100
AcDbLine
 10
-45.5
 20
448.0
 30
0.0
 11
-110.5
 21
448.0
 31
0.0
  0
LINE
  5
21B
100
AcDbEntity
  8
D-STR
  6
CONTINUOUS
 62
       1
100
AcDbLine
 10
-45.5
 20
303.0
 30
0.0
 11
-45.5
 21
308.0
 31
0.0
  0
LINE
  5
21C
100
AcDbEntity
  8
D-STR
  6
CONTINUOUS
 62
       1
100
AcDbLine
 10
-45.5
 20
448.0
 30
0.0
 11
-45.5
 21
453.0
 31
0.0
  0
ARC
  5
21D
100
AcDbEntity
  8
D-STR
  6
CONTINUOUS
 62
       1
100
AcDbCircle
 10
-110.5
 20
443.0
 30
0.0
 40
5.0
100
AcDbArc
 50
90.0
 51
180.0
  0
ARC
  5
21E
100
AcDbEntity
  8
D-STR
  6
CONTINUOUS
 62
       1
100
AcDbCircle
 10
-110.5
 20
313.0
 30
0.0
 40
5.0
100
AcDbArc
 50
180.0
 51
270.0
  0
ARC
  5
21F
100
AcDbEntity
  8
D-STR
  6
CONTINUOUS
 62
       1
100
AcDbCircle
 10
-110.5
 20
313.0
 30
0.0
 40
10.0
100
AcDbArc
 50
180.0
 51
270.0
  0
ARC
  5
220
100
AcDbEntity
  8
D-STR
  6
CONTINUOUS
 62
       1
100
AcDbCircle
 10
-110.5
 20
443.0
 30
0.0
 40
10.0
100
AcDbArc
 50
90.0
 51
180.0
  0
ENDBLK
  5
221
100
AcDbEntity
  8
0
100
AcDbBlockEnd
  0
BLOCK
  5
222
100
AcDbEntity
  8
0
100
AcDbBlockBegin
  2
GROUP_33
 70
       0
 10
0.0
 20
0.0
 30
0.0
  3
GROUP_33
  1

  0
LINE
  5
223
100
AcDbEntity
  8
D-STR
  6
CONTINUOUS
 62
       1
100
AcDbLine
 10
54.5
 20
303.0
 30
0.0
 11
-8.5
 21
303.0
 31
0.0
  0
LINE
  5
224
100
AcDbEntity
  8
D-STR
  6
CONTINUOUS
 62
       1
100
AcDbLine
 10
-8.5
 20
453.0
 30
0.0
 11
54.5
 21
453.0
 31
0.0
  0
LINE
  5
225
100
AcDbEntity
  8
D-STR
  6
CONTINUOUS
 62
       1
100
AcDbLine
 10
-20.5
 20
315.0
 30
0.0
 11
-20.5
 21
441.0
 31
0.0
  0
LINE
  5
226
100
AcDbEntity
  8
D-STR
  6
CONTINUOUS
 62
       1
100
AcDbLine
 10
54.5
 20
447.0
 30
0.0
 11
-8.5
 21
447.0
 31
0.0
  0
LINE
  5
227
100
AcDbEntity
  8
D-STR
  6
CONTINUOUS
 62
       1
100
AcDbLine
 10
-14.5
 20
441.0
 30
0.0
 11
-14.5
 21
315.0
 31
0.0
  0
LINE
  5
228
100
AcDbEntity
  8
D-STR
  6
CONTINUOUS
 62
       1
100
AcDbLine
 10
-8.5
 20
309.0
 30
0.0
 11
54.5
 21
309.0
 31
0.0
  0
LINE
  5
229
100
AcDbEntity
  8
D-STR
  6
CONTINUOUS
 62
       1
100
AcDbLine
 10
54.5
 20
303.0
 30
0.0
 11
54.5
 21
309.0
 31
0.0
  0
LINE
  5
22A
100
AcDbEntity
  8
D-STR
  6
CONTINUOUS
 62
       1
100
AcDbLine
 10
54.5
 20
447.0
 30
0.0
 11
54.5
 21
453.0
 31
0.0
  0
ARC
  5
22B
100
AcDbEntity
  8
D-STR
  6
CONTINUOUS
 62
       1
100
AcDbCircle
 10
-8.5
 20
441.0
 30
0.0
 40
6.0
100
AcDbArc
 50
90.0
 51
180.0
  0
ARC
  5
22C
100
AcDbEntity
  8
D-STR
  6
CONTINUOUS
 62
       1
100
AcDbCircle
 10
-8.5
 20
315.0
 30
0.0
 40
6.0
100
AcDbArc
 50
180.0
 51
270.0
  0
ARC
  5
22D
100
AcDbEntity
  8
D-STR
  6
CONTINUOUS
 62
       1
100
AcDbCircle
 10
-8.5
 20
315.0
 30
0.0
 40
12.0
100
AcDbArc
 50
180.0
 51
270.0
  0
ARC
  5
22E
100
AcDbEntity
  8
D-STR
  6
CONTINUOUS
 62
       1
100
AcDbCircle
 10
-8.5
 20
441.0
 30
0.0
 40
12.0
100
AcDbArc
 50
90.0
 51
180.0
  0
ENDBLK
  5
22F
100
AcDbEntity
  8
0
100
AcDbBlockEnd
  0
BLOCK
  5
230
100
AcDbEntity
  8
0
100
AcDbBlockBegin
  2
GROUP_34
 70
       0
 10
0.0
 20
0.0
 30
0.0
  3
GROUP_34
  1

  0
LINE
  5
231
100
AcDbEntity
  8
D-STR
  6
CONTINUOUS
 62
       1
100
AcDbLine
 10
29.5
 20
3.0
 30
0.0
 11
-8.5
 21
3.0
 31
0.0
  0
LINE
  5
232
100
AcDbEntity
  8
D-STR
  6
CONTINUOUS
 62
       1
100
AcDbLine
 10
-8.5
 20
203.0
 30
0.0
 11
29.5
 21
203.0
 31
0.0
  0
LINE
  5
233
100
AcDbEntity
  8
D-STR
  6
CONTINUOUS
 62
       1
100
AcDbLine
 10
-20.5
 20
15.0
 30
0.0
 11
-20.5
 21
191.0
 31
0.0
  0
LINE
  5
234
100
AcDbEntity
  8
D-STR
  6
CONTINUOUS
 62
       1
100
AcDbLine
 10
29.5
 20
197.0
 30
0.0
 11
-8.5
 21
197.0
 31
0.0
  0
LINE
  5
235
100
AcDbEntity
  8
D-STR
  6
CONTINUOUS
 62
       1
100
AcDbLine
 10
-14.5
 20
191.0
 30
0.0
 11
-14.5
 21
15.0
 31
0.0
  0
LINE
  5
236
100
AcDbEntity
  8
D-STR
  6
CONTINUOUS
 62
       1
100
AcDbLine
 10
-8.5
 20
9.0
 30
0.0
 11
29.5
 21
9.0
 31
0.0
  0
LINE
  5
237
100
AcDbEntity
  8
D-STR
  6
CONTINUOUS
 62
       1
100
AcDbLine
 10
29.5
 20
3.0
 30
0.0
 11
29.5
 21
9.0
 31
0.0
  0
LINE
  5
238
100
AcDbEntity
  8
D-STR
  6
CONTINUOUS
 62
       1
100
AcDbLine
 10
29.5
 20
197.0
 30
0.0
 11
29.5
 21
203.0
 31
0.0
  0
ARC
  5
239
100
AcDbEntity
  8
D-STR
  6
CONTINUOUS
 62
       1
100
AcDbCircle
 10
-8.5
 20
191.0
 30
0.0
 40
6.0
100
AcDbArc
 50
90.0
 51
180.0
  0
ARC
  5
23A
100
AcDbEntity
  8
D-STR
  6
CONTINUOUS
 62
       1
100
AcDbCircle
 10
-8.5
 20
15.0
 30
0.0
 40
6.0
100
AcDbArc
 50
180.0
 51
270.0
  0
ARC
  5
23B
100
AcDbEntity
  8
D-STR
  6
CONTINUOUS
 62
       1
100
AcDbCircle
 10
-8.5
 20
15.0
 30
0.0
 40
12.0
100
AcDbArc
 50
180.0
 51
270.0
  0
ARC
  5
23C
100
AcDbEntity
  8
D-STR
  6
CONTINUOUS
 62
       1
100
AcDbCircle
 10
-8.5
 20
191.0
 30
0.0
 40
12.0
100
AcDbArc
 50
90.0
 51
180.0
  0
ENDBLK
  5
23D
100
AcDbEntity
  8
0
100
AcDbBlockEnd
  0
BLOCK
  5
23E
100
AcDbEntity
  8
0
100
AcDbBlockBegin
  2
GROUP_35
 70
       0
 10
0.0
 20
0.0
 30
0.0
  3
GROUP_35
  1

  0
LINE
  5
23F
100
AcDbEntity
  8
D-STR
  6
CONTINUOUS
 62
       1
100
AcDbLine
 10
-70.5
 20
3.0
 30
0.0
 11
-110.5
 21
3.0
 31
0.0
  0
LINE
  5
240
100
AcDbEntity
  8
D-STR
  6
CONTINUOUS
 62
       1
100
AcDbLine
 10
-110.5
 20
203.0
 30
0.0
 11
-70.5
 21
203.0
 31
0.0
  0
LINE
  5
241
100
AcDbEntity
  8
D-STR
  6
CONTINUOUS
 62
       1
100
AcDbLine
 10
-120.5
 20
13.0
 30
0.0
 11
-120.5
 21
193.0
 31
0.0
  0
LINE
  5
242
100
AcDbEntity
  8
D-STR
  6
CONTINUOUS
 62
       1
100
AcDbLine
 10
-110.5
 20
8.0
 30
0.0
 11
-70.5
 21
8.0
 31
0.0
  0
LINE
  5
243
100
AcDbEntity
  8
D-STR
  6
CONTINUOUS
 62
       1
100
AcDbLine
 10
-115.5
 20
193.0
 30
0.0
 11
-115.5
 21
13.0
 31
0.0
  0
LINE
  5
244
100
AcDbEntity
  8
D-STR
  6
CONTINUOUS
 62
       1
100
AcDbLine
 10
-70.5
 20
198.0
 30
0.0
 11
-110.5
 21
198.0
 31
0.0
  0
LINE
  5
245
100
AcDbEntity
  8
D-STR
  6
CONTINUOUS
 62
       1
100
AcDbLine
 10
-70.5
 20
3.0
 30
0.0
 11
-70.5
 21
8.0
 31
0.0
  0
LINE
  5
246
100
AcDbEntity
  8
D-STR
  6
CONTINUOUS
 62
       1
100
AcDbLine
 10
-70.5
 20
198.0
 30
0.0
 11
-70.5
 21
203.0
 31
0.0
  0
ARC
  5
247
100
AcDbEntity
  8
D-STR
  6
CONTINUOUS
 62
       1
100
AcDbCircle
 10
-110.5
 20
193.0
 30
0.0
 40
5.0
100
AcDbArc
 50
90.0
 51
180.0
  0
ARC
  5
248
100
AcDbEntity
  8
D-STR
  6
CONTINUOUS
 62
       1
100
AcDbCircle
 10
-110.5
 20
13.0
 30
0.0
 40
5.0
100
AcDbArc
 50
180.0
 51
270.0
  0
ARC
  5
249
100
AcDbEntity
  8
D-STR
  6
CONTINUOUS
 62
       1
100
AcDbCircle
 10
-110.5
 20
13.0
 30
0.0
 40
10.0
100
AcDbArc
 50
180.0
 51
270.0
  0
ARC
  5
24A
100
AcDbEntity
  8
D-STR
  6
CONTINUOUS
 62
       1
100
AcDbCircle
 10
-110.5
 20
193.0
 30
0.0
 40
10.0
100
AcDbArc
 50
90.0
 51
180.0
  0
ENDBLK
  5
24B
100
AcDbEntity
  8
0
100
AcDbBlockEnd
  0
BLOCK
  5
24C
100
AcDbEntity
  8
0
100
AcDbBlockBegin
  2
GROUP_36
 70
       0
 10
0.0
 20
0.0
 30
0.0
  3
GROUP_36
  1

  0
LINE
  5
24D
100
AcDbEntity
  8
D-STR
  6
CONTINUOUS
 62
       1
100
AcDbLine
 10
-170.5
 20
3.0
 30
0.0
 11
-212.5
 21
3.0
 31
0.0
  0
LINE
  5
24E
100
AcDbEntity
  8
D-STR
  6
CONTINUOUS
 62
       1
100
AcDbLine
 10
-212.5
 20
203.0
 30
0.0
 11
-170.5
 21
203.0
 31
0.0
  0
LINE
  5
24F
100
AcDbEntity
  8
D-STR
  6
CONTINUOUS
 62
       1
100
AcDbLine
 10
-220.5
 20
11.0
 30
0.0
 11
-220.5
 21
195.0
 31
0.0
  0
LINE
  5
250
100
AcDbEntity
  8
D-STR
  6
CONTINUOUS
 62
       1
100
AcDbLine
 10
-170.5
 20
199.0
 30
0.0
 11
-212.5
 21
199.0
 31
0.0
  0
LINE
  5
251
100
AcDbEntity
  8
D-STR
  6
CONTINUOUS
 62
       1
100
AcDbLine
 10
-216.5
 20
195.0
 30
0.0
 11
-216.5
 21
11.0
 31
0.0
  0
LINE
  5
252
100
AcDbEntity
  8
D-STR
  6
CONTINUOUS
 62
       1
100
AcDbLine
 10
-212.5
 20
7.0
 30
0.0
 11
-170.5
 21
7.0
 31
0.0
  0
LINE
  5
253
100
AcDbEntity
  8
D-STR
  6
CONTINUOUS
 62
       1
100
AcDbLine
 10
-170.5
 20
3.0
 30
0.0
 11
-170.5
 21
7.0
 31
0.0
  0
LINE
  5
254
100
AcDbEntity
  8
D-STR
  6
CONTINUOUS
 62
       1
100
AcDbLine
 10
-170.5
 20
199.0
 30
0.0
 11
-170.5
 21
203.0
 31
0.0
  0
ARC
  5
255
100
AcDbEntity
  8
D-STR
  6
CONTINUOUS
 62
       1
100
AcDbCircle
 10
-212.5
 20
195.0
 30
0.0
 40
4.0
100
AcDbArc
 50
90.0
 51
180.0
  0
ARC
  5
256
100
AcDbEntity
  8
D-STR
  6
CONTINUOUS
 62
       1
100
AcDbCircle
 10
-212.5
 20
11.0
 30
0.0
 40
4.0
100
AcDbArc
 50
180.0
 51
270.0
  0
ARC
  5
257
100
AcDbEntity
  8
D-STR
  6
CONTINUOUS
 62
       1
100
AcDbCircle
 10
-212.5
 20
11.0
 30
0.0
 40
8.0
100
AcDbArc
 50
180.0
 51
270.0
  0
ARC
  5
258
100
AcDbEntity
  8
D-STR
  6
CONTINUOUS
 62
       1
100
AcDbCircle
 10
-212.5
 20
195.0
 30
0.0
 40
8.0
100
AcDbArc
 50
90.0
 51
180.0
  0
ENDBLK
  5
259
100
AcDbEntity
  8
0
100
AcDbBlockEnd
  0
BLOCK
  5
25A
100
AcDbEntity
  8
0
100
AcDbBlockBegin
  2
GROUP_37
 70
       0
 10
0.0
 20
0.0
 30
0.0
  3
GROUP_37
  1

  0
LINE
  5
25B
100
AcDbEntity
  8
D-STR
  6
CONTINUOUS
 62
       1
100
AcDbLine
 10
-145.5
 20
-297.0
 30
0.0
 11
-212.5
 21
-297.0
 31
0.0
  0
LINE
  5
25C
100
AcDbEntity
  8
D-STR
  6
CONTINUOUS
 62
       1
100
AcDbLine
 10
-212.5
 20
-97.0
 30
0.0
 11
-145.5
 21
-97.0
 31
0.0
  0
LINE
  5
25D
100
AcDbEntity
  8
D-STR
  6
CONTINUOUS
 62
       1
100
AcDbLine
 10
-220.5
 20
-289.0
 30
0.0
 11
-220.5
 21
-105.0
 31
0.0
  0
LINE
  5
25E
100
AcDbEntity
  8
D-STR
  6
CONTINUOUS
 62
       1
100
AcDbLine
 10
-212.5
 20
-293.0
 30
0.0
 11
-145.5
 21
-293.0
 31
0.0
  0
LINE
  5
25F
100
AcDbEntity
  8
D-STR
  6
CONTINUOUS
 62
       1
100
AcDbLine
 10
-216.5
 20
-105.0
 30
0.0
 11
-216.5
 21
-289.0
 31
0.0
  0
LINE
  5
260
100
AcDbEntity
  8
D-STR
  6
CONTINUOUS
 62
       1
100
AcDbLine
 10
-145.5
 20
-101.0
 30
0.0
 11
-212.5
 21
-101.0
 31
0.0
  0
LINE
  5
261
100
AcDbEntity
  8
D-STR
  6
CONTINUOUS
 62
       1
100
AcDbLine
 10
-145.5
 20
-297.0
 30
0.0
 11
-145.5
 21
-293.0
 31
0.0
  0
LINE
  5
262
100
AcDbEntity
  8
D-STR
  6
CONTINUOUS
 62
       1
100
AcDbLine
 10
-145.5
 20
-101.0
 30
0.0
 11
-145.5
 21
-97.0
 31
0.0
  0
ARC
  5
263
100
AcDbEntity
  8
D-STR
  6
CONTINUOUS
 62
       1
100
AcDbCircle
 10
-212.5
 20
-105.0
 30
0.0
 40
4.0
100
AcDbArc
 50
90.0
 51
180.0
  0
ARC
  5
264
100
AcDbEntity
  8
D-STR
  6
CONTINUOUS
 62
       1
100
AcDbCircle
 10
-212.5
 20
-289.0
 30
0.0
 40
4.0
100
AcDbArc
 50
180.0
 51
270.0
  0
ARC
  5
265
100
AcDbEntity
  8
D-STR
  6
CONTINUOUS
 62
       1
100
AcDbCircle
 10
-212.5
 20
-289.0
 30
0.0
 40
8.0
100
AcDbArc
 50
180.0
 51
270.0
  0
ARC
  5
266
100
AcDbEntity
  8
D-STR
  6
CONTINUOUS
 62
       1
100
AcDbCircle
 10
-212.5
 20
-105.0
 30
0.0
 40
8.0
100
AcDbArc
 50
90.0
 51
180.0
  0
ENDBLK
  5
267
100
AcDbEntity
  8
0
100
AcDbBlockEnd
  0
BLOCK
  5
268
100
AcDbEntity
  8
0
100
AcDbBlockBegin
  2
GROUP_38
 70
       0
 10
0.0
 20
0.0
 30
0.0
  3
GROUP_38
  1

  0
LINE
  5
269
100
AcDbEntity
  8
D-STR
  6
CONTINUOUS
 62
       1
100
AcDbLine
 10
-45.5
 20
-297.0
 30
0.0
 11
-110.5
 21
-297.0
 31
0.0
  0
LINE
  5
26A
100
AcDbEntity
  8
D-STR
  6
CONTINUOUS
 62
       1
100
AcDbLine
 10
-110.5
 20
-97.0
 30
0.0
 11
-45.5
 21
-97.0
 31
0.0
  0
LINE
  5
26B
100
AcDbEntity
  8
D-STR
  6
CONTINUOUS
 62
       1
100
AcDbLine
 10
-120.5
 20
-287.0
 30
0.0
 11
-120.5
 21
-107.0
 31
0.0
  0
LINE
  5
26C
100
AcDbEntity
  8
D-STR
  6
CONTINUOUS
 62
       1
100
AcDbLine
 10
-45.5
 20
-102.0
 30
0.0
 11
-110.5
 21
-102.0
 31
0.0
  0
LINE
  5
26D
100
AcDbEntity
  8
D-STR
  6
CONTINUOUS
 62
       1
100
AcDbLine
 10
-115.5
 20
-107.0
 30
0.0
 11
-115.5
 21
-287.0
 31
0.0
  0
LINE
  5
26E
100
AcDbEntity
  8
D-STR
  6
CONTINUOUS
 62
       1
100
AcDbLine
 10
-110.5
 20
-292.0
 30
0.0
 11
-45.5
 21
-292.0
 31
0.0
  0
LINE
  5
26F
100
AcDbEntity
  8
D-STR
  6
CONTINUOUS
 62
       1
100
AcDbLine
 10
-45.5
 20
-297.0
 30
0.0
 11
-45.5
 21
-292.0
 31
0.0
  0
LINE
  5
270
100
AcDbEntity
  8
D-STR
  6
CONTINUOUS
 62
       1
100
AcDbLine
 10
-45.5
 20
-102.0
 30
0.0
 11
-45.5
 21
-97.0
 31
0.0
  0
ARC
  5
271
100
AcDbEntity
  8
D-STR
  6
CONTINUOUS
 62
       1
100
AcDbCircle
 10
-110.5
 20
-107.0
 30
0.0
 40
5.0
100
AcDbArc
 50
90.0
 51
180.0
  0
ARC
  5
272
100
AcDbEntity
  8
D-STR
  6
CONTINUOUS
 62
       1
100
AcDbCircle
 10
-110.5
 20
-287.0
 30
0.0
 40
5.0
100
AcDbArc
 50
180.0
 51
270.0
  0
ARC
  5
273
100
AcDbEntity
  8
D-STR
  6
CONTINUOUS
 62
       1
100
AcDbCircle
 10
-110.5
 20
-287.0
 30
0.0
 40
10.0
100
AcDbArc
 50
180.0
 51
270.0
  0
ARC
  5
274
100
AcDbEntity
  8
D-STR
  6
CONTINUOUS
 62
       1
100
AcDbCircle
 10
-110.5
 20
-107.0
 30
0.0
 40
10.0
100
AcDbArc
 50
90.0
 51
180.0
  0
ENDBLK
  5
275
100
AcDbEntity
  8
0
100
AcDbBlockEnd
  0
BLOCK
  5
276
100
AcDbEntity
  8
0
100
AcDbBlockBegin
  2
GROUP_39
 70
       0
 10
0.0
 20
0.0
 30
0.0
  3
GROUP_39
  1

  0
LINE
  5
277
100
AcDbEntity
  8
D-STR
  6
CONTINUOUS
 62
       1
100
AcDbLine
 10
54.5
 20
-297.0
 30
0.0
 11
-8.5
 21
-297.0
 31
0.0
  0
LINE
  5
278
100
AcDbEntity
  8
D-STR
  6
CONTINUOUS
 62
       1
100
AcDbLine
 10
-8.5
 20
-97.0
 30
0.0
 11
54.5
 21
-97.0
 31
0.0
  0
LINE
  5
279
100
AcDbEntity
  8
D-STR
  6
CONTINUOUS
 62
       1
100
AcDbLine
 10
-20.5
 20
-285.0
 30
0.0
 11
-20.5
 21
-109.0
 31
0.0
  0
LINE
  5
27A
100
AcDbEntity
  8
D-STR
  6
CONTINUOUS
 62
       1
100
AcDbLine
 10
54.5
 20
-103.0
 30
0.0
 11
-8.5
 21
-103.0
 31
0.0
  0
LINE
  5
27B
100
AcDbEntity
  8
D-STR
  6
CONTINUOUS
 62
       1
100
AcDbLine
 10
-14.5
 20
-109.0
 30
0.0
 11
-14.5
 21
-285.0
 31
0.0
  0
LINE
  5
27C
100
AcDbEntity
  8
D-STR
  6
CONTINUOUS
 62
       1
100
AcDbLine
 10
-8.5
 20
-291.0
 30
0.0
 11
54.5
 21
-291.0
 31
0.0
  0
LINE
  5
27D
100
AcDbEntity
  8
D-STR
  6
CONTINUOUS
 62
       1
100
AcDbLine
 10
54.5
 20
-297.0
 30
0.0
 11
54.5
 21
-291.0
 31
0.0
  0
LINE
  5
27E
100
AcDbEntity
  8
D-STR
  6
CONTINUOUS
 62
       1
100
AcDbLine
 10
54.5
 20
-103.0
 30
0.0
 11
54.5
 21
-97.0
 31
0.0
  0
ARC
  5
27F
100
AcDbEntity
  8
D-STR
  6
CONTINUOUS
 62
       1
100
AcDbCircle
 10
-8.5
 20
-109.0
 30
0.0
 40
6.0
100
AcDbArc
 50
90.0
 51
180.0
  0
ARC
  5
280
100
AcDbEntity
  8
D-STR
  6
CONTINUOUS
 62
       1
100
AcDbCircle
 10
-8.5
 20
-285.0
 30
0.0
 40
6.0
100
AcDbArc
 50
180.0
 51
270.0
  0
ARC
  5
281
100
AcDbEntity
  8
D-STR
  6
CONTINUOUS
 62
       1
100
AcDbCircle
 10
-8.5
 20
-285.0
 30
0.0
 40
12.0
100
AcDbArc
 50
180.0
 51
270.0
  0
ARC
  5
282
100
AcDbEntity
  8
D-STR
  6
CONTINUOUS
 62
       1
100
AcDbCircle
 10
-8.5
 20
-109.0
 30
0.0
 40
12.0
100
AcDbArc
 50
90.0
 51
180.0
  0
ENDBLK
  5
283
100
AcDbEntity
  8
0
100
AcDbBlockEnd
  0
ENDSEC
  0
SECTION
  2
ENTITIES
  0
TEXT
  5
284
100
AcDbEntity
  8
D-STR-TXT
 62
       7
100
AcDbText
 10
-430.5
 20
1625.5
 30
0.0
 40
10.0
  1
C40x20x2
 72
       5
 11
-390.5
 21
1625.5
 31
0.0
100
AcDbText
  0
TEXT
  5
285
100
AcDbEntity
  8
D-STR-TXT
 62
       7
100
AcDbText
 10
-428.0
 20
1560.5
 30
0.0
 40
10.0
  1
C50x25x2
 72
       5
 11
-388.0
 21
1560.5
 31
0.0
100
AcDbText
  0
TEXT
  5
286
100
AcDbEntity
  8
D-STR-TXT
 62
       7
100
AcDbText
 10
-425.5
 20
1480.5
 30
0.0
 40
10.0
  1
C60x30x2
 72
       5
 11
-385.5
 21
1480.5
 31
0.0
100
AcDbText
  0
TEXT
  5
287
100
AcDbEntity
  8
D-STR-TXT
 62
       7
100
AcDbText
 10
-423.0
 20
1385.5
 30
0.0
 40
10.0
  1
C70x35x2
 72
       5
 11
-383.0
 21
1385.5
 31
0.0
100
AcDbText
  0
TEXT
  5
288
100
AcDbEntity
  8
D-STR-TXT
 62
       7
100
AcDbText
 10
-423.0
 20
1278.0
 30
0.0
 40
10.0
  1
C75x35x2
 72
       5
 11
-383.0
 21
1278.0
 31
0.0
100
AcDbText
  0
TEXT
  5
289
100
AcDbEntity
  8
D-STR-TXT
 62
       7
100
AcDbText
 10
-420.5
 20
1163.0
 30
0.0
 40
10.0
  1
C80x40x2
 72
       5
 11
-380.5
 21
1163.0
 31
0.0
100
AcDbText
  0
TEXT
  5
28A
100
AcDbEntity
  8
D-STR-TXT
 62
       7
100
AcDbText
 10
-418.0
 20
1033.0
 30
0.0
 40
10.0
  1
C100x50x2
 72
       5
 11
-373.0
 21
1033.0
 31
0.0
100
AcDbText
  0
TEXT
  5
28B
100
AcDbEntity
  8
D-STR-TXT
 62
       7
100
AcDbText
 10
-413.0
 20
873.0
 30
0.0
 40
10.0
  1
C120x60x2
 72
       5
 11
-368.0
 21
873.0
 31
0.0
100
AcDbText
  0
TEXT
  5
28C
100
AcDbEntity
  8
D-STR-TXT
 62
       7
100
AcDbText
 10
-418.0
 20
678.0
 30
0.0
 40
10.0
  1
C150x50x2
 72
       5
 11
-373.0
 21
678.0
 31
0.0
100
AcDbText
  0
TEXT
  5
28D
100
AcDbEntity
  8
D-STR-TXT
 62
       7
100
AcDbText
 10
-330.5
 20
1625.5
 30
0.0
 40
10.0
  1
C40x20x3
 72
       5
 11
-290.5
 21
1625.5
 31
0.0
100
AcDbText
  0
TEXT
  5
28E
100
AcDbEntity
  8
D-STR-TXT
 62
       7
100
AcDbText
 10
-328.0
 20
1560.5
 30
0.0
 40
10.0
  1
C50x25x3
 72
       5
 11
-288.0
 21
1560.5
 31
0.0
100
AcDbText
  0
TEXT
  5
28F
100
AcDbEntity
  8
D-STR-TXT
 62
       7
100
AcDbText
 10
-325.5
 20
1480.5
 30
0.0
 40
10.0
  1
C60x30x3
 72
       5
 11
-285.5
 21
1480.5
 31
0.0
100
AcDbText
  0
TEXT
  5
290
100
AcDbEntity
  8
D-STR-TXT
 62
       7
100
AcDbText
 10
-323.0
 20
1385.5
 30
0.0
 40
10.0
  1
C70x35x3
 72
       5
 11
-283.0
 21
1385.5
 31
0.0
100
AcDbText
  0
TEXT
  5
291
100
AcDbEntity
  8
D-STR-TXT
 62
       7
100
AcDbText
 10
-323.0
 20
1278.0
 30
0.0
 40
10.0
  1
C75x35x3
 72
       5
 11
-283.0
 21
1278.0
 31
0.0
100
AcDbText
  0
TEXT
  5
292
100
AcDbEntity
  8
D-STR-TXT
 62
       7
100
AcDbText
 10
-320.5
 20
1163.0
 30
0.0
 40
10.0
  1
C80x40x3
 72
       5
 11
-280.5
 21
1163.0
 31
0.0
100
AcDbText
  0
TEXT
  5
293
100
AcDbEntity
  8
D-STR-TXT
 62
       7
100
AcDbText
 10
-318.0
 20
1033.0
 30
0.0
 40
10.0
  1
C100x50x3
 72
       5
 11
-273.0
 21
1033.0
 31
0.0
100
AcDbText
  0
TEXT
  5
294
100
AcDbEntity
  8
D-STR-TXT
 62
       7
100
AcDbText
 10
-313.0
 20
873.0
 30
0.0
 40
10.0
  1
C120x60x3
 72
       5
 11
-268.0
 21
873.0
 31
0.0
100
AcDbText
  0
TEXT
  5
295
100
AcDbEntity
  8
D-STR-TXT
 62
       7
100
AcDbText
 10
-318.0
 20
678.0
 30
0.0
 40
10.0
  1
C150x50x3
 72
       5
 11
-273.0
 21
678.0
 31
0.0
100
AcDbText
  0
TEXT
  5
296
100
AcDbEntity
  8
D-STR-TXT
 62
       7
100
AcDbText
 10
-220.5
 20
1163.0
 30
0.0
 40
10.0
  1
C80x40x4
 72
       5
 11
-180.5
 21
1163.0
 31
0.0
100
AcDbText
  0
TEXT
  5
297
100
AcDbEntity
  8
D-STR-TXT
 62
       7
100
AcDbText
 10
-218.0
 20
1033.0
 30
0.0
 40
10.0
  1
C100x50x4
 72
       5
 11
-173.0
 21
1033.0
 31
0.0
100
AcDbText
  0
TEXT
  5
298
100
AcDbEntity
  8
D-STR-TXT
 62
       7
100
AcDbText
 10
-213.0
 20
873.0
 30
0.0
 40
10.0
  1
C120x60x4
 72
       5
 11
-168.0
 21
873.0
 31
0.0
100
AcDbText
  0
TEXT
  5
299
100
AcDbEntity
  8
D-STR-TXT
 62
       7
100
AcDbText
 10
-218.0
 20
678.0
 30
0.0
 40
10.0
  1
C150x50x4
 72
       5
 11
-173.0
 21
678.0
 31
0.0
100
AcDbText
  0
TEXT
  5
29A
100
AcDbEntity
  8
D-STR-TXT
 62
       7
100
AcDbText
 10
-205.5
 20
453.0
 30
0.0
 40
10.0
  1
C150x75x4
 72
       5
 11
-160.5
 21
453.0
 31
0.0
100
AcDbText
  0
TEXT
  5
29B
100
AcDbEntity
  8
D-STR-TXT
 62
       7
100
AcDbText
 10
-218.0
 20
203.0
 30
0.0
 40
10.0
  1
C200x50x4
 72
       5
 11
-173.0
 21
203.0
 31
0.0
100
AcDbText
  0
TEXT
  5
29C
100
AcDbEntity
  8
D-STR-TXT
 62
       7
100
AcDbText
 10
-205.5
 20
-97.0
 30
0.0
 40
10.0
  1
C200x75x4
 72
       5
 11
-160.5
 21
-97.0
 31
0.0
100
AcDbText
  0
TEXT
  5
29D
100
AcDbEntity
  8
D-STR-TXT
 62
       7
100
AcDbText
 10
-120.5
 20
1163.0
 30
0.0
 40
10.0
  1
C80x40x5
 72
       5
 11
-80.5
 21
1163.0
 31
0.0
100
AcDbText
  0
TEXT
  5
29E
100
AcDbEntity
  8
D-STR-TXT
 62
       7
100
AcDbText
 10
-118.0
 20
1033.0
 30
0.0
 40
10.0
  1
C100x50x5
 72
       5
 11
-73.0
 21
1033.0
 31
0.0
100
AcDbText
  0
TEXT
  5
29F
100
AcDbEntity
  8
D-STR-TXT
 62
       7
100
AcDbText
 10
-113.0
 20
873.0
 30
0.0
 40
10.0
  1
C120x60x5
 72
       5
 11
-68.0
 21
873.0
 31
0.0
100
AcDbText
  0
TEXT
  5
2A0
100
AcDbEntity
  8
D-STR-TXT
 62
       7
100
AcDbText
 10
-118.0
 20
678.0
 30
0.0
 40
10.0
  1
C150x50x5
 72
       5
 11
-73.0
 21
678.0
 31
0.0
100
AcDbText
  0
TEXT
  5
2A1
100
AcDbEntity
  8
D-STR-TXT
 62
       7
100
AcDbText
 10
-105.5
 20
453.0
 30
0.0
 40
10.0
  1
C150x75x5
 72
       5
 11
-60.5
 21
453.0
 31
0.0
100
AcDbText
  0
TEXT
  5
2A2
100
AcDbEntity
  8
D-STR-TXT
 62
       7
100
AcDbText
 10
-118.0
 20
203.0
 30
0.0
 40
10.0
  1
C200x50x5
 72
       5
 11
-73.0
 21
203.0
 31
0.0
100
AcDbText
  0
TEXT
  5
2A3
100
AcDbEntity
  8
D-STR-TXT
 62
       7
100
AcDbText
 10
-105.5
 20
-97.0
 30
0.0
 40
10.0
  1
C200x75x5
 72
       5
 11
-60.5
 21
-97.0
 31
0.0
100
AcDbText
  0
TEXT
  5
2A4
100
AcDbEntity
  8
D-STR-TXT
 62
       7
100
AcDbText
 10
-20.5
 20
1163.0
 30
0.0
 40
10.0
  1
C80x40x6
 72
       5
 11
19.5
 21
1163.0
 31
0.0
100
AcDbText
  0
TEXT
  5
2A5
100
AcDbEntity
  8
D-STR-TXT
 62
       7
100
AcDbText
 10
-18.0
 20
1033.0
 30
0.0
 40
10.0
  1
C100x50x6
 72
       5
 11
27.0
 21
1033.0
 31
0.0
100
AcDbText
  0
TEXT
  5
2A6
100
AcDbEntity
  8
D-STR-TXT
 62
       7
100
AcDbText
 10
-13.0
 20
873.0
 30
0.0
 40
10.0
  1
C120x60x6
 72
       5
 11
32.0
 21
873.0
 31
0.0
100
AcDbText
  0
TEXT
  5
2A7
100
AcDbEntity
  8
D-STR-TXT
 62
       7
100
AcDbText
 10
-18.0
 20
678.0
 30
0.0
 40
10.0
  1
C150x50x6
 72
       5
 11
27.0
 21
678.0
 31
0.0
100
AcDbText
  0
TEXT
  5
2A8
100
AcDbEntity
  8
D-STR-TXT
 62
       7
100
AcDbText
 10
-5.5
 20
453.0
 30
0.0
 40
10.0
  1
C150x75x6
 72
       5
 11
39.5
 21
453.0
 31
0.0
100
AcDbText
  0
TEXT
  5
2A9
100
AcDbEntity
  8
D-STR-TXT
 62
       7
100
AcDbText
 10
-18.0
 20
203.0
 30
0.0
 40
10.0
  1
C200x50x6
 72
       5
 11
27.0
 21
203.0
 31
0.0
100
AcDbText
  0
TEXT
  5
2AA
100
AcDbEntity
  8
D-STR-TXT
 62
       7
100
AcDbText
 10
-5.5
 20
-97.0
 30
0.0
 40
10.0
  1
C200x75x6
 72
       5
 11
39.5
 21
-97.0
 31
0.0
100
AcDbText
  0
INSERT
  5
2AB
100
AcDbEntity
  8
0
  6
CONTINUOUS
100
AcDbBlockReference
  2
GROUP_1
 10
0.0
 20
0.0
 30
0.0
  0
INSERT
  5
2AC
100
AcDbEntity
  8
0
  6
CONTINUOUS
100
AcDbBlockReference
  2
GROUP_2
 10
0.0
 20
0.0
 30
0.0
  0
INSERT
  5
2AD
100
AcDbEntity
  8
0
  6
CONTINUOUS
100
AcDbBlockReference
  2
GROUP_3
 10
0.0
 20
0.0
 30
0.0
  0
INSERT
  5
2AE
100
AcDbEntity
  8
0
  6
CONTINUOUS
100
AcDbBlockReference
  2
GROUP_4
 10
0.0
 20
0.0
 30
0.0
  0
INSERT
  5
2AF
100
AcDbEntity
  8
0
  6
CONTINUOUS
100
AcDbBlockReference
  2
GROUP_5
 10
0.0
 20
0.0
 30
0.0
  0
INSERT
  5
2B0
100
AcDbEntity
  8
0
  6
CONTINUOUS
100
AcDbBlockReference
  2
GROUP_6
 10
0.0
 20
0.0
 30
0.0
  0
INSERT
  5
2B1
100
AcDbEntity
  8
0
  6
CONTINUOUS
100
AcDbBlockReference
  2
GROUP_7
 10
0.0
 20
0.0
 30
0.0
  0
INSERT
  5
2B2
100
AcDbEntity
  8
0
  6
CONTINUOUS
100
AcDbBlockReference
  2
GROUP_8
 10
0.0
 20
0.0
 30
0.0
  0
INSERT
  5
2B3
100
AcDbEntity
  8
0
  6
CONTINUOUS
100
AcDbBlockReference
  2
GROUP_9
 10
0.0
 20
0.0
 30
0.0
  0
INSERT
  5
2B4
100
AcDbEntity
  8
0
  6
CONTINUOUS
100
AcDbBlockReference
  2
GROUP_10
 10
0.0
 20
0.0
 30
0.0
  0
INSERT
  5
2B5
100
AcDbEntity
  8
0
  6
CONTINUOUS
100
AcDbBlockReference
  2
GROUP_11
 10
0.0
 20
0.0
 30
0.0
  0
INSERT
  5
2B6
100
AcDbEntity
  8
0
  6
CONTINUOUS
100
AcDbBlockReference
  2
GROUP_12
 10
0.0
 20
0.0
 30
0.0
  0
INSERT
  5
2B7
100
AcDbEntity
  8
0
  6
CONTINUOUS
100
AcDbBlockReference
  2
GROUP_13
 10
0.0
 20
0.0
 30
0.0
  0
INSERT
  5
2B8
100
AcDbEntity
  8
0
  6
CONTINUOUS
100
AcDbBlockReference
  2
GROUP_14
 10
0.0
 20
0.0
 30
0.0
  0
INSERT
  5
2B9
100
AcDbEntity
  8
0
  6
CONTINUOUS
100
AcDbBlockReference
  2
GROUP_15
 10
0.0
 20
0.0
 30
0.0
  0
INSERT
  5
2BA
100
AcDbEntity
  8
0
  6
CONTINUOUS
100
AcDbBlockReference
  2
GROUP_16
 10
0.0
 20
0.0
 30
0.0
  0
INSERT
  5
2BB
100
AcDbEntity
  8
0
  6
CONTINUOUS
100
AcDbBlockReference
  2
GROUP_17
 10
0.0
 20
0.0
 30
0.0
  0
INSERT
  5
2BC
100
AcDbEntity
  8
0
  6
CONTINUOUS
100
AcDbBlockReference
  2
GROUP_18
 10
0.0
 20
0.0
 30
0.0
  0
INSERT
  5
2BD
100
AcDbEntity
  8
0
  6
CONTINUOUS
100
AcDbBlockReference
  2
GROUP_19
 10
0.0
 20
0.0
 30
0.0
  0
INSERT
  5
2BE
100
AcDbEntity
  8
0
  6
CONTINUOUS
100
AcDbBlockReference
  2
GROUP_20
 10
0.0
 20
0.0
 30
0.0
  0
INSERT
  5
2BF
100
AcDbEntity
  8
0
  6
CONTINUOUS
100
AcDbBlockReference
  2
GROUP_21
 10
0.0
 20
0.0
 30
0.0
  0
INSERT
  5
2C0
100
AcDbEntity
  8
0
  6
CONTINUOUS
100
AcDbBlockReference
  2
GROUP_22
 10
0.0
 20
0.0
 30
0.0
  0
INSERT
  5
2C1
100
AcDbEntity
  8
0
  6
CONTINUOUS
100
AcDbBlockReference
  2
GROUP_23
 10
0.0
 20
0.0
 30
0.0
  0
INSERT
  5
2C2
100
AcDbEntity
  8
0
  6
CONTINUOUS
100
AcDbBlockReference
  2
GROUP_24
 10
0.0
 20
0.0
 30
0.0
  0
INSERT
  5
2C3
100
AcDbEntity
  8
0
  6
CONTINUOUS
100
AcDbBlockReference
  2
GROUP_25
 10
0.0
 20
0.0
 30
0.0
  0
INSERT
  5
2C4
100
AcDbEntity
  8
0
  6
CONTINUOUS
100
AcDbBlockReference
  2
GROUP_26
 10
0.0
 20
0.0
 30
0.0
  0
INSERT
  5
2C5
100
AcDbEntity
  8
0
  6
CONTINUOUS
100
AcDbBlockReference
  2
GROUP_27
 10
0.0
 20
0.0
 30
0.0
  0
INSERT
  5
2C6
100
AcDbEntity
  8
0
  6
CONTINUOUS
100
AcDbBlockReference
  2
GROUP_28
 10
0.0
 20
0.0
 30
0.0
  0
INSERT
  5
2C7
100
AcDbEntity
  8
0
  6
CONTINUOUS
100
AcDbBlockReference
  2
GROUP_29
 10
0.0
 20
0.0
 30
0.0
  0
INSERT
  5
2C8
100
AcDbEntity
  8
0
  6
CONTINUOUS
100
AcDbBlockReference
  2
GROUP_30
 10
0.0
 20
0.0
 30
0.0
  0
INSERT
  5
2C9
100
AcDbEntity
  8
0
  6
CONTINUOUS
100
AcDbBlockReference
  2
GROUP_31
 10
0.0
 20
0.0
 30
0.0
  0
INSERT
  5
2CA
100
AcDbEntity
  8
0
  6
CONTINUOUS
100
AcDbBlockReference
  2
GROUP_32
 10
0.0
 20
0.0
 30
0.0
  0
INSERT
  5
2CB
100
AcDbEntity
  8
0
  6
CONTINUOUS
100
AcDbBlockReference
  2
GROUP_33
 10
0.0
 20
0.0
 30
0.0
  0
INSERT
  5
2CC
100
AcDbEntity
  8
0
  6
CONTINUOUS
100
AcDbBlockReference
  2
GROUP_34
 10
0.0
 20
0.0
 30
0.0
  0
INSERT
  5
2CD
100
AcDbEntity
  8
0
  6
CONTINUOUS
100
AcDbBlockReference
  2
GROUP_35
 10
0.0
 20
0.0
 30
0.0
  0
INSERT
  5
2CE
100
AcDbEntity
  8
0
  6
CONTINUOUS
100
AcDbBlockReference
  2
GROUP_36
 10
0.0
 20
0.0
 30
0.0
  0
INSERT
  5
2CF
100
AcDbEntity
  8
0
  6
CONTINUOUS
100
AcDbBlockReference
  2
GROUP_37
 10
0.0
 20
0.0
 30
0.0
  0
INSERT
  5
2D0
100
AcDbEntity
  8
0
  6
CONTINUOUS
100
AcDbBlockReference
  2
GROUP_38
 10
0.0
 20
0.0
 30
0.0
  0
INSERT
  5
2D1
100
AcDbEntity
  8
0
  6
CONTINUOUS
100
AcDbBlockReference
  2
GROUP_39
 10
0.0
 20
0.0
 30
0.0
  0
ENDSEC
  0
SECTION
  2
OBJECTS
  0
DICTIONARY
  5
19
100
AcDbDictionary
  3
ACAD_GROUP
350
1A
  3
ACAD_MLINESTYLE
350
1B
  0
DICTIONARY
  5
1A
102
{ACAD_REACTORS
330
19
102
}
100
AcDbDictionary
  0
DICTIONARY
  5
1B
102
{ACAD_REACTORS
330
19
102
}
100
AcDbDictionary
  3
STANDARD
350
1C
  0
MLINESTYLE
  5
1C
102
{ACAD_REACTORS
330
1B
102
}
100
AcDbMlineStyle
  2
STANDARD
 70
       0
  3

 62
       0
 51
90.0
 52
90.0
 71
       2
 49
0.5
 62
     256
  6
BYLAYER
 49
-0.5
 62
     256
  6
BYLAYER
  0
ENDSEC
  0
EOF
